  0
SECTION
  2
HEADER
  9
$ACADVER
  1
AC1018
  9
$ACADMAINTVER
 70
   104
  9
$DWGCODEPAGE
  3
ANSI_1252
  9
$LASTSAVEDBY
  1
admin
  9
$INSBASE
 10
0.0
 20
0.0
 30
0.0
  9
$EXTMIN
 10
286.8774139558309
 20
117.5569964531187
 30
-0.0015258207003583
  9
$EXTMAX
 10
720.8685559154537
 20
869.8425857809525
 30
0.0000000349246037
  9
$LIMMIN
 10
0.0
 20
0.0
  9
$LIMMAX
 10
420.0
 20
297.0
  9
$ORTHOMODE
 70
     0
  9
$REGENMODE
 70
     1
  9
$FILLMODE
 70
     1
  9
$QTEXTMODE
 70
     0
  9
$MIRRTEXT
 70
     0
  9
$LTSCALE
 40
1.0
  9
$ATTMODE
 70
     1
  9
$TEXTSIZE
 40
2.5
  9
$TRACEWID
 40
1.0
  9
$TEXTSTYLE
  7
Standard
  9
$CLAYER
  8
0
  9
$CELTYPE
  6
ByLayer
  9
$CECOLOR
 62
   256
  9
$CELTSCALE
 40
1.0
  9
$DISPSILH
 70
     0
  9
$DIMSCALE
 40
1.0
  9
$DIMASZ
 40
2.5
  9
$DIMEXO
 40
0.625
  9
$DIMDLI
 40
3.75
  9
$DIMRND
 40
0.0
  9
$DIMDLE
 40
0.0
  9
$DIMEXE
 40
1.25
  9
$DIMTP
 40
0.0
  9
$DIMTM
 40
0.0
  9
$DIMTXT
 40
2.5
  9
$DIMCEN
 40
2.5
  9
$DIMTSZ
 40
0.0
  9
$DIMTOL
 70
     0
  9
$DIMLIM
 70
     0
  9
$DIMTIH
 70
     0
  9
$DIMTOH
 70
     0
  9
$DIMSE1
 70
     0
  9
$DIMSE2
 70
     0
  9
$DIMTAD
 70
     1
  9
$DIMZIN
 70
     8
  9
$DIMBLK
  1

  9
$DIMASO
 70
     1
  9
$DIMSHO
 70
     1
  9
$DIMPOST
  1

  9
$DIMAPOST
  1

  9
$DIMALT
 70
     0
  9
$DIMALTD
 70
     3
  9
$DIMALTF
 40
0.03937007874016
  9
$DIMLFAC
 40
1.0
  9
$DIMTOFL
 70
     1
  9
$DIMTVP
 40
0.0
  9
$DIMTIX
 70
     0
  9
$DIMSOXD
 70
     0
  9
$DIMSAH
 70
     0
  9
$DIMBLK1
  1

  9
$DIMBLK2
  1

  9
$DIMSTYLE
  2
ISO-25
  9
$DIMCLRD
 70
     0
  9
$DIMCLRE
 70
     0
  9
$DIMCLRT
 70
     0
  9
$DIMTFAC
 40
1.0
  9
$DIMGAP
 40
0.625
  9
$DIMJUST
 70
     0
  9
$DIMSD1
 70
     0
  9
$DIMSD2
 70
     0
  9
$DIMTOLJ
 70
     0
  9
$DIMTZIN
 70
     8
  9
$DIMALTZ
 70
     0
  9
$DIMALTTZ
 70
     0
  9
$DIMUPT
 70
     0
  9
$DIMDEC
 70
     2
  9
$DIMTDEC
 70
     2
  9
$DIMALTU
 70
     2
  9
$DIMALTTD
 70
     3
  9
$DIMTXSTY
  7
Standard
  9
$DIMAUNIT
 70
     0
  9
$DIMADEC
 70
     0
  9
$DIMALTRND
 40
0.0
  9
$DIMAZIN
 70
     0
  9
$DIMDSEP
 70
    44
  9
$DIMATFIT
 70
     3
  9
$DIMFRAC
 70
     0
  9
$DIMLDRBLK
  1

  9
$DIMLUNIT
 70
     2
  9
$DIMLWD
 70
    -2
  9
$DIMLWE
 70
    -2
  9
$DIMTMOVE
 70
     0
  9
$LUNITS
 70
     2
  9
$LUPREC
 70
     4
  9
$SKETCHINC
 40
1.0
  9
$FILLETRAD
 40
0.0
  9
$AUNITS
 70
     0
  9
$AUPREC
 70
     0
  9
$MENU
  1
.
  9
$ELEVATION
 40
0.0
  9
$PELEVATION
 40
0.0
  9
$THICKNESS
 40
0.0
  9
$LIMCHECK
 70
     0
  9
$CHAMFERA
 40
0.0
  9
$CHAMFERB
 40
0.0
  9
$CHAMFERC
 40
0.0
  9
$CHAMFERD
 40
0.0
  9
$SKPOLY
 70
     0
  9
$TDCREATE
 40
2457869.280614120
  9
$TDUCREATE
 40
2457869.197280787
  9
$TDUPDATE
 40
2457869.326873171
  9
$TDUUPDATE
 40
2457869.243539839
  9
$TDINDWG
 40
0.0462594329
  9
$TDUSRTIMER
 40
0.0462592477
  9
$USRTIMER
 70
     1
  9
$ANGBASE
 50
0.0
  9
$ANGDIR
 70
     0
  9
$PDMODE
 70
     0
  9
$PDSIZE
 40
0.0
  9
$PLINEWID
 40
0.0
  9
$SPLFRAME
 70
     0
  9
$SPLINETYPE
 70
     6
  9
$SPLINESEGS
 70
     8
  9
$HANDSEED
  5
5F96
  9
$SURFTAB1
 70
     6
  9
$SURFTAB2
 70
     6
  9
$SURFTYPE
 70
     6
  9
$SURFU
 70
     6
  9
$SURFV
 70
     6
  9
$UCSBASE
  2

  9
$UCSNAME
  2

  9
$UCSORG
 10
0.0
 20
0.0
 30
0.0
  9
$UCSXDIR
 10
1.0
 20
0.0
 30
0.0
  9
$UCSYDIR
 10
0.0
 20
1.0
 30
0.0
  9
$UCSORTHOREF
  2

  9
$UCSORTHOVIEW
 70
     0
  9
$UCSORGTOP
 10
0.0
 20
0.0
 30
0.0
  9
$UCSORGBOTTOM
 10
0.0
 20
0.0
 30
0.0
  9
$UCSORGLEFT
 10
0.0
 20
0.0
 30
0.0
  9
$UCSORGRIGHT
 10
0.0
 20
0.0
 30
0.0
  9
$UCSORGFRONT
 10
0.0
 20
0.0
 30
0.0
  9
$UCSORGBACK
 10
0.0
 20
0.0
 30
0.0
  9
$PUCSBASE
  2

  9
$PUCSNAME
  2

  9
$PUCSORG
 10
0.0
 20
0.0
 30
0.0
  9
$PUCSXDIR
 10
1.0
 20
0.0
 30
0.0
  9
$PUCSYDIR
 10
0.0
 20
1.0
 30
0.0
  9
$PUCSORTHOREF
  2

  9
$PUCSORTHOVIEW
 70
     0
  9
$PUCSORGTOP
 10
0.0
 20
0.0
 30
0.0
  9
$PUCSORGBOTTOM
 10
0.0
 20
0.0
 30
0.0
  9
$PUCSORGLEFT
 10
0.0
 20
0.0
 30
0.0
  9
$PUCSORGRIGHT
 10
0.0
 20
0.0
 30
0.0
  9
$PUCSORGFRONT
 10
0.0
 20
0.0
 30
0.0
  9
$PUCSORGBACK
 10
0.0
 20
0.0
 30
0.0
  9
$USERI1
 70
     0
  9
$USERI2
 70
     0
  9
$USERI3
 70
     0
  9
$USERI4
 70
     0
  9
$USERI5
 70
     0
  9
$USERR1
 40
0.0
  9
$USERR2
 40
0.0
  9
$USERR3
 40
0.0
  9
$USERR4
 40
0.0
  9
$USERR5
 40
0.0
  9
$WORLDVIEW
 70
     1
  9
$SHADEDGE
 70
     3
  9
$SHADEDIF
 70
    70
  9
$TILEMODE
 70
     1
  9
$MAXACTVP
 70
    64
  9
$PINSBASE
 10
0.0
 20
0.0
 30
0.0
  9
$PLIMCHECK
 70
     0
  9
$PEXTMIN
 10
1.000000000000000E+20
 20
1.000000000000000E+20
 30
1.000000000000000E+20
  9
$PEXTMAX
 10
-1.000000000000000E+20
 20
-1.000000000000000E+20
 30
-1.000000000000000E+20
  9
$PLIMMIN
 10
0.0
 20
0.0
  9
$PLIMMAX
 10
420.0
 20
297.0
  9
$UNITMODE
 70
     0
  9
$VISRETAIN
 70
     1
  9
$PLINEGEN
 70
     0
  9
$PSLTSCALE
 70
     1
  9
$TREEDEPTH
 70
  3020
  9
$CMLSTYLE
  2
Standard
  9
$CMLJUST
 70
     0
  9
$CMLSCALE
 40
20.0
  9
$PROXYGRAPHICS
 70
     1
  9
$MEASUREMENT
 70
     1
  9
$CELWEIGHT
370
    -1
  9
$ENDCAPS
280
     0
  9
$JOINSTYLE
280
     0
  9
$LWDISPLAY
290
     0
  9
$INSUNITS
 70
     4
  9
$HYPERLINKBASE
  1

  9
$STYLESHEET
  1

  9
$XEDIT
290
     1
  9
$CEPSNTYPE
380
     0
  9
$PSTYLEMODE
290
     1
  9
$FINGERPRINTGUID
  2
{9DFB5F12-FE38-410F-B4C1-738DA96BFA2A}
  9
$VERSIONGUID
  2
{AD6DC188-2310-40F0-836B-A62CED7AB91B}
  9
$EXTNAMES
290
     1
  9
$PSVPSCALE
 40
0.0
  9
$OLESTARTUP
290
     0
  9
$SORTENTS
280
   127
  9
$INDEXCTL
280
     0
  9
$HIDETEXT
280
     1
  9
$XCLIPFRAME
290
     0
  9
$HALOGAP
280
     0
  9
$OBSCOLOR
 70
   257
  9
$OBSLTYPE
280
     0
  9
$INTERSECTIONDISPLAY
280
     0
  9
$INTERSECTIONCOLOR
 70
   257
  9
$DIMASSOC
280
     2
  9
$PROJECTNAME
  1

  0
ENDSEC
  0
SECTION
  2
CLASSES
  0
CLASS
  1
ACDBDICTIONARYWDFLT
  2
AcDbDictionaryWithDefault
  3
ObjectDBX Classes
 90
        0
 91
        1
280
     0
281
     0
  0
CLASS
  1
MATERIAL
  2
AcDbMaterial
  3
ObjectDBX Classes
 90
     1153
 91
        3
280
     0
281
     0
  0
CLASS
  1
VISUALSTYLE
  2
AcDbVisualStyle
  3
ObjectDBX Classes
 90
     4095
 91
       19
280
     0
281
     0
  0
CLASS
  1
SCALE
  2
AcDbScale
  3
ObjectDBX Classes
 90
     1153
 91
       17
280
     0
281
     0
  0
CLASS
  1
TABLESTYLE
  2
AcDbTableStyle
  3
ObjectDBX Classes
 90
     4095
 91
        1
280
     0
281
     0
  0
CLASS
  1
MLEADERSTYLE
  2
AcDbMLeaderStyle
  3
ACDB_MLEADERSTYLE_CLASS
 90
     4095
 91
        1
280
     0
281
     0
  0
CLASS
  1
SORTENTSTABLE
  2
AcDbSortentsTable
  3
ObjectDBX Classes
 90
        0
 91
       96
280
     0
281
     0
  0
CLASS
  1
AEC_REFEDIT_STATUS_TRACKER
  2
AecDbRefEditStatusTracker
  3
AecArchBase60|Product Desc: Autodesk Architectural Desktop 2007 |Company: Autodesk,Inc. |WEB Address: www.autodesk.com
 90
      129
 91
        1
280
     0
281
     0
  0
CLASS
  1
NPOCOLLECTION
  2
AcDbImpNonPersistentObjectsCollection
  3
ObjectDBX Classes
 90
     1153
 91
        1
280
     0
281
     0
  0
CLASS
  1
DICTIONARYVAR
  2
AcDbDictionaryVar
  3
ObjectDBX Classes
 90
        0
 91
       98
280
     0
281
     0
  0
CLASS
  1
CELLSTYLEMAP
  2
AcDbCellStyleMap
  3
ObjectDBX Classes
 90
     1152
 91
       12
280
     0
281
     0
  0
ENDSEC
  0
SECTION
  2
TABLES
  0
TABLE
  2
VPORT
  5
8
330
0
100
AcDbSymbolTable
 70
     1
  0
VPORT
  5
52
330
8
100
AcDbSymbolTableRecord
100
AcDbViewportTableRecord
  2
*Active
 70
     0
 10
0.0
 20
0.0
 11
1.0
 21
1.0
 12
503.8729849356423
 22
493.6997911170355
 13
0.0
 23
0.0
 14
10.0
 24
10.0
 15
10.0
 25
10.0
 16
0.0
 26
0.0
 36
1.0
 17
0.0
 27
0.0
 37
0.0
 40
757.1758531804523
 41
1.888286334056399
 42
50.0
 43
0.0
 44
0.0
 50
0.0
 51
0.0
 71
     0
 72
  1000
 73
     1
 74
     3
 75
     0
 76
     0
 77
     0
 78
     0
281
     0
 65
     1
110
0.0
120
0.0
130
0.0
111
1.0
121
0.0
131
0.0
112
0.0
122
1.0
132
0.0
 79
     0
146
0.0
  0
ENDTAB
  0
TABLE
  2
LTYPE
  5
5
330
0
100
AcDbSymbolTable
 70
     2
  0
LTYPE
  5
56
330
5
100
AcDbSymbolTableRecord
100
AcDbLinetypeTableRecord
  2
ByBlock
 70
     0
  3

 72
    65
 73
     0
 40
0.0
  0
LTYPE
  5
57
330
5
100
AcDbSymbolTableRecord
100
AcDbLinetypeTableRecord
  2
ByLayer
 70
     0
  3

 72
    65
 73
     0
 40
0.0
  0
LTYPE
  5
58
330
5
100
AcDbSymbolTableRecord
100
AcDbLinetypeTableRecord
  2
Continuous
 70
     0
  3
Solid line
 72
    65
 73
     0
 40
0.0
  0
LTYPE
  5
5D66
330
5
100
AcDbSymbolTableRecord
100
AcDbLinetypeTableRecord
  2
JIS_02_0.7
 70
     0
  3
HIDDEN0.75 _ _ _ _ _ _ _ _ _ _ _ _ _ _ _ _ _
 72
    65
 73
     2
 40
1.35
 49
0.75
 74
     0
 49
-0.6
 74
     0
  0
ENDTAB
  0
TABLE
  2
LAYER
  5
2
102
{ACAD_XDICTIONARY
360
5D7D
102
}
330
0
100
AcDbSymbolTable
 70
    11
  0
LAYER
  5
4F
330
2
100
AcDbSymbolTableRecord
100
AcDbLayerTableRecord
  2
0
 70
     0
 62
     7
  6
Continuous
370
    -3
390
F
  0
LAYER
  5
5D67
330
2
100
AcDbSymbolTableRecord
100
AcDbLayerTableRecord
  2
F_01 sichtbar
 70
     0
 62
     7
  6
Continuous
370
    -3
390
F
1001
AcAecLayerStandard
1000

1000

  0
LAYER
  5
5D68
330
2
100
AcDbSymbolTableRecord
100
AcDbLayerTableRecord
  2
F_31 Ansichtsfenster
 70
     0
 62
    12
  6
Continuous
290
     0
370
    40
390
F
1001
AcAecLayerStandard
1000

1000

  0
LAYER
  5
5D69
330
2
100
AcDbSymbolTableRecord
100
AcDbLayerTableRecord
  2
F_02 unsichtbar
 70
     0
 62
     8
  6
JIS_02_0.7
370
    -3
390
F
1001
AcAecLayerStandard
1000

1000

  0
LAYER
  5
5D6A
330
2
100
AcDbSymbolTableRecord
100
AcDbLayerTableRecord
  2
F_06 Wangen
 70
     0
 62
   190
  6
Continuous
370
    -3
390
F
1001
AcAecLayerStandard
1000

1000

  0
LAYER
  5
5D6B
330
2
100
AcDbSymbolTableRecord
100
AcDbLayerTableRecord
  2
F_15 Schr-Mauer hell
 70
     0
 62
   254
  6
Continuous
370
    -3
390
F
1001
AcAecLayerStandard
1000

1000

  0
LAYER
  5
5D6C
330
2
100
AcDbSymbolTableRecord
100
AcDbLayerTableRecord
  2
F_18 Schr-Holz hell
 70
     0
 62
    41
  6
Continuous
370
    -3
390
F
1001
AcAecLayerStandard
1000

1000

  0
LAYER
  5
5D6D
330
2
100
AcDbSymbolTableRecord
100
AcDbLayerTableRecord
  2
F_29 Bemassung M
 70
     0
 62
   160
  6
Continuous
370
    -3
390
F
1001
AcAecLayerStandard
1000

1000

  0
LAYER
  5
5D6E
330
2
100
AcDbSymbolTableRecord
100
AcDbLayerTableRecord
  2
F_30 Bemassung T
 70
     0
 62
    92
  6
Continuous
370
    -3
390
F
1001
AcAecLayerStandard
1000

1000

  0
LAYER
  5
5D6F
102
{ACAD_XDICTIONARY
360
5D70
102
}
330
2
100
AcDbSymbolTableRecord
100
AcDbLayerTableRecord
  2
F_0 sichtbar
 70
     0
 62
     7
  6
Continuous
370
    -3
390
F
1001
AcAecLayerStandard
1000

1000

  0
LAYER
  5
5D71
102
{ACAD_XDICTIONARY
360
5D72
102
}
330
2
100
AcDbSymbolTableRecord
100
AcDbLayerTableRecord
  2
F_20 Schr-Metall hell
 70
     0
 62
     7
420
 13107199
  6
Continuous
370
    -3
390
F
1001
AcAecLayerStandard
1000

1000

  0
ENDTAB
  0
TABLE
  2
STYLE
  5
3
330
0
100
AcDbSymbolTable
 70
     3
  0
STYLE
  5
50
330
3
100
AcDbSymbolTableRecord
100
AcDbTextStyleTableRecord
  2
Standard
 70
     0
 40
0.0
 41
1.0
 50
0.0
 71
     0
 42
2.5
  3
txt
  4

  0
STYLE
  5
55
330
3
100
AcDbSymbolTableRecord
100
AcDbTextStyleTableRecord
  2
Annotative
 70
     0
 40
0.0
 41
1.0
 50
0.0
 71
     0
 42
0.2
  3
txt
  4

1001
AcadAnnotative
1000
AnnotativeData
1002
{
1070
     1
1070
     1
1002
}
  0
STYLE
  5
5D73
330
3
100
AcDbSymbolTableRecord
100
AcDbTextStyleTableRecord
  2
Arial
 70
     0
 40
0.0
 41
1.0
 50
0.0
 71
     0
 42
3.0
  3
ARIALN.TTF
  4

1001
AcadAnnotative
1000
AnnotativeData
1002
{
1070
     1
1070
     1
1002
}
1001
ACAD
1000
Arial Narrow
1071
       34
  0
ENDTAB
  0
TABLE
  2
VIEW
  5
6
330
0
100
AcDbSymbolTable
 70
     0
  0
ENDTAB
  0
TABLE
  2
UCS
  5
7
330
0
100
AcDbSymbolTable
 70
     0
  0
ENDTAB
  0
TABLE
  2
APPID
  5
9
330
0
100
AcDbSymbolTable
 70
     8
  0
APPID
  5
51
330
9
100
AcDbSymbolTableRecord
100
AcDbRegAppTableRecord
  2
ACAD
 70
     0
  0
APPID
  5
59
330
9
100
AcDbSymbolTableRecord
100
AcDbRegAppTableRecord
  2
AcadAnnotative
 70
     0
  0
APPID
  5
5D79
330
9
100
AcDbSymbolTableRecord
100
AcDbRegAppTableRecord
  2
AcAecLayerStandard
 70
     0
  0
APPID
  5
5D7A
330
9
100
AcDbSymbolTableRecord
100
AcDbRegAppTableRecord
  2
ACAD_PSEXT
 70
     0
  0
APPID
  5
5D7B
330
9
100
AcDbSymbolTableRecord
100
AcDbRegAppTableRecord
  2
ACAD_DSTYLE_DIMJAG
 70
     0
  0
APPID
  5
5D7C
330
9
100
AcDbSymbolTableRecord
100
AcDbRegAppTableRecord
  2
ACAD_DSTYLE_DIMTALN
 70
     0
  0
APPID
  5
5F93
330
9
100
AcDbSymbolTableRecord
100
AcDbRegAppTableRecord
  2
ACAD_DSTYLE_DIMJOGGED_JOGANGLE_SYMBOL
 70
     0
  0
APPID
  5
5F95
330
9
100
AcDbSymbolTableRecord
100
AcDbRegAppTableRecord
  2
ACAD_MLEADERVER
 70
     0
  0
ENDTAB
  0
TABLE
  2
DIMSTYLE
  5
A
330
0
100
AcDbSymbolTable
 70
     7
100
AcDbDimStyleTable
 71
     0
  0
DIMSTYLE
105
53
330
A
100
AcDbSymbolTableRecord
100
AcDbDimStyleTableRecord
  2
ISO-25
 70
     0
 41
2.5
 42
0.625
 43
3.75
 44
1.25
 73
     0
 74
     0
 77
     1
 78
     8
140
2.5
141
2.5
143
0.03937007874016
147
0.625
171
     3
172
     1
271
     2
272
     2
274
     3
278
    44
283
     0
284
     8
340
50
1001
ACAD_DSTYLE_DIMJOGGED_JOGANGLE_SYMBOL
1070
   384
1040
1.570796326794896
  0
DIMSTYLE
105
54
330
A
100
AcDbSymbolTableRecord
100
AcDbDimStyleTableRecord
  2
Annotative
 70
     0
340
50
1001
AcadAnnotative
1000
AnnotativeData
1002
{
1070
     1
1070
     1
1002
}
  0
DIMSTYLE
105
5D74
330
A
100
AcDbSymbolTableRecord
100
AcDbDimStyleTableRecord
  2
MST 1-1
 70
     0
 41
2.0
 42
2.0
 43
2.0
 44
1.0
 46
2.0
 73
     0
 74
     0
 77
     3
 78
     8
 79
     2
140
3.0
141
2.5
143
0.03937007874016
147
1.0
171
     3
176
   256
177
   256
178
     3
179
     1
271
     1
272
     1
274
     3
279
     2
284
     8
340
5D73
342
5D4C
1001
ACAD_DSTYLE_DIMJAG
1070
   388
1040
1.5
1001
ACAD_DSTYLE_DIMTALN
1070
   392
1070
     0
  0
DIMSTYLE
105
5D75
330
A
100
AcDbSymbolTableRecord
100
AcDbDimStyleTableRecord
  2
MST 1-2
 70
     0
 40
2.0
 41
2.0
 42
2.0
 43
2.0
 44
1.0
 46
2.0
 73
     0
 74
     0
 77
     3
 78
     8
 79
     2
140
3.0
141
1.0
143
0.03937007874016
147
1.0
171
     3
176
   256
177
   256
178
     3
179
     1
271
     1
272
     1
274
     3
279
     2
284
     8
340
5D73
342
5D4C
  0
DIMSTYLE
105
5D76
330
A
100
AcDbSymbolTableRecord
100
AcDbDimStyleTableRecord
  2
MST 1-5
 70
     0
 40
5.0
 41
1.5
 42
2.0
 43
2.0
 44
1.0
 46
2.0
 73
     0
 74
     0
 77
     3
 78
     8
 79
     2
140
3.0
141
1.0
143
0.03937007874016
147
1.0
171
     3
176
   256
177
   256
178
     3
179
     1
271
     1
272
     1
274
     3
279
     2
284
     8
340
5D73
342
5D4C
  0
DIMSTYLE
105
5D77
330
A
100
AcDbSymbolTableRecord
100
AcDbDimStyleTableRecord
  2
MST 1-10
 70
     0
 40
10.0
 41
2.0
 42
2.0
 43
2.0
 44
2.0
 46
2.0
 73
     0
 74
     0
 77
     3
 78
     8
 79
     2
140
3.0
141
1.0
143
0.03937007874016
147
1.0
171
     3
176
   256
177
   256
178
     3
179
     1
271
     1
272
     1
274
     3
279
     2
284
     8
340
5D73
342
5D4C
1001
ACAD_DSTYLE_DIMJAG
1070
   388
1040
1.5
1001
ACAD_DSTYLE_DIMTALN
1070
   392
1070
     0
  0
DIMSTYLE
105
5D78
330
A
100
AcDbSymbolTableRecord
100
AcDbDimStyleTableRecord
  2
MST 1-20
 70
     0
 40
20.0
 41
2.0
 42
2.0
 43
2.0
 44
1.0
 46
2.0
 73
     0
 74
     0
 77
     3
 78
     8
 79
     2
140
3.0
141
1.0
143
0.03937007874016
147
1.0
171
     3
176
   256
177
   256
178
     3
179
     1
271
     1
272
     1
274
     3
279
     2
284
     8
340
5D73
342
5D4C
  0
ENDTAB
  0
TABLE
  2
BLOCK_RECORD
  5
1
330
0
100
AcDbSymbolTable
 70
     4
  0
BLOCK_RECORD
  5
67
330
1
100
AcDbSymbolTableRecord
100
AcDbBlockTableRecord
  2
*Model_Space
340
6A
  0
BLOCK_RECORD
  5
63
330
1
100
AcDbSymbolTableRecord
100
AcDbBlockTableRecord
  2
*Paper_Space
340
66
  0
BLOCK_RECORD
  5
6B
330
1
100
AcDbSymbolTableRecord
100
AcDbBlockTableRecord
  2
*Paper_Space0
340
6E
  0
BLOCK_RECORD
  5
5D4C
102
{ACAD_XDICTIONARY
360
5D4D
102
}
330
1
100
AcDbSymbolTableRecord
100
AcDbBlockTableRecord
  2
_ArchTick
340
0
310
2800000020000000200000000100080000000000000400000000000000000000000000000000000000000000000080000080000000808000800000008000800080800000C0C0C000C0DCC000F0CAA6000020400000206000002080000020A0000020C0000020E00000400000004020000040400000406000004080000040A0
310
000040C0000040E00000600000006020000060400000606000006080000060A0000060C0000060E00000800000008020000080400000806000008080000080A0000080C0000080E00000A0000000A0200000A0400000A0600000A0800000A0A00000A0C00000A0E00000C0000000C0200000C0400000C0600000C0800000C0
310
A00000C0C00000C0E00000E0000000E0200000E0400000E0600000E0800000E0A00000E0C00000E0E00040000000400020004000400040006000400080004000A0004000C0004000E00040200000402020004020400040206000402080004020A0004020C0004020E000404000004040200040404000404060004040800040
310
40A0004040C0004040E00040600000406020004060400040606000406080004060A0004060C0004060E00040800000408020004080400040806000408080004080A0004080C0004080E00040A0000040A0200040A0400040A0600040A0800040A0A00040A0C00040A0E00040C0000040C0200040C0400040C0600040C08000
310
40C0A00040C0C00040C0E00040E0000040E0200040E0400040E0600040E0800040E0A00040E0C00040E0E00080000000800020008000400080006000800080008000A0008000C0008000E00080200000802020008020400080206000802080008020A0008020C0008020E00080400000804020008040400080406000804080
310
008040A0008040C0008040E00080600000806020008060400080606000806080008060A0008060C0008060E00080800000808020008080400080806000808080008080A0008080C0008080E00080A0000080A0200080A0400080A0600080A0800080A0A00080A0C00080A0E00080C0000080C0200080C0400080C0600080C0
310
800080C0A00080C0C00080C0E00080E0000080E0200080E0400080E0600080E0800080E0A00080E0C00080E0E000C0000000C0002000C0004000C0006000C0008000C000A000C000C000C000E000C0200000C0202000C0204000C0206000C0208000C020A000C020C000C020E000C0400000C0402000C0404000C0406000C0
310
408000C040A000C040C000C040E000C0600000C0602000C0604000C0606000C0608000C060A000C060C000C060E000C0800000C0802000C0804000C0806000C0808000C080A000C080C000C080E000C0A00000C0A02000C0A04000C0A06000C0A08000C0A0A000C0A0C000C0A0E000C0C00000C0C02000C0C04000C0C06000
310
C0C08000C0C0A000F0FBFF00A4A0A000808080000000FF0000FF000000FFFF00FF000000FF00FF00FFFF0000FFFFFF00FFFFFF00FFFFFFFFFFFFFFFFFFFFFFFFFFFFFFFFFFFFFFFFFFFFFFFFFFFFFFFFFFFF00FF00FFFFFFFFFFFFFFFFFFFFFFFFFFFFFFFFFFFFFFFFFFFFFFFFFFFFFFFF00FFFFFF00FFFFFFFFFFFFFFFFFF
310
FFFFFFFFFFFFFFFFFFFFFFFFFFFFFFFFFF00FFFFFFFFFF00FFFFFFFFFFFFFFFFFFFFFFFFFFFFFFFFFFFFFFFFFFFFFFFFFFFF00FFFFFFFFFF00FFFFFFFFFFFFFFFFFFFFFFFFFFFFFFFFFFFFFFFFFFFFFFFFFFFF00FFFFFFFFFF00FFFFFFFFFFFFFFFFFFFFFFFFFFFFFFFFFFFFFFFFFFFFFFFFFFFF00FFFFFFFFFF00FFFFFFFF
310
FFFFFFFFFFFFFFFFFFFFFFFFFFFFFFFFFFFFFFFFFFFF00FFFFFFFFFF00FFFFFFFFFFFFFFFFFFFFFFFFFFFFFFFFFFFFFFFFFFFFFFFFFFFF00FFFFFFFFFF00FFFFFFFFFFFFFFFFFFFFFFFFFFFFFFFFFFFFFFFFFFFFFFFFFFFF00FFFFFFFFFF00FFFFFFFFFFFFFFFFFFFFFFFFFFFFFFFFFFFFFFFFFFFFFFFFFFFF00FFFFFFFFFF
310
00FFFFFFFFFFFFFFFFFFFFFFFFFFFFFFFFFFFFFFFFFFFFFFFFFFFF00FFFFFFFFFF00FFFFFFFFFFFFFFFFFFFFFFFFFFFFFFFFFFFFFFFFFFFFFFFFFFFF00FFFFFFFFFF00FFFFFFFFFFFFFFFFFFFFFFFFFFFFFFFFFFFFFFFFFFFFFFFFFFFF00FFFFFFFFFF00FFFFFFFFFFFFFFFFFFFFFFFFFFFFFFFFFFFFFFFFFFFFFFFFFFFF00
310
FFFFFFFFFF00FFFFFFFFFFFFFFFFFFFFFFFFFFFFFFFFFFFFFFFFFFFFFFFFFFFF00FFFFFFFFFF00FFFFFFFFFFFFFFFFFFFFFFFFFFFFFFFFFFFFFFFFFFFFFFFFFFFF00FFFFFFFFFF00FFFFFFFFFFFFFFFFFFFFFFFFFFFFFFFFFFFFFFFFFFFFFFFFFFFF00FFFFFFFFFF00FFFFFFFFFFFFFFFFFFFFFFFFFFFFFFFFFFFFFFFFFFFF
310
FFFFFFFF00FFFFFFFFFF00FFFFFFFFFFFFFFFFFFFFFFFFFFFFFFFFFFFFFFFFFFFFFFFFFFFF00FFFFFFFFFF00FFFFFFFFFFFFFFFFFFFFFFFFFFFFFFFFFFFFFFFFFFFFFFFFFFFF00FFFFFFFFFF00FFFFFFFFFFFFFFFFFFFFFFFFFFFFFFFFFFFFFFFFFFFFFFFFFFFF00FFFFFFFFFF00FFFFFFFFFFFFFFFFFFFFFFFFFFFFFFFFFF
310
FFFFFFFFFFFFFFFFFF00FFFFFFFFFF00FFFFFFFFFFFFFFFFFFFFFFFFFFFFFFFFFFFFFFFFFFFFFFFFFFFF00FFFFFFFFFF00FFFFFFFFFFFFFFFFFFFFFFFFFFFFFFFFFFFFFFFFFFFFFFFFFFFF00FFFFFFFFFF00FFFFFFFFFFFFFFFFFFFFFFFFFFFFFFFFFFFFFFFFFFFFFFFFFFFF00FFFFFFFFFF00FFFFFFFFFFFFFFFFFFFFFFFF
310
FFFFFFFFFFFFFFFFFFFFFFFFFFFF00FFFFFFFFFF00FFFFFFFFFFFFFFFFFFFFFFFFFFFFFFFFFFFFFFFFFFFFFFFFFFFF00FFFFFFFFFF00FFFFFFFFFFFFFFFFFFFFFFFFFFFFFFFFFFFFFFFFFFFFFFFFFFFF00FFFFFFFFFF00FFFFFFFFFFFFFFFFFFFFFFFFFFFFFFFFFFFFFFFFFFFFFFFFFFFF00FFFFFF00FFFFFFFFFFFFFFFFFF
310
FFFFFFFFFFFFFFFFFFFFFFFFFFFFFFFFFFFFFF00FF00FFFFFFFFFFFFFFFFFFFFFFFFFFFFFFFFFFFFFFFFFFFFFFFFFFFFFFFFFFFF00FFFFFF
  0
BLOCK_RECORD
  5
5D52
102
{ACAD_XDICTIONARY
360
5D53
102
}
330
1
100
AcDbSymbolTableRecord
100
AcDbBlockTableRecord
  2
A$C512D72A2
340
0
102
{BLKREFS
331
5DB0
331
5EA1
102
}
1001
ACAD
1000
DesignCenter Data
1002
{
1070
     1
1070
     4
1002
}
  0
ENDTAB
  0
ENDSEC
  0
SECTION
  2
BLOCKS
  0
BLOCK
  5
68
330
67
100
AcDbEntity
  8
0
100
AcDbBlockBegin
  2
*Model_Space
 70
     0
 10
0.0
 20
0.0
 30
0.0
  3
*Model_Space
  1

  0
ENDBLK
  5
69
330
67
100
AcDbEntity
  8
0
100
AcDbBlockEnd
  0
BLOCK
  5
64
330
63
100
AcDbEntity
 67
     1
  8
0
100
AcDbBlockBegin
  2
*Paper_Space
 70
     0
 10
0.0
 20
0.0
 30
0.0
  3
*Paper_Space
  1

  0
ENDBLK
  5
65
330
63
100
AcDbEntity
 67
     1
  8
0
100
AcDbBlockEnd
  0
BLOCK
  5
6C
330
6B
100
AcDbEntity
 67
     1
  8
0
100
AcDbBlockBegin
  2
*Paper_Space0
 70
     0
 10
0.0
 20
0.0
 30
0.0
  3
*Paper_Space0
  1

  0
ENDBLK
  5
6D
330
6B
100
AcDbEntity
 67
     1
  8
0
100
AcDbBlockEnd
  0
BLOCK
  5
5D4F
330
5D4C
100
AcDbEntity
  8
0
100
AcDbBlockBegin
  2
_ArchTick
 70
     0
 10
0.0
 20
0.0
 30
0.0
  3
_ArchTick
  1

  0
LWPOLYLINE
  5
5D50
330
5D4C
100
AcDbEntity
  8
0
  6
ByBlock
 62
     7
100
AcDbPolyline
 90
        2
 70
     0
 43
0.15
 10
-0.5
 20
-0.5
 10
0.5
 20
0.5
  0
ENDBLK
  5
5D51
330
5D4C
100
AcDbEntity
  8
0
100
AcDbBlockEnd
  0
BLOCK
  5
5D55
330
5D52
100
AcDbEntity
  8
0
100
AcDbBlockBegin
  2
A$C512D72A2
 70
     0
 10
0.0
 20
0.0
 30
0.0
  3
A$C512D72A2
  1

  0
CIRCLE
  5
5D56
330
5D52
100
AcDbEntity
  8
F_01 sichtbar
100
AcDbCircle
 10
62.84019272666774
 20
26.08899811659649
 30
0.0
 40
1.5
  0
LINE
  5
5D57
330
5D52
100
AcDbEntity
  8
F_01 sichtbar
100
AcDbLine
 10
43.87580794467067
 20
25.08900033478858
 30
0.0
 11
58.79580794468347
 21
25.08900033478858
 31
0.0
  0
LINE
  5
5D58
330
5D52
100
AcDbEntity
  8
F_01 sichtbar
100
AcDbLine
 10
58.79580794468347
 20
26.62900033478218
 30
0.0
 11
43.87580794467067
 21
26.62900033478218
 31
0.0
  0
ARC
  5
5D59
330
5D52
100
AcDbEntity
  8
F_01 sichtbar
100
AcDbCircle
 10
43.87580794467067
 20
27.62900033478218
 30
0.0
 40
2.540000000000208
100
AcDbArc
 50
348.6471612439746
 51
270.0
  0
ARC
  5
5D5A
330
5D52
100
AcDbEntity
  8
F_01 sichtbar
100
AcDbCircle
 10
43.87580794467067
 20
27.62900033478218
 30
0.0
 40
1.000000000000333
100
AcDbArc
 50
329.9999999999376
 51
270.0
  0
LINE
  5
5D5B
330
5D52
100
AcDbEntity
  8
F_01 sichtbar
100
AcDbLine
 10
44.74183334845292
 20
27.12900033478218
 30
0.0
 11
46.36610913128243
 21
27.12900033478218
 31
0.0
  0
ARC
  5
5D5C
330
5D52
100
AcDbEntity
  8
F_01 sichtbar
100
AcDbCircle
 10
58.79580794468347
 20
27.62900033478218
 30
0.0
 40
2.540000000000208
100
AcDbArc
 50
270.0
 51
191.3528387560254
  0
ARC
  5
5D5D
330
5D52
100
AcDbEntity
  8
F_01 sichtbar
100
AcDbCircle
 10
58.79580794468347
 20
27.62900033478218
 30
0.0
 40
1.000000000000333
100
AcDbArc
 50
270.0
 51
210.0000000000624
  0
LINE
  5
5D5E
330
5D52
100
AcDbEntity
  8
F_01 sichtbar
100
AcDbLine
 10
57.92978254090122
 20
27.12900033478218
 30
0.0
 11
56.30550675808627
 21
27.12900033478218
 31
0.0
  0
LINE
  5
5D5F
330
5D52
100
AcDbEntity
  8
F_02 unsichtbar
100
AcDbLine
 10
51.33881687288521
 20
26.62900033478218
 30
0.0
 11
51.33881687288521
 21
-137.3560237869387
 31
0.0
  0
LINE
  5
5D60
330
5D52
100
AcDbEntity
  8
F_01 sichtbar
100
AcDbLine
 10
48.33881687288521
 20
26.62900033478218
 30
0.0
 11
48.33881687288521
 21
29.12900033478218
 31
0.0
  0
LINE
  5
5D61
330
5D52
100
AcDbEntity
  8
F_01 sichtbar
100
AcDbLine
 10
48.33881687288521
 20
29.12900033478218
 30
0.0
 11
54.33881687288522
 21
29.12900033478218
 31
0.0
  0
LINE
  5
5D62
330
5D52
100
AcDbEntity
  8
F_01 sichtbar
100
AcDbLine
 10
54.33881687288522
 20
29.12900033478218
 30
0.0
 11
54.33881687288522
 21
26.62900033478218
 31
0.0
  0
LINE
  5
5D63
330
5D52
100
AcDbEntity
  8
F_01 sichtbar
100
AcDbLine
 10
53.33881687288521
 20
26.62900033478218
 30
0.0
 11
53.33881687288521
 21
29.12900033478218
 31
0.0
  0
LINE
  5
5D64
330
5D52
100
AcDbEntity
  8
F_01 sichtbar
100
AcDbLine
 10
49.33881687289977
 20
26.62900033478218
 30
0.0
 11
49.33881687289977
 21
29.12900033478218
 31
0.0
  0
ENDBLK
  5
5D65
330
5D52
100
AcDbEntity
  8
0
100
AcDbBlockEnd
  0
ENDSEC
  0
SECTION
  2
ENTITIES
  0
HATCH
  5
5E71
330
67
100
AcDbEntity
  8
F_20 Schr-Metall hell
370
    13
100
AcDbHatch
 10
0.0
 20
0.0
 30
0.0
210
0.0
220
0.0
230
1.0
  2
SOLID
 70
     1
 71
     0
 91
        2
 92
       17
 93
        4
 72
     1
 10
682.9101708290872
 20
337.6941997875085
 11
487.5677941024114
 21
337.694199787494
 72
     1
 10
487.5677941024114
 20
337.694199787494
 11
487.5677941024114
 21
327.6872208517827
 72
     1
 10
487.5677941024114
 20
327.6872208517827
 11
682.9101708290872
 21
317.6941997875085
 72
     1
 10
682.9101708290872
 20
317.6941997875085
 11
682.9101708290872
 21
337.6941997875085
 97
        0
 92
        1
 93
        8
 72
     1
 10
682.9101708290872
 20
317.6941997875085
 11
487.5677941024114
 21
327.6872208517827
 72
     1
 10
487.5677941024114
 20
327.6872208517827
 11
487.5677941024114
 21
317.694199787494
 72
     1
 10
487.5677941024114
 20
317.694199787494
 11
486.567794102415
 21
317.6941997875085
 72
     1
 10
486.567794102415
 20
317.6941997875085
 11
486.567794102415
 21
352.6941997875085
 72
     1
 10
486.567794102415
 20
352.6941997875085
 11
466.567794102415
 21
352.6941650983106
 72
     1
 10
466.567794102415
 20
352.6941650983106
 11
466.567794102415
 21
312.6941997875085
 72
     1
 10
466.567794102415
 20
312.6941997875085
 11
682.9101708290872
 21
312.6941997875085
 72
     1
 10
682.9101708290872
 20
312.6941997875085
 11
682.9101708290872
 21
317.6941997875085
 97
        0
 75
     0
 76
     1
 98
        2
 10
489.1819034835171
 20
332.5974300153405
 10
489.0521334253098
 20
325.7231787665744
450
        0
451
        0
460
0.0
461
0.0
452
        1
462
1.0
453
        2
463
0.0
 63
     5
421
      255
463
1.0
 63
     7
421
 16777215
470
LINEAR
1001
ACAD
1010
0.0
1020
0.0
1030
0.0
  0
HATCH
  5
5E72
330
67
100
AcDbEntity
  8
F_15 Schr-Mauer hell
370
    13
100
AcDbHatch
 10
0.0
 20
0.0
 30
0.0
210
0.0
220
0.0
230
1.0
  2
SOLID
 70
     1
 71
     0
 91
        1
 92
        1
 93
        4
 72
     1
 10
287.1241686732992
 20
506.6942115859892
 11
287.1241686733029
 21
326.6942115859893
 72
     1
 10
287.1241686733029
 20
326.6942115859893
 11
449.0678212371421
 21
326.6942115859893
 72
     1
 10
449.0678212371421
 20
326.6942115859893
 11
449.0678212371421
 21
506.6942115859892
 72
     1
 10
449.0678212371421
 20
506.6942115859892
 11
287.1241686732992
 21
506.6942115859892
 97
        0
 75
     0
 76
     1
 98
        1
 10
235.4788267983895
 20
468.2827127460732
450
        0
451
        0
460
0.0
461
0.0
452
        1
462
1.0
453
        2
463
0.0
 63
     5
421
      255
463
1.0
 63
     7
421
 16777215
470
LINEAR
1001
ACAD
1010
0.0
1020
0.0
1030
0.0
  0
POLYLINE
  5
5E73
330
67
100
AcDbEntity
  8
F_01 sichtbar
370
    13
100
AcDb2dPolyline
 66
     1
 10
0.0
 20
0.0
 30
0.0
  0
VERTEX
  5
5E74
330
5E73
100
AcDbEntity
  8
F_01 sichtbar
370
    13
100
AcDbVertex
100
AcDb2dVertex
 10
287.124168673301
 20
326.6942115859901
 30
0.0
  0
VERTEX
  5
5E75
330
5E73
100
AcDbEntity
  8
F_01 sichtbar
370
    13
100
AcDbVertex
100
AcDb2dVertex
 10
449.0678212371421
 20
326.6942115859893
 30
0.0
  0
SEQEND
  5
5E76
330
5E73
100
AcDbEntity
  8
F_01 sichtbar
370
    13
  0
POLYLINE
  5
5E77
330
67
100
AcDbEntity
  8
F_01 sichtbar
370
    13
100
AcDb2dPolyline
 66
     1
 10
0.0
 20
0.0
 30
0.0
  0
VERTEX
  5
5E78
330
5E77
100
AcDbEntity
  8
F_01 sichtbar
370
    13
100
AcDbVertex
100
AcDb2dVertex
 10
287.124168673301
 20
506.6942115859892
 30
0.0
  0
VERTEX
  5
5E79
330
5E77
100
AcDbEntity
  8
F_01 sichtbar
370
    13
100
AcDbVertex
100
AcDb2dVertex
 10
449.0678212371421
 20
506.6942115859892
 30
0.0
  0
SEQEND
  5
5E7A
330
5E77
100
AcDbEntity
  8
F_01 sichtbar
370
    13
  0
POLYLINE
  5
5E7B
330
67
100
AcDbEntity
  8
F_01 sichtbar
370
    13
100
AcDb2dPolyline
 66
     1
 10
0.0
 20
0.0
 30
0.0
  0
VERTEX
  5
5E7C
330
5E7B
100
AcDbEntity
  8
F_01 sichtbar
370
    13
100
AcDbVertex
100
AcDb2dVertex
 10
287.1241686733047
 20
543.6942115859892
 30
0.0
  0
VERTEX
  5
5E7D
330
5E7B
100
AcDbEntity
  8
F_01 sichtbar
370
    13
100
AcDbVertex
100
AcDb2dVertex
 10
451.5678212371276
 20
543.6942115859892
 30
0.0
  0
SEQEND
  5
5E7E
330
5E7B
100
AcDbEntity
  8
F_01 sichtbar
370
    13
  0
POLYLINE
  5
5E7F
330
67
100
AcDbEntity
  8
F_01 sichtbar
370
    13
100
AcDb2dPolyline
 66
     1
 10
0.0
 20
0.0
 30
0.0
  0
VERTEX
  5
5E80
330
5E7F
100
AcDbEntity
  8
F_01 sichtbar
370
    13
100
AcDbVertex
100
AcDb2dVertex
 10
287.1241686733047
 20
548.6942115859892
 30
0.0
  0
VERTEX
  5
5E81
330
5E7F
100
AcDbEntity
  8
F_01 sichtbar
370
    13
100
AcDbVertex
100
AcDb2dVertex
 10
453.1903202363428
 20
548.6942115859892
 30
0.0
  0
SEQEND
  5
5E82
330
5E7F
100
AcDbEntity
  8
F_01 sichtbar
370
    13
  0
POLYLINE
  5
5E83
330
67
100
AcDbEntity
  8
F_01 sichtbar
370
    13
100
AcDb2dPolyline
 66
     1
 10
0.0
 20
0.0
 30
0.0
  0
VERTEX
  5
5E84
330
5E83
100
AcDbEntity
  8
F_01 sichtbar
370
    13
100
AcDbVertex
100
AcDb2dVertex
 10
287.1241686733047
 20
668.6942115859892
 30
0.0
  0
VERTEX
  5
5E85
330
5E83
100
AcDbEntity
  8
F_01 sichtbar
370
    13
100
AcDbVertex
100
AcDb2dVertex
 10
454.0678212371422
 20
668.6942115859892
 30
0.0
  0
SEQEND
  5
5E86
330
5E83
100
AcDbEntity
  8
F_01 sichtbar
370
    13
  0
POLYLINE
  5
5E87
330
67
100
AcDbEntity
  8
F_01 sichtbar
370
    13
100
AcDb2dPolyline
 66
     1
 10
0.0
 20
0.0
 30
0.0
  0
VERTEX
  5
5E88
330
5E87
100
AcDbEntity
  8
F_01 sichtbar
370
    13
100
AcDbVertex
100
AcDb2dVertex
 10
287.1241686733047
 20
670.6942115859892
 30
0.0
  0
VERTEX
  5
5E89
330
5E87
100
AcDbEntity
  8
F_01 sichtbar
370
    13
100
AcDbVertex
100
AcDb2dVertex
 10
400.5678212371422
 20
670.6942115859892
 30
0.0
  0
SEQEND
  5
5E8A
330
5E87
100
AcDbEntity
  8
F_01 sichtbar
370
    13
  0
POLYLINE
  5
5E8B
330
67
100
AcDbEntity
  8
F_01 sichtbar
370
    13
100
AcDb2dPolyline
 66
     1
 10
0.0
 20
0.0
 30
0.0
  0
VERTEX
  5
5E8C
330
5E8B
100
AcDbEntity
  8
F_01 sichtbar
370
    13
100
AcDbVertex
100
AcDb2dVertex
 10
449.0678212371421
 20
543.6942115859892
 30
0.0
  0
VERTEX
  5
5E8D
330
5E8B
100
AcDbEntity
  8
F_01 sichtbar
370
    13
100
AcDbVertex
100
AcDb2dVertex
 10
449.0678212371421
 20
326.6942115859893
 30
0.0
  0
SEQEND
  5
5E8E
330
5E8B
100
AcDbEntity
  8
F_01 sichtbar
370
    13
  0
HATCH
  5
5E8F
330
67
100
AcDbEntity
  8
F_0 sichtbar
370
    13
100
AcDbHatch
 10
0.0
 20
0.0
 30
0.0
210
0.0
220
0.0
230
1.0
  2
SOLID
 70
     1
 71
     0
 91
        1
 92
        1
 93
        4
 72
     1
 10
456.5678212371421
 20
811.4488101748738
 11
454.0678212371422
 21
810.708044115463
 72
     1
 10
454.0678212371422
 20
810.708044115463
 11
454.0678212371422
 21
775.422453044186
 72
     1
 10
454.0678212371422
 20
775.422453044186
 11
456.5678212371421
 21
775.422453044186
 72
     1
 10
456.5678212371421
 20
775.422453044186
 11
456.5678212371421
 21
811.4488101748738
 97
        0
 75
     0
 76
     1
 98
        1
 10
455.320556382765
 20
818.0935223095001
450
        0
451
        0
460
0.0
461
0.0
452
        1
462
1.0
453
        2
463
0.0
 63
     5
421
      255
463
1.0
 63
     7
421
 16777215
470
LINEAR
1001
ACAD
1010
0.0
1020
0.0
1030
0.0
  0
HATCH
  5
5E90
330
67
100
AcDbEntity
  8
F_0 sichtbar
370
    13
100
AcDbHatch
 10
0.0
 20
0.0
 30
0.0
210
0.0
220
0.0
230
1.0
  2
SOLID
 70
     1
 71
     0
 91
        1
 92
        7
 72
     0
 73
     1
 93
        4
 10
434.5073619169852
 20
547.1942115859892
 10
384.5073619169852
 20
547.1942115859892
 10
384.5073619169852
 20
544.6942115859892
 10
434.5073619169852
 20
544.6942115859892
 97
        0
 75
     0
 76
     1
 47
0.0847078829277023
 98
        1
 10
412.3372136007092
 20
545.893802883238
450
        0
451
        0
460
0.0
461
0.0
452
        1
462
1.0
453
        2
463
0.0
 63
     5
421
      255
463
1.0
 63
     7
421
 16777215
470
LINEAR
1001
ACAD
1010
0.0
1020
0.0
1030
0.0
  0
HATCH
  5
5E91
330
67
100
AcDbEntity
  8
F_0 sichtbar
370
    13
100
AcDbHatch
 10
0.0
 20
0.0
 30
0.0
210
0.0
220
0.0
230
1.0
  2
SOLID
 70
     1
 71
     0
 91
        3
 92
        7
 72
     0
 73
     1
 93
        4
 10
456.5678212371421
 20
616.4224530439859
 10
454.0678212371422
 20
616.4224530439859
 10
454.0678212371422
 20
566.4224530439859
 10
456.5678212371421
 20
566.4224530439859
 97
        0
 92
        7
 72
     0
 73
     1
 93
        4
 10
456.5678212371421
 20
716.4224530439859
 10
454.0678212371422
 20
716.4224530439859
 10
454.0678212371422
 20
666.4224530439859
 10
456.5678212371421
 20
666.4224530439859
 97
        0
 92
        1
 93
        4
 72
     1
 10
287.124168673301
 20
547.1942115859892
 11
287.124168673301
 21
544.6942115859892
 72
     1
 10
287.124168673301
 20
544.6942115859892
 11
334.5073619169852
 21
544.6942115859892
 72
     1
 10
334.5073619169852
 20
544.6942115859892
 11
334.5073619169852
 21
547.1942115859892
 72
     1
 10
334.5073619169852
 20
547.1942115859892
 11
287.124168673301
 21
547.1942115859892
 97
        0
 75
     0
 76
     1
 47
0.0973900822863746
 98
        6
 10
123.8112626937254
 20
545.5605972907688
 10
314.658524624625
 20
546.1344662899973
 10
223.8726285706798
 20
545.3764232519206
 10
455.4545679373986
 20
576.1593982248633
 10
455.6313520045805
 20
672.319149377221
 10
455.4625530382036
 20
773.0502978376062
450
        0
451
        0
460
0.0
461
0.0
452
        1
462
1.0
453
        2
463
0.0
 63
     5
421
      255
463
1.0
 63
     7
421
 16777215
470
LINEAR
1001
ACAD
1010
0.0
1020
0.0
1030
0.0
  0
POLYLINE
  5
5E92
330
67
100
AcDbEntity
  8
F_01 sichtbar
370
    13
100
AcDb2dPolyline
 66
     1
 10
0.0
 20
0.0
 30
0.0
  0
VERTEX
  5
5E93
330
5E92
100
AcDbEntity
  8
F_01 sichtbar
370
    13
100
AcDbVertex
100
AcDb2dVertex
 10
406.5678212371567
 20
796.6334889866739
 30
0.0
  0
VERTEX
  5
5E94
330
5E92
100
AcDbEntity
  8
F_01 sichtbar
370
    13
100
AcDbVertex
100
AcDb2dVertex
 10
406.5678212371567
 20
668.6942115859892
 30
0.0
  0
SEQEND
  5
5E95
330
5E92
100
AcDbEntity
  8
F_01 sichtbar
370
    13
  0
POLYLINE
  5
5E96
330
67
100
AcDbEntity
  8
F_01 sichtbar
370
    13
100
AcDb2dPolyline
 66
     1
 10
0.0
 20
0.0
 30
0.0
  0
VERTEX
  5
5E97
330
5E96
100
AcDbEntity
  8
F_01 sichtbar
370
    13
100
AcDbVertex
100
AcDb2dVertex
 10
357.4573610097286
 20
670.6942115859892
 30
0.0
  0
VERTEX
  5
5E98
330
5E96
100
AcDbEntity
  8
F_01 sichtbar
370
    13
100
AcDbVertex
100
AcDb2dVertex
 10
389.4573610097286
 20
670.6942115859892
 30
0.0
  0
SEQEND
  5
5E99
330
5E96
100
AcDbEntity
  8
F_01 sichtbar
370
    13
  0
POLYLINE
  5
5E9A
330
67
100
AcDbEntity
  8
F_01 sichtbar
370
    13
100
AcDb2dPolyline
 66
     1
 10
0.0
 20
0.0
 30
0.0
  0
VERTEX
  5
5E9B
330
5E9A
100
AcDbEntity
  8
F_01 sichtbar
370
    13
100
AcDbVertex
100
AcDb2dVertex
 10
400.5678212371422
 20
670.6942115859892
 30
0.0
  0
VERTEX
  5
5E9C
330
5E9A
100
AcDbEntity
  8
F_01 sichtbar
370
    13
100
AcDbVertex
100
AcDb2dVertex
 10
400.5678212371567
 20
668.6942115859892
 30
0.0
  0
SEQEND
  5
5E9D
330
5E9A
100
AcDbEntity
  8
F_01 sichtbar
370
    13
  0
LINE
  5
5E9E
330
67
100
AcDbEntity
  8
F_01 sichtbar
370
    13
100
AcDbLine
 10
287.1241686733047
 20
690.6942115859892
 30
0.0
 11
379.5678212371567
 21
690.6942115859892
 31
0.0
  0
LINE
  5
5E9F
330
67
100
AcDbEntity
  8
F_01 sichtbar
370
    13
100
AcDbLine
 10
287.1241686733047
 20
735.6942115859901
 30
0.0
 11
379.5678212371567
 21
735.6942115859892
 31
0.0
  0
LINE
  5
5EA0
330
67
100
AcDbEntity
  8
F_01 sichtbar
370
    13
100
AcDbLine
 10
379.5678212371567
 20
690.6942115859892
 30
0.0
 11
379.5678212371422
 21
735.6942115859746
 31
0.0
  0
INSERT
  5
5EA1
330
67
100
AcDbEntity
  8
F_30 Bemassung T
370
    13
100
AcDbBlockReference
  2
A$C512D72A2
 10
332.7276302973041
 20
646.1080170613022
 30
0.0
  0
POLYLINE
  5
5EA2
330
67
100
AcDbEntity
  8
F_01 sichtbar
370
    13
100
AcDb2dPolyline
 66
     1
 10
0.0
 20
0.0
 30
0.0
  0
VERTEX
  5
5EA3
330
5EA2
100
AcDbEntity
  8
F_01 sichtbar
370
    13
100
AcDbVertex
100
AcDb2dVertex
 10
399.567821237084
 20
794.5593440203047
 30
0.0
  0
VERTEX
  5
5EA4
330
5EA2
100
AcDbEntity
  8
F_01 sichtbar
370
    13
100
AcDbVertex
100
AcDb2dVertex
 10
399.5678212370258
 20
681.27414285341
 30
0.0
  0
SEQEND
  5
5EA5
330
5EA2
100
AcDbEntity
  8
F_01 sichtbar
370
    13
  0
POLYLINE
  5
5EA6
330
67
100
AcDbEntity
  8
F_01 sichtbar
370
    13
100
AcDb2dPolyline
 66
     1
 10
0.0
 20
0.0
 30
0.0
  0
VERTEX
  5
5EA7
330
5EA6
100
AcDbEntity
  8
F_01 sichtbar
370
    13
100
AcDbVertex
100
AcDb2dVertex
 10
399.5678212371568
 20
681.2741655925237
 30
0.0
 42
-0.4142135623730951
  0
VERTEX
  5
5EA8
330
5EA6
100
AcDbEntity
  8
F_01 sichtbar
370
    13
100
AcDbVertex
100
AcDb2dVertex
 10
397.5678212371568
 20
679.2741655925238
 30
0.0
  0
VERTEX
  5
5EA9
330
5EA6
100
AcDbEntity
  8
F_01 sichtbar
370
    13
100
AcDbVertex
100
AcDb2dVertex
 10
376.7812794776692
 20
679.2741655925238
 30
0.0
 42
0.1539147210588876
  0
VERTEX
  5
5EAA
330
5EA6
100
AcDbEntity
  8
F_01 sichtbar
370
    13
100
AcDbVertex
100
AcDb2dVertex
 10
369.8983622414962
 20
677.1039901240182
 30
0.0
  0
VERTEX
  5
5EAB
330
5EA6
100
AcDbEntity
  8
F_01 sichtbar
370
    13
100
AcDbVertex
100
AcDb2dVertex
 10
366.897396290311
 20
675.0026911430941
 30
0.0
 42
-0.1539147210588876
  0
VERTEX
  5
5EAC
330
5EA6
100
AcDbEntity
  8
F_01 sichtbar
370
    13
100
AcDbVertex
100
AcDb2dVertex
 10
361.1616319268069
 20
673.1942115859892
 30
0.0
  0
VERTEX
  5
5EAD
330
5EA6
100
AcDbEntity
  8
F_01 sichtbar
370
    13
100
AcDbVertex
100
AcDb2dVertex
 10
318.3735281339032
 20
673.1942115859892
 30
0.0
  0
VERTEX
  5
5EAE
330
5EA6
100
AcDbEntity
  8
F_01 sichtbar
370
    13
100
AcDbVertex
100
AcDb2dVertex
 10
318.3735281339032
 20
671.1942115859892
 30
0.0
  0
VERTEX
  5
5EAF
330
5EA6
100
AcDbEntity
  8
F_01 sichtbar
370
    13
100
AcDbVertex
100
AcDb2dVertex
 10
361.1616319268069
 20
671.1942115859892
 30
0.0
 42
0.1539147210588876
  0
VERTEX
  5
5EB0
330
5EA6
100
AcDbEntity
  8
F_01 sichtbar
370
    13
100
AcDbVertex
100
AcDb2dVertex
 10
368.0445491630235
 20
673.3643870545238
 30
0.0
  0
VERTEX
  5
5EB1
330
5EA6
100
AcDbEntity
  8
F_01 sichtbar
370
    13
100
AcDbVertex
100
AcDb2dVertex
 10
371.0455151141941
 20
675.4656860354335
 30
0.0
 42
-0.1539147210588876
  0
VERTEX
  5
5EB2
330
5EA6
100
AcDbEntity
  8
F_01 sichtbar
370
    13
100
AcDbVertex
100
AcDb2dVertex
 10
376.7812794776692
 20
677.2741655925237
 30
0.0
  0
VERTEX
  5
5EB3
330
5EA6
100
AcDbEntity
  8
F_01 sichtbar
370
    13
100
AcDbVertex
100
AcDb2dVertex
 10
397.5678212371568
 20
677.2741655925237
 30
0.0
 42
0.4142135623730951
  0
VERTEX
  5
5EB4
330
5EA6
100
AcDbEntity
  8
F_01 sichtbar
370
    13
100
AcDbVertex
100
AcDb2dVertex
 10
401.5678212371567
 20
681.2741655925237
 30
0.0
  0
VERTEX
  5
5EB5
330
5EA6
100
AcDbEntity
  8
F_01 sichtbar
370
    13
100
AcDbVertex
100
AcDb2dVertex
 10
401.5678212371494
 20
795.1519568678523
 30
0.0
  0
SEQEND
  5
5EB6
330
5EA6
100
AcDbEntity
  8
F_01 sichtbar
370
    13
  0
POLYLINE
  5
5EB7
330
67
100
AcDbEntity
  8
F_0 sichtbar
370
    13
100
AcDb2dPolyline
 66
     1
 10
0.0
 20
0.0
 30
0.0
  0
VERTEX
  5
5EB8
330
5EB7
100
AcDbEntity
  8
F_0 sichtbar
370
    13
100
AcDbVertex
100
AcDb2dVertex
 10
334.5073619169852
 20
547.1942115859892
 30
0.0
  0
VERTEX
  5
5EB9
330
5EB7
100
AcDbEntity
  8
F_0 sichtbar
370
    13
100
AcDbVertex
100
AcDb2dVertex
 10
334.5073619169852
 20
544.6942115859892
 30
0.0
  0
SEQEND
  5
5EBA
330
5EB7
100
AcDbEntity
  8
F_0 sichtbar
370
    13
  0
POLYLINE
  5
5EBB
330
67
100
AcDbEntity
  8
F_0 sichtbar
370
    13
100
AcDb2dPolyline
 66
     1
 10
0.0
 20
0.0
 30
0.0
  0
VERTEX
  5
5EBC
330
5EBB
100
AcDbEntity
  8
F_0 sichtbar
370
    13
100
AcDbVertex
100
AcDb2dVertex
 10
384.5073619169852
 20
547.1942115859892
 30
0.0
  0
VERTEX
  5
5EBD
330
5EBB
100
AcDbEntity
  8
F_0 sichtbar
370
    13
100
AcDbVertex
100
AcDb2dVertex
 10
384.5073619169852
 20
544.6942115859892
 30
0.0
  0
SEQEND
  5
5EBE
330
5EBB
100
AcDbEntity
  8
F_0 sichtbar
370
    13
  0
POLYLINE
  5
5EBF
330
67
100
AcDbEntity
  8
F_0 sichtbar
370
    13
100
AcDb2dPolyline
 66
     1
 10
0.0
 20
0.0
 30
0.0
  0
VERTEX
  5
5EC0
330
5EBF
100
AcDbEntity
  8
F_0 sichtbar
370
    13
100
AcDbVertex
100
AcDb2dVertex
 10
434.5073619169852
 20
547.1942115859892
 30
0.0
  0
VERTEX
  5
5EC1
330
5EBF
100
AcDbEntity
  8
F_0 sichtbar
370
    13
100
AcDbVertex
100
AcDb2dVertex
 10
434.5073619169852
 20
544.6942115859892
 30
0.0
  0
SEQEND
  5
5EC2
330
5EBF
100
AcDbEntity
  8
F_0 sichtbar
370
    13
  0
POLYLINE
  5
5EC3
330
67
100
AcDbEntity
  8
F_0 sichtbar
370
    13
100
AcDb2dPolyline
 66
     1
 10
0.0
 20
0.0
 30
0.0
  0
VERTEX
  5
5EC4
330
5EC3
100
AcDbEntity
  8
F_0 sichtbar
370
    13
100
AcDbVertex
100
AcDb2dVertex
 10
456.5678212371421
 20
566.4224530439859
 30
0.0
  0
VERTEX
  5
5EC5
330
5EC3
100
AcDbEntity
  8
F_0 sichtbar
370
    13
100
AcDbVertex
100
AcDb2dVertex
 10
454.0678212371422
 20
566.4224530439859
 30
0.0
  0
SEQEND
  5
5EC6
330
5EC3
100
AcDbEntity
  8
F_0 sichtbar
370
    13
  0
POLYLINE
  5
5EC7
330
67
100
AcDbEntity
  8
F_0 sichtbar
370
    13
100
AcDb2dPolyline
 66
     1
 10
0.0
 20
0.0
 30
0.0
  0
VERTEX
  5
5EC8
330
5EC7
100
AcDbEntity
  8
F_0 sichtbar
370
    13
100
AcDbVertex
100
AcDb2dVertex
 10
456.5678212371421
 20
616.4224530439859
 30
0.0
  0
VERTEX
  5
5EC9
330
5EC7
100
AcDbEntity
  8
F_0 sichtbar
370
    13
100
AcDbVertex
100
AcDb2dVertex
 10
454.0678212371422
 20
616.4224530439859
 30
0.0
  0
SEQEND
  5
5ECA
330
5EC7
100
AcDbEntity
  8
F_0 sichtbar
370
    13
  0
POLYLINE
  5
5ECB
330
67
100
AcDbEntity
  8
F_0 sichtbar
370
    13
100
AcDb2dPolyline
 66
     1
 10
0.0
 20
0.0
 30
0.0
  0
VERTEX
  5
5ECC
330
5ECB
100
AcDbEntity
  8
F_0 sichtbar
370
    13
100
AcDbVertex
100
AcDb2dVertex
 10
456.5678212371421
 20
666.4224530439859
 30
0.0
  0
VERTEX
  5
5ECD
330
5ECB
100
AcDbEntity
  8
F_0 sichtbar
370
    13
100
AcDbVertex
100
AcDb2dVertex
 10
454.0678212371422
 20
666.4224530439859
 30
0.0
  0
SEQEND
  5
5ECE
330
5ECB
100
AcDbEntity
  8
F_0 sichtbar
370
    13
  0
POLYLINE
  5
5ECF
330
67
100
AcDbEntity
  8
F_0 sichtbar
370
    13
100
AcDb2dPolyline
 66
     1
 10
0.0
 20
0.0
 30
0.0
  0
VERTEX
  5
5ED0
330
5ECF
100
AcDbEntity
  8
F_0 sichtbar
370
    13
100
AcDbVertex
100
AcDb2dVertex
 10
456.5678212371421
 20
716.4224530439859
 30
0.0
  0
VERTEX
  5
5ED1
330
5ECF
100
AcDbEntity
  8
F_0 sichtbar
370
    13
100
AcDbVertex
100
AcDb2dVertex
 10
454.0678212371422
 20
716.4224530439859
 30
0.0
  0
SEQEND
  5
5ED2
330
5ECF
100
AcDbEntity
  8
F_0 sichtbar
370
    13
  0
POLYLINE
  5
5ED3
330
67
100
AcDbEntity
  8
F_0 sichtbar
370
    13
100
AcDb2dPolyline
 66
     1
 10
0.0
 20
0.0
 30
0.0
  0
VERTEX
  5
5ED4
330
5ED3
100
AcDbEntity
  8
F_0 sichtbar
370
    13
100
AcDbVertex
100
AcDb2dVertex
 10
456.5678212371421
 20
766.4224530439859
 30
0.0
  0
VERTEX
  5
5ED5
330
5ED3
100
AcDbEntity
  8
F_0 sichtbar
370
    13
100
AcDbVertex
100
AcDb2dVertex
 10
454.0678212371422
 20
766.4224530439859
 30
0.0
  0
SEQEND
  5
5ED6
330
5ED3
100
AcDbEntity
  8
F_0 sichtbar
370
    13
  0
POLYLINE
  5
5ED7
330
67
100
AcDbEntity
  8
F_06 Wangen
370
    13
100
AcDb2dPolyline
 66
     1
 10
0.0
 20
0.0
 30
0.0
  0
VERTEX
  5
5ED8
330
5ED7
100
AcDbEntity
  8
F_06 Wangen
370
    13
100
AcDbVertex
100
AcDb2dVertex
 10
385.5680832651924
 20
790.4111317282195
 30
0.0
  0
VERTEX
  5
5ED9
330
5ED7
100
AcDbEntity
  8
F_06 Wangen
370
    13
100
AcDbVertex
100
AcDb2dVertex
 10
385.5680832651997
 20
703.6942115859893
 30
0.0
  0
VERTEX
  5
5EDA
330
5ED7
100
AcDbEntity
  8
F_06 Wangen
370
    13
100
AcDbVertex
100
AcDb2dVertex
 10
386.5680832651997
 20
703.6942115859893
 30
0.0
  0
VERTEX
  5
5EDB
330
5ED7
100
AcDbEntity
  8
F_06 Wangen
370
    13
100
AcDbVertex
100
AcDb2dVertex
 10
386.5680832651997
 20
790.707438151986
 30
0.0
  0
SEQEND
  5
5EDC
330
5ED7
100
AcDbEntity
  8
F_06 Wangen
370
    13
  0
POLYLINE
  5
5EDD
330
67
100
AcDbEntity
  8
F_01 sichtbar
370
    13
100
AcDb2dPolyline
 66
     1
 10
0.0
 20
0.0
 30
0.0
  0
VERTEX
  5
5EDE
330
5EDD
100
AcDbEntity
  8
F_01 sichtbar
370
    13
100
AcDbVertex
100
AcDb2dVertex
 10
456.5678212371421
 20
811.4488101748721
 30
0.0
  0
VERTEX
  5
5EDF
330
5EDD
100
AcDbEntity
  8
F_01 sichtbar
370
    13
100
AcDbVertex
100
AcDb2dVertex
 10
456.5678212371421
 20
552.6942115859892
 30
0.0
 42
-0.487470807496992
  0
VERTEX
  5
5EE0
330
5EDD
100
AcDbEntity
  8
F_01 sichtbar
370
    13
100
AcDbVertex
100
AcDb2dVertex
 10
448.5678212371421
 20
544.6942115859892
 30
0.0
  0
VERTEX
  5
5EE1
330
5EDD
100
AcDbEntity
  8
F_01 sichtbar
370
    13
100
AcDbVertex
100
AcDb2dVertex
 10
287.1241686733047
 20
544.6942115859892
 30
0.0
  0
SEQEND
  5
5EE2
330
5EDD
100
AcDbEntity
  8
F_01 sichtbar
370
    13
  0
POLYLINE
  5
5EE3
330
67
100
AcDbEntity
  8
F_01 sichtbar
370
    13
100
AcDb2dPolyline
 66
     1
 10
0.0
 20
0.0
 30
0.0
  0
VERTEX
  5
5EE4
330
5EE3
100
AcDbEntity
  8
F_01 sichtbar
370
    13
100
AcDbVertex
100
AcDb2dVertex
 10
287.1241686733047
 20
547.1942115859892
 30
0.0
  0
VERTEX
  5
5EE5
330
5EE3
100
AcDbEntity
  8
F_01 sichtbar
370
    13
100
AcDbVertex
100
AcDb2dVertex
 10
450.0678212371422
 20
547.1942115859892
 30
0.0
 42
0.4142135623730951
  0
VERTEX
  5
5EE6
330
5EE3
100
AcDbEntity
  8
F_01 sichtbar
370
    13
100
AcDbVertex
100
AcDb2dVertex
 10
454.0678212371422
 20
551.1942115859892
 30
0.0
  0
VERTEX
  5
5EE7
330
5EE3
100
AcDbEntity
  8
F_01 sichtbar
370
    13
100
AcDbVertex
100
AcDb2dVertex
 10
454.0678212371422
 20
810.7080441154622
 30
0.0
  0
SEQEND
  5
5EE8
330
5EE3
100
AcDbEntity
  8
F_01 sichtbar
370
    13
  0
HATCH
  5
5EE9
330
67
100
AcDbEntity
  8
F_01 sichtbar
370
    13
100
AcDbHatch
 10
0.0
 20
0.0
 30
0.0
210
0.0
220
0.0
230
1.0
  2
BATT_INSULATION
 70
     0
 71
     0
 91
        1
 92
        1
 93
        4
 72
     1
 10
287.1241686733047
 20
668.6942115859892
 11
287.1241686733047
 21
548.6942115859883
 72
     1
 10
287.1241686733047
 20
548.6942115859883
 11
453.1903202363391
 21
548.6942115859892
 72
     1
 10
453.1903202363391
 20
548.6942115859892
 11
454.0678212371422
 21
668.6942115859892
 72
     1
 10
454.0678212371422
 20
668.6942115859892
 11
287.1241686733047
 21
668.6942115859892
 97
        0
 75
     0
 76
     2
 52
180.0
 41
118.9901048226843
 77
     0
 78
   528
 53
0.000000000000007
 43
42980.58322015452
 44
5234.769682032966
 45
39.75590291241188
 46
-133.8638679255199
 79
     2
 49
0.0
 49
-39.75590291241187
 53
345.9236
 43
42960.70520920325
 44
5219.895918930124
 45
39.75585659359874
 46
0.000014687406605
 79
     2
 49
9.670087838729861
 49
-3843.073153322027
 53
345.9236
 43
42960.70520920325
 44
5086.03205100459
 45
39.75585659359874
 46
0.000014687406605
 79
     2
 49
9.670087838729861
 49
-3843.073153322027
 53
345.9236
 43
42960.70520920325
 44
4952.168183079084
 45
39.75585659359874
 46
0.000014687406605
 79
     2
 49
9.670087838729861
 49
-3843.073153322027
 53
345.9236
 43
42960.70520920325
 44
4818.304315153549
 45
39.75585659359874
 46
0.000014687406605
 79
     2
 49
9.670087838729861
 49
-3843.073153322027
 53
345.9236
 43
42960.70520920325
 44
4684.44044722804
 45
39.75585659359874
 46
0.000014687406605
 79
     2
 49
9.670087838729861
 49
-3843.073153322027
 53
345.9236
 43
42960.70520920325
 44
4550.576579302535
 45
39.75585659359874
 46
0.000014687406605
 79
     2
 49
9.670087838729861
 49
-3843.073153322027
 53
345.9236
 43
42960.70520920325
 44
4416.712711377
 45
39.75585659359874
 46
0.000014687406605
 79
     2
 49
9.670087838729861
 49
-3843.073153322027
 53
334.9544
 43
42965.33594711263
 44
5108.029751683182
 45
39.75589259645271
 46
-0.0000425502174256
 79
     2
 49
16.82972244591056
 49
-10734.28048182553
 53
334.9544
 43
42965.33594711263
 44
4974.165883757647
 45
39.75589259645271
 46
-0.0000425502174256
 79
     2
 49
16.82972244591056
 49
-10734.28048182553
 53
334.9544
 43
42965.33594711263
 44
4840.302015832138
 45
39.75589259645271
 46
-0.0000425502174256
 79
     2
 49
16.82972244591056
 49
-10734.28048182553
 53
334.9544
 43
42965.33594711263
 44
4706.438147906603
 45
39.75589259645271
 46
-0.0000425502174256
 79
     2
 49
16.82972244591056
 49
-10734.28048182553
 53
334.9544
 43
42965.33594711263
 44
4572.574279981098
 45
39.75589259645271
 46
-0.0000425502174256
 79
     2
 49
16.82972244591056
 49
-10734.28048182553
 53
334.9544
 43
42965.33594711263
 44
4438.710412055563
 45
39.75589259645271
 46
-0.0000425502174256
 79
     2
 49
16.82972244591056
 49
-10734.28048182553
 53
334.9544
 43
42965.33594711263
 44
4304.846544130057
 45
39.75589259645271
 46
-0.0000425502174256
 79
     2
 49
16.82972244591056
 49
-10734.28048182553
 53
334.9544
 43
42965.33594711263
 44
4170.982676204523
 45
39.75589259645271
 46
-0.0000425502174256
 79
     2
 49
16.82972244591056
 49
-10734.28048182553
 53
334.9544
 43
42965.33594711263
 44
4037.122377982167
 45
39.75589259645271
 46
-0.0000425502174256
 79
     2
 49
16.82972244591056
 49
-10734.28048182553
 53
334.9544
 43
42965.33594711263
 44
3903.258510056632
 45
39.75589259645271
 46
-0.0000425502174256
 79
     2
 49
16.82972244591056
 49
-10734.28048182553
 53
334.9544
 43
42965.33594711263
 44
3769.394642131101
 45
39.75589259645271
 46
-0.0000425502174256
 79
     2
 49
16.82972244591056
 49
-10734.28048182553
 53
334.9544
 43
42965.33594711263
 44
3635.530774205592
 45
39.75589259645271
 46
-0.0000425502174256
 79
     2
 49
16.82972244591056
 49
-10734.28048182553
 53
334.9544
 43
42965.33594711263
 44
3501.666906280083
 45
39.75589259645271
 46
-0.0000425502174256
 79
     2
 49
16.82972244591056
 49
-10734.28048182553
 53
334.9544
 43
42965.33594711263
 44
3367.803038354578
 45
39.75589259645271
 46
-0.0000425502174256
 79
     2
 49
16.82972244591056
 49
-10734.28048182553
 53
334.9544
 43
42965.33594711263
 44
3233.939170429043
 45
39.75589259645271
 46
-0.0000425502174256
 79
     2
 49
16.82972244591056
 49
-10734.28048182553
 53
334.9544
 43
42965.33594711263
 44
3100.075302503509
 45
39.75589259645271
 46
-0.0000425502174256
 79
     2
 49
16.82972244591056
 49
-10734.28048182553
 53
334.9544
 43
42965.33594711263
 44
2966.211434578003
 45
39.75589259645271
 46
-0.0000425502174256
 79
     2
 49
16.82972244591056
 49
-10734.28048182553
 53
334.9544
 43
42965.33594711263
 44
2832.347566652498
 45
39.75589259645271
 46
-0.0000425502174256
 79
     2
 49
16.82972244591056
 49
-10734.28048182553
 53
334.9544
 43
42965.33594711263
 44
2698.483698726963
 45
39.75589259645271
 46
-0.0000425502174256
 79
     2
 49
16.82972244591056
 49
-10734.28048182553
 53
334.9544
 43
42965.33594711263
 44
2564.619830801428
 45
39.75589259645271
 46
-0.0000425502174256
 79
     2
 49
16.82972244591056
 49
-10734.28048182553
 53
334.9544
 43
42965.33594711263
 44
2430.755962875919
 45
39.75589259645271
 46
-0.0000425502174256
 79
     2
 49
16.82972244591056
 49
-10734.28048182553
 53
334.9544
 43
42965.33594711263
 44
2296.892094950413
 45
39.75589259645271
 46
-0.0000425502174256
 79
     2
 49
16.82972244591056
 49
-10734.28048182553
 53
334.9544
 43
42965.33594711263
 44
2163.028227024879
 45
39.75589259645271
 46
-0.0000425502174256
 79
     2
 49
16.82972244591056
 49
-10734.28048182553
 53
334.9544
 43
42965.33594711263
 44
2029.164359099345
 45
39.75589259645271
 46
-0.0000425502174256
 79
     2
 49
16.82972244591056
 49
-10734.28048182553
 53
334.9544
 43
42965.33594711263
 44
1895.300491173839
 45
39.75589259645271
 46
-0.0000425502174256
 79
     2
 49
16.82972244591056
 49
-10734.28048182553
 53
334.9544
 43
42965.33594711263
 44
1761.43662324833
 45
39.75589259645271
 46
-0.0000425502174256
 79
     2
 49
16.82972244591056
 49
-10734.28048182553
 53
334.9544
 43
42965.33594711263
 44
1627.572755322795
 45
39.75589259645271
 46
-0.0000425502174256
 79
     2
 49
16.82972244591056
 49
-10734.28048182553
 53
334.9544
 43
42965.33594711263
 44
1493.70888739729
 45
39.75589259645271
 46
-0.0000425502174256
 79
     2
 49
16.82972244591056
 49
-10734.28048182553
 53
334.9544
 43
42965.33594711263
 44
1359.845019471755
 45
39.75589259645271
 46
-0.0000425502174256
 79
     2
 49
16.82972244591056
 49
-10734.28048182553
 53
334.9544
 43
42965.33594711263
 44
1225.981151546221
 45
39.75589259645271
 46
-0.0000425502174256
 79
     2
 49
16.82972244591056
 49
-10734.28048182553
 53
334.9544
 43
42965.33594711263
 44
1092.117283620715
 45
39.75589259645271
 46
-0.0000425502174256
 79
     2
 49
16.82972244591056
 49
-10734.28048182553
 53
334.9544
 43
42965.33594711263
 44
958.2534156952061
 45
39.75589259645271
 46
-0.0000425502174256
 79
     2
 49
16.82972244591056
 49
-10734.28048182553
 53
334.9544
 43
42965.33594711263
 44
824.3895477696714
 45
39.75589259645271
 46
-0.0000425502174256
 79
     2
 49
16.82972244591056
 49
-10734.28048182553
 53
334.9544
 43
42965.33594711263
 44
690.5256798441659
 45
39.75589259645271
 46
-0.0000425502174256
 79
     2
 49
16.82972244591056
 49
-10734.28048182553
 53
307.5647
 43
42970.08496118619
 44
5217.543722537993
 45
39.75587516415277
 46
-0.0000089774092899
 79
     2
 49
16.34697959064513
 49
-6569.897158549863
 53
307.5647
 43
42970.08496118619
 44
5083.679616632242
 45
39.75587516415277
 46
-0.0000089774092899
 79
     2
 49
16.34697959064513
 49
-6569.897158549863
 53
307.5647
 43
42970.08496118619
 44
4949.815748706733
 45
39.75587516415277
 46
-0.0000089774092899
 79
     2
 49
16.34697959064513
 49
-6569.897158549863
 53
307.5647
 43
42970.08496118619
 44
4815.951880781227
 45
39.75587516415277
 46
-0.0000089774092899
 79
     2
 49
16.34697959064513
 49
-6569.897158549863
 53
307.5647
 43
42970.08496118619
 44
4682.088012855692
 45
39.75587516415277
 46
-0.0000089774092899
 79
     2
 49
16.34697959064513
 49
-6569.897158549863
 53
307.5647
 43
42970.08496118619
 44
4548.224144930162
 45
39.75587516415277
 46
-0.0000089774092899
 79
     2
 49
16.34697959064513
 49
-6569.897158549863
 53
307.5647
 43
42970.08496118619
 44
4414.360277004653
 45
39.75587516415277
 46
-0.0000089774092899
 79
     2
 49
16.34697959064513
 49
-6569.897158549863
 53
307.5647
 43
42970.08496118619
 44
4280.496409079144
 45
39.75587516415277
 46
-0.0000089774092899
 79
     2
 49
16.34697959064513
 49
-6569.897158549863
 53
307.5647
 43
42970.08496118619
 44
4146.632541153609
 45
39.75587516415277
 46
-0.0000089774092899
 79
     2
 49
16.34697959064513
 49
-6569.897158549863
 53
307.5647
 43
42970.08496118619
 44
4012.765103524951
 45
39.75587516415277
 46
-0.0000089774092899
 79
     2
 49
16.34697959064513
 49
-6569.897158549863
 53
307.5647
 43
42970.08496118619
 44
3878.901235599442
 45
39.75587516415277
 46
-0.0000089774092899
 79
     2
 49
16.34697959064513
 49
-6569.897158549863
 53
307.5647
 43
42970.08496118619
 44
3745.037367673911
 45
39.75587516415277
 46
-0.0000089774092899
 79
     2
 49
16.34697959064513
 49
-6569.897158549863
 53
307.5647
 43
42970.08496118619
 44
3611.173499748377
 45
39.75587516415277
 46
-0.0000089774092899
 79
     2
 49
16.34697959064513
 49
-6569.897158549863
 53
307.5647
 43
42970.08496118619
 44
3477.309631822868
 45
39.75587516415277
 46
-0.0000089774092899
 79
     2
 49
16.34697959064513
 49
-6569.897158549863
 53
307.5647
 43
42970.08496118619
 44
3343.445763897362
 45
39.75587516415277
 46
-0.0000089774092899
 79
     2
 49
16.34697959064513
 49
-6569.897158549863
 53
307.5647
 43
42970.08496118619
 44
3209.581895971827
 45
39.75587516415277
 46
-0.0000089774092899
 79
     2
 49
16.34697959064513
 49
-6569.897158549863
 53
307.5647
 43
42970.08496118619
 44
3075.718028046318
 45
39.75587516415277
 46
-0.0000089774092899
 79
     2
 49
16.34697959064513
 49
-6569.897158549863
 53
307.5647
 43
42970.08496118619
 44
2941.854160120787
 45
39.75587516415277
 46
-0.0000089774092899
 79
     2
 49
16.34697959064513
 49
-6569.897158549863
 53
307.5647
 43
42970.08496118619
 44
2807.990292195278
 45
39.75587516415277
 46
-0.0000089774092899
 79
     2
 49
16.34697959064513
 49
-6569.897158549863
 53
307.5647
 43
42970.08496118619
 44
2674.126424269748
 45
39.75587516415277
 46
-0.0000089774092899
 79
     2
 49
16.34697959064513
 49
-6569.897158549863
 53
307.5647
 43
42970.08496118619
 44
2540.262556344238
 45
39.75587516415277
 46
-0.0000089774092899
 79
     2
 49
16.34697959064513
 49
-6569.897158549863
 53
307.5647
 43
42970.08496118619
 44
2406.398688418704
 45
39.75587516415277
 46
-0.0000089774092899
 79
     2
 49
16.34697959064513
 49
-6569.897158549863
 53
307.5647
 43
42970.08496118619
 44
2272.534820493194
 45
39.75587516415277
 46
-0.0000089774092899
 79
     2
 49
16.34697959064513
 49
-6569.897158549863
 53
307.5647
 43
42970.08496118619
 44
2138.670952567663
 45
39.75587516415277
 46
-0.0000089774092899
 79
     2
 49
16.34697959064513
 49
-6569.897158549863
 53
307.5647
 43
42970.08496118619
 44
2004.807084642154
 45
39.75587516415277
 46
-0.0000089774092899
 79
     2
 49
16.34697959064513
 49
-6569.897158549863
 53
307.5647
 43
42970.08496118619
 44
1870.943216716623
 45
39.75587516415277
 46
-0.0000089774092899
 79
     2
 49
16.34697959064513
 49
-6569.897158549863
 53
307.5647
 43
42970.08496118619
 44
1737.079348791114
 45
39.75587516415277
 46
-0.0000089774092899
 79
     2
 49
16.34697959064513
 49
-6569.897158549863
 53
307.5647
 43
42970.08496118619
 44
1603.215480865605
 45
39.75587516415277
 46
-0.0000089774092899
 79
     2
 49
16.34697959064513
 49
-6569.897158549863
 53
307.5647
 43
42970.08496118619
 44
1469.35161294007
 45
39.75587516415277
 46
-0.0000089774092899
 79
     2
 49
16.34697959064513
 49
-6569.897158549863
 53
307.5647
 43
42970.08496118619
 44
1335.487745014565
 45
39.75587516415277
 46
-0.0000089774092899
 79
     2
 49
16.34697959064513
 49
-6569.897158549863
 53
307.5647
 43
42970.08496118619
 44
1201.62387708903
 45
39.75587516415277
 46
-0.0000089774092899
 79
     2
 49
16.34697959064513
 49
-6569.897158549863
 53
307.5647
 43
42970.08496118619
 44
1067.760009163496
 45
39.75587516415277
 46
-0.0000089774092899
 79
     2
 49
16.34697959064513
 49
-6569.897158549863
 53
307.5647
 43
42970.08496118619
 44
933.8961412379903
 45
39.75587516415277
 46
-0.0000089774092899
 79
     2
 49
16.34697959064513
 49
-6569.897158549863
 53
307.5647
 43
42970.08496118619
 44
800.0322733124848
 45
39.75587516415277
 46
-0.0000089774092899
 79
     2
 49
16.34697959064513
 49
-6569.897158549863
 53
307.5647
 43
42970.08496118619
 44
666.1684053869503
 45
39.75587516415277
 46
-0.0000089774092899
 79
     2
 49
16.34697959064513
 49
-6569.897158549863
 53
307.5647
 43
42970.08496118619
 44
532.3045374614411
 45
39.75587516415277
 46
-0.0000089774092899
 79
     2
 49
16.34697959064513
 49
-6569.897158549863
 53
307.5647
 43
42970.08496118619
 44
398.4406695359067
 45
39.75587516415277
 46
-0.0000089774092899
 79
     2
 49
16.34697959064513
 49
-6569.897158549863
 53
307.5647
 43
42970.08496118619
 44
264.5768016104012
 45
39.75587516415277
 46
-0.0000089774092899
 79
     2
 49
16.34697959064513
 49
-6569.897158549863
 53
307.5647
 43
42970.08496118619
 44
130.712933684892
 45
39.75587516415277
 46
-0.0000089774092899
 79
     2
 49
16.34697959064513
 49
-6569.897158549863
 53
292.9384
 43
42944.49013014379
 44
5175.494404345223
 45
39.75591328479023
 46
-0.0000165670965689
 79
     2
 49
30.44290437825485
 49
-5783.884461102885
 53
292.9384
 43
42944.49013014379
 44
5041.630893390014
 45
39.75591328479023
 46
-0.0000165670965689
 79
     2
 49
30.44290437825485
 49
-5783.884461102885
 53
292.9384
 43
42944.49013014379
 44
4907.76702546448
 45
39.75591328479023
 46
-0.0000165670965689
 79
     2
 49
30.44290437825485
 49
-5783.884461102885
 53
292.9384
 43
42944.49013014379
 44
4773.90315753897
 45
39.75591328479023
 46
-0.0000165670965689
 79
     2
 49
30.44290437825485
 49
-5783.884461102885
 53
292.9384
 43
42944.49013014379
 44
4640.039289613465
 45
39.75591328479023
 46
-0.0000165670965689
 79
     2
 49
30.44290437825485
 49
-5783.884461102885
 53
292.9384
 43
42944.49013014379
 44
4506.17542168793
 45
39.75591328479023
 46
-0.0000165670965689
 79
     2
 49
30.44290437825485
 49
-5783.884461102885
 53
292.9384
 43
42944.49013014379
 44
4372.311553762425
 45
39.75591328479023
 46
-0.0000165670965689
 79
     2
 49
30.44290437825485
 49
-5783.884461102885
 53
292.9384
 43
42944.49013014379
 44
4238.447685836891
 45
39.75591328479023
 46
-0.0000165670965689
 79
     2
 49
30.44290437825485
 49
-5783.884461102885
 53
292.9384
 43
42944.49013014379
 44
4104.583817911382
 45
39.75591328479023
 46
-0.0000165670965689
 79
     2
 49
30.44290437825485
 49
-5783.884461102885
 53
292.9384
 43
42944.49013014379
 44
3970.714000480631
 45
39.75591328479023
 46
-0.0000165670965689
 79
     2
 49
30.44290437825485
 49
-5783.884461102885
 53
292.9384
 43
42944.49013014379
 44
3836.850132555098
 45
39.75591328479023
 46
-0.0000165670965689
 79
     2
 49
30.44290437825485
 49
-5783.884461102885
 53
292.9384
 43
42944.49013014379
 44
3702.986264629563
 45
39.75591328479023
 46
-0.0000165670965689
 79
     2
 49
30.44290437825485
 49
-5783.884461102885
 53
292.9384
 43
42944.49013014379
 44
3569.122396704054
 45
39.75591328479023
 46
-0.0000165670965689
 79
     2
 49
30.44290437825485
 49
-5783.884461102885
 53
292.9384
 43
42944.49013014379
 44
3435.258528778548
 45
39.75591328479023
 46
-0.0000165670965689
 79
     2
 49
30.44290437825485
 49
-5783.884461102885
 53
292.9384
 43
42944.49013014379
 44
3301.394660853013
 45
39.75591328479023
 46
-0.0000165670965689
 79
     2
 49
30.44290437825485
 49
-5783.884461102885
 53
292.9384
 43
42944.49013014379
 44
3167.530792927482
 45
39.75591328479023
 46
-0.0000165670965689
 79
     2
 49
30.44290437825485
 49
-5783.884461102885
 53
292.9384
 43
42944.49013014379
 44
3033.666925001973
 45
39.75591328479023
 46
-0.0000165670965689
 79
     2
 49
30.44290437825485
 49
-5783.884461102885
 53
292.9384
 43
42944.49013014379
 44
2899.803057076464
 45
39.75591328479023
 46
-0.0000165670965689
 79
     2
 49
30.44290437825485
 49
-5783.884461102885
 53
292.9384
 43
42944.49013014379
 44
2765.939189150959
 45
39.75591328479023
 46
-0.0000165670965689
 79
     2
 49
30.44290437825485
 49
-5783.884461102885
 53
292.9384
 43
42944.49013014379
 44
2632.075321225424
 45
39.75591328479023
 46
-0.0000165670965689
 79
     2
 49
30.44290437825485
 49
-5783.884461102885
 53
292.9384
 43
42944.49013014379
 44
2498.21145329989
 45
39.75591328479023
 46
-0.0000165670965689
 79
     2
 49
30.44290437825485
 49
-5783.884461102885
 53
292.9384
 43
42944.49013014379
 44
2364.347585374384
 45
39.75591328479023
 46
-0.0000165670965689
 79
     2
 49
30.44290437825485
 49
-5783.884461102885
 53
292.9384
 43
42944.49013014379
 44
2230.483717448875
 45
39.75591328479023
 46
-0.0000165670965689
 79
     2
 49
30.44290437825485
 49
-5783.884461102885
 53
292.9384
 43
42944.49013014379
 44
2096.619849523341
 45
39.75591328479023
 46
-0.0000165670965689
 79
     2
 49
30.44290437825485
 49
-5783.884461102885
 53
292.9384
 43
42944.49013014379
 44
1962.755981597805
 45
39.75591328479023
 46
-0.0000165670965689
 79
     2
 49
30.44290437825485
 49
-5783.884461102885
 53
292.9384
 43
42944.49013014379
 44
1828.8921136723
 45
39.75591328479023
 46
-0.0000165670965689
 79
     2
 49
30.44290437825485
 49
-5783.884461102885
 53
292.9384
 43
42944.49013014379
 44
1695.028245746765
 45
39.75591328479023
 46
-0.0000165670965689
 79
     2
 49
30.44290437825485
 49
-5783.884461102885
 53
292.9384
 43
42944.49013014379
 44
1561.16437782126
 45
39.75591328479023
 46
-0.0000165670965689
 79
     2
 49
30.44290437825485
 49
-5783.884461102885
 53
292.9384
 43
42944.49013014379
 44
1427.300509895725
 45
39.75591328479023
 46
-0.0000165670965689
 79
     2
 49
30.44290437825485
 49
-5783.884461102885
 53
292.9384
 43
42944.49013014379
 44
1293.43664197022
 45
39.75591328479023
 46
-0.0000165670965689
 79
     2
 49
30.44290437825485
 49
-5783.884461102885
 53
292.9384
 43
42944.49013014379
 44
1159.572774044711
 45
39.75591328479023
 46
-0.0000165670965689
 79
     2
 49
30.44290437825485
 49
-5783.884461102885
 53
292.9384
 43
42944.49013014379
 44
1025.708906119176
 45
39.75591328479023
 46
-0.0000165670965689
 79
     2
 49
30.44290437825485
 49
-5783.884461102885
 53
292.9384
 43
42944.49013014379
 44
891.8450381936418
 45
39.75591328479023
 46
-0.0000165670965689
 79
     2
 49
30.44290437825485
 49
-5783.884461102885
 53
292.9384
 43
42944.49013014379
 44
757.9811702681363
 45
39.75591328479023
 46
-0.0000165670965689
 79
     2
 49
30.44290437825485
 49
-5783.884461102885
 53
292.9384
 43
42944.49013014379
 44
624.1173023426272
 45
39.75591328479023
 46
-0.0000165670965689
 79
     2
 49
30.44290437825485
 49
-5783.884461102885
 53
292.9384
 43
42944.49013014379
 44
490.2534344170963
 45
39.75591328479023
 46
-0.0000165670965689
 79
     2
 49
30.44290437825485
 49
-5783.884461102885
 53
292.9384
 43
42944.49013014379
 44
356.3895664915872
 45
39.75591328479023
 46
-0.0000165670965689
 79
     2
 49
30.44290437825485
 49
-5783.884461102885
 53
292.9384
 43
42944.49013014379
 44
222.5256985660526
 45
39.75591328479023
 46
-0.0000165670965689
 79
     2
 49
30.44290437825485
 49
-5783.884461102885
 53
292.9384
 43
42944.49013014379
 44
88.66183064054348
 45
39.75591328479023
 46
-0.0000165670965689
 79
     2
 49
30.44290437825485
 49
-5783.884461102885
 53
292.9384
 43
42944.49013014379
 44
-45.20203728496198
 45
39.75591328479023
 46
-0.0000165670965689
 79
     2
 49
30.44290437825485
 49
-5783.884461102885
 53
285.109
 43
42961.89511025148
 44
5120.7837060686
 45
0.0000003601119824
 46
-133.8637863111869
 79
     2
 49
13.20944850668066
 49
-1512.01737614076
 53
285.109
 43
43001.6510131639
 44
5120.7837060686
 45
0.0000003601119824
 46
-133.8637863111869
 79
     2
 49
13.20944850668066
 49
-1512.01737614076
 53
285.109
 43
43041.40691607631
 44
5120.7837060686
 45
0.0000003601119824
 46
-133.8637863111869
 79
     2
 49
13.20944850668066
 49
-1512.01737614076
 53
285.109
 43
43081.16305696891
 44
5120.7837060686
 45
0.0000003601119824
 46
-133.8637863111869
 79
     2
 49
13.20944850668066
 49
-1512.01737614076
 53
285.109
 43
43120.91884089124
 44
5120.7837060686
 45
0.0000003601119824
 46
-133.8637863111869
 79
     2
 49
13.20944850668066
 49
-1512.01737614076
 53
285.109
 43
43160.67462481353
 44
5120.7837060686
 45
0.0000003601119824
 46
-133.8637863111869
 79
     2
 49
13.20944850668066
 49
-1512.01737614076
 53
285.109
 43
43200.43040873584
 44
5120.7837060686
 45
0.0000003601119824
 46
-133.8637863111869
 79
     2
 49
13.20944850668066
 49
-1512.01737614076
 53
285.109
 43
43240.18619265814
 44
5120.7837060686
 45
0.0000003601119824
 46
-133.8637863111869
 79
     2
 49
13.20944850668066
 49
-1512.01737614076
 53
285.109
 43
43279.94197658046
 44
5120.7837060686
 45
0.0000003601119824
 46
-133.8637863111869
 79
     2
 49
13.20944850668066
 49
-1512.01737614076
 53
285.109
 43
43319.69776050275
 44
5120.7837060686
 45
0.0000003601119824
 46
-133.8637863111869
 79
     2
 49
13.20944850668066
 49
-1512.01737614076
 53
276.7473999999999
 43
42956.3535030897
 44
5147.458193827096
 45
0.0000130021948056
 46
-133.8641044322109
 79
     2
 49
26.86118323298723
 49
-16553.23227874065
 53
276.7473999999999
 43
42996.10940600208
 44
5147.458193827096
 45
0.0000130021948056
 46
-133.8641044322109
 79
     2
 49
26.86118323298723
 49
-16553.23227874065
 53
276.7473999999999
 43
43035.86530891449
 44
5147.458193827096
 45
0.0000130021948056
 46
-133.8641044322109
 79
     2
 49
26.86118323298723
 49
-16553.23227874065
 53
276.7473999999999
 43
43075.62168778733
 44
5147.458193827096
 45
0.0000130021948056
 46
-133.8641044322109
 79
     2
 49
26.86118323298723
 49
-16553.23227874065
 53
276.7473999999999
 43
43115.37747170964
 44
5147.458193827096
 45
0.0000130021948056
 46
-133.8641044322109
 79
     2
 49
26.86118323298723
 49
-16553.23227874065
 53
276.7473999999999
 43
43155.13325563195
 44
5147.458193827096
 45
0.0000130021948056
 46
-133.8641044322109
 79
     2
 49
26.86118323298723
 49
-16553.23227874065
 53
276.7473999999999
 43
43194.88903955425
 44
5147.458193827096
 45
0.0000130021948056
 46
-133.8641044322109
 79
     2
 49
26.86118323298723
 49
-16553.23227874065
 53
276.7473999999999
 43
43234.64482347657
 44
5147.458193827096
 45
0.0000130021948056
 46
-133.8641044322109
 79
     2
 49
26.86118323298723
 49
-16553.23227874065
 53
276.7473999999999
 43
43274.40060739887
 44
5147.458193827096
 45
0.0000130021948056
 46
-133.8641044322109
 79
     2
 49
26.86118323298723
 49
-16553.23227874065
 53
276.7473999999999
 43
43314.15639132118
 44
5147.458193827096
 45
0.0000130021948056
 46
-133.8641044322109
 79
     2
 49
26.86118323298723
 49
-16553.23227874065
 53
276.7473999999999
 43
43353.91217524347
 44
5147.458193827096
 45
0.0000130021948056
 46
-133.8641044322109
 79
     2
 49
26.86118323298723
 49
-16553.23227874065
 53
276.7473999999999
 43
43393.66795916579
 44
5147.458193827096
 45
0.0000130021948056
 46
-133.8641044322109
 79
     2
 49
26.86118323298723
 49
-16553.23227874065
 53
276.7473999999999
 43
43433.42374308809
 44
5147.458193827096
 45
0.0000130021948056
 46
-133.8641044322109
 79
     2
 49
26.86118323298723
 49
-16553.23227874065
 53
276.7473999999999
 43
43473.17952701041
 44
5147.458193827096
 45
0.0000130021948056
 46
-133.8641044322109
 79
     2
 49
26.86118323298723
 49
-16553.23227874065
 53
276.7473999999999
 43
43512.93650083377
 44
5147.458193827096
 45
0.0000130021948056
 46
-133.8641044322109
 79
     2
 49
26.86118323298723
 49
-16553.23227874065
 53
276.7473999999999
 43
43552.69228475607
 44
5147.458193827096
 45
0.0000130021948056
 46
-133.8641044322109
 79
     2
 49
26.86118323298723
 49
-16553.23227874065
 53
276.7473999999999
 43
43592.44806867835
 44
5147.458193827096
 45
0.0000130021948056
 46
-133.8641044322109
 79
     2
 49
26.86118323298723
 49
-16553.23227874065
 53
276.7473999999999
 43
43632.20385260068
 44
5147.458193827096
 45
0.0000130021948056
 46
-133.8641044322109
 79
     2
 49
26.86118323298723
 49
-16553.23227874065
 53
276.7473999999999
 43
43671.95963652296
 44
5147.458193827096
 45
0.0000130021948056
 46
-133.8641044322109
 79
     2
 49
26.86118323298723
 49
-16553.23227874065
 53
276.7473999999999
 43
43711.71542044529
 44
5147.458193827096
 45
0.0000130021948056
 46
-133.8641044322109
 79
     2
 49
26.86118323298723
 49
-16553.23227874065
 53
276.7473999999999
 43
43751.4712043676
 44
5147.458193827096
 45
0.0000130021948056
 46
-133.8641044322109
 79
     2
 49
26.86118323298723
 49
-16553.23227874065
 53
276.7473999999999
 43
43791.2269882899
 44
5147.458193827096
 45
0.0000130021948056
 46
-133.8641044322109
 79
     2
 49
26.86118323298723
 49
-16553.23227874065
 53
276.7473999999999
 43
43830.98277221222
 44
5147.458193827096
 45
0.0000130021948056
 46
-133.8641044322109
 79
     2
 49
26.86118323298723
 49
-16553.23227874065
 53
276.7473999999999
 43
43870.73855613452
 44
5147.458193827096
 45
0.0000130021948056
 46
-133.8641044322109
 79
     2
 49
26.86118323298723
 49
-16553.23227874065
 53
276.7473999999999
 43
43910.49552995788
 44
5147.458193827096
 45
0.0000130021948056
 46
-133.8641044322109
 79
     2
 49
26.86118323298723
 49
-16553.23227874065
 53
276.7473999999999
 43
43950.25131388016
 44
5147.458193827096
 45
0.0000130021948056
 46
-133.8641044322109
 79
     2
 49
26.86118323298723
 49
-16553.23227874065
 53
276.7473999999999
 43
43990.0070978025
 44
5147.458193827096
 45
0.0000130021948056
 46
-133.8641044322109
 79
     2
 49
26.86118323298723
 49
-16553.23227874065
 53
276.7473999999999
 43
44029.76288172481
 44
5147.458193827096
 45
0.0000130021948056
 46
-133.8641044322109
 79
     2
 49
26.86118323298723
 49
-16553.23227874065
 53
276.7473999999999
 43
44069.5186656471
 44
5147.458193827096
 45
0.0000130021948056
 46
-133.8641044322109
 79
     2
 49
26.86118323298723
 49
-16553.23227874065
 53
276.7473999999999
 43
44109.27444956943
 44
5147.458193827096
 45
0.0000130021948056
 46
-133.8641044322109
 79
     2
 49
26.86118323298723
 49
-16553.23227874065
 53
276.7473999999999
 43
44149.02904359067
 44
5147.458193827096
 45
0.0000130021948056
 46
-133.8641044322109
 79
     2
 49
26.86118323298723
 49
-16553.23227874065
 53
276.7473999999999
 43
44188.78363761193
 44
5147.458193827096
 45
0.0000130021948056
 46
-133.8641044322109
 79
     2
 49
26.86118323298723
 49
-16553.23227874065
 53
276.7473999999999
 43
44228.53823163318
 44
5147.458193827096
 45
0.0000130021948056
 46
-133.8641044322109
 79
     2
 49
26.86118323298723
 49
-16553.23227874065
 53
276.7473999999999
 43
44268.29282565442
 44
5147.458193827096
 45
0.0000130021948056
 46
-133.8641044322109
 79
     2
 49
26.86118323298723
 49
-16553.23227874065
 53
276.7473999999999
 43
44308.0593186862
 44
5147.458193827096
 45
0.0000130021948056
 46
-133.8641044322109
 79
     2
 49
26.86118323298723
 49
-16553.23227874065
 53
276.7473999999999
 43
44347.81391270745
 44
5147.458193827096
 45
0.0000130021948056
 46
-133.8641044322109
 79
     2
 49
26.86118323298723
 49
-16553.23227874065
 53
276.7473999999999
 43
44387.56850672869
 44
5147.458193827096
 45
0.0000130021948056
 46
-133.8641044322109
 79
     2
 49
26.86118323298723
 49
-16553.23227874065
 53
276.7473999999999
 43
44427.32310074996
 44
5147.458193827096
 45
0.0000130021948056
 46
-133.8641044322109
 79
     2
 49
26.86118323298723
 49
-16553.23227874065
 53
276.7473999999999
 43
44467.07769477121
 44
5147.458193827096
 45
0.0000130021948056
 46
-133.8641044322109
 79
     2
 49
26.86118323298723
 49
-16553.23227874065
 53
276.7473999999999
 43
44506.83228879248
 44
5147.458193827096
 45
0.0000130021948056
 46
-133.8641044322109
 79
     2
 49
26.86118323298723
 49
-16553.23227874065
 53
276.7473999999999
 43
44546.58688281373
 44
5147.458193827096
 45
0.0000130021948056
 46
-133.8641044322109
 79
     2
 49
26.86118323298723
 49
-16553.23227874065
 53
276.7473999999999
 43
44586.341476835
 44
5147.458193827096
 45
0.0000130021948056
 46
-133.8641044322109
 79
     2
 49
26.86118323298723
 49
-16553.23227874065
 53
276.7473999999999
 43
44626.09607085624
 44
5147.458193827096
 45
0.0000130021948056
 46
-133.8641044322109
 79
     2
 49
26.86118323298723
 49
-16553.23227874065
 53
276.7473999999999
 43
44665.86256388798
 44
5147.458193827096
 45
0.0000130021948056
 46
-133.8641044322109
 79
     2
 49
26.86118323298723
 49
-16553.23227874065
 53
276.7473999999999
 43
44705.61715790926
 44
5147.458193827096
 45
0.0000130021948056
 46
-133.8641044322109
 79
     2
 49
26.86118323298723
 49
-16553.23227874065
 53
276.7473999999999
 43
44745.37175193051
 44
5147.458193827096
 45
0.0000130021948056
 46
-133.8641044322109
 79
     2
 49
26.86118323298723
 49
-16553.23227874065
 53
276.7473999999999
 43
44785.12634595177
 44
5147.458193827096
 45
0.0000130021948056
 46
-133.8641044322109
 79
     2
 49
26.86118323298723
 49
-16553.23227874065
 53
276.7473999999999
 43
44824.88093997302
 44
5147.458193827096
 45
0.0000130021948056
 46
-133.8641044322109
 79
     2
 49
26.86118323298723
 49
-16553.23227874065
 53
276.7473999999999
 43
44864.6355339943
 44
5147.458193827096
 45
0.0000130021948056
 46
-133.8641044322109
 79
     2
 49
26.86118323298723
 49
-16553.23227874065
 53
276.1416
 43
42941.35936364728
 44
5204.586176083227
 45
-0.0001295516809004
 46
-133.8635115469746
 79
     2
 49
29.25978576600293
 49
-9260.667043026341
 53
276.1416
 43
42981.11522491319
 44
5204.586176083227
 45
-0.0001295516809004
 46
-133.8635115469746
 79
     2
 49
29.25978576600293
 49
-9260.667043026341
 53
276.1416
 43
43020.87112782559
 44
5204.586176083227
 45
-0.0001295516809004
 46
-133.8635115469746
 79
     2
 49
29.25978576600293
 49
-9260.667043026341
 53
276.1416
 43
43060.62655477759
 44
5204.586176083227
 45
-0.0001295516809004
 46
-133.8635115469746
 79
     2
 49
29.25978576600293
 49
-9260.667043026341
 53
276.1416
 43
43100.38352860095
 44
5204.586176083227
 45
-0.0001295516809004
 46
-133.8635115469746
 79
     2
 49
29.25978576600293
 49
-9260.667043026341
 53
276.1416
 43
43140.13931252323
 44
5204.586176083227
 45
-0.0001295516809004
 46
-133.8635115469746
 79
     2
 49
29.25978576600293
 49
-9260.667043026341
 53
276.1416
 43
43179.89509644553
 44
5204.586176083227
 45
-0.0001295516809004
 46
-133.8635115469746
 79
     2
 49
29.25978576600293
 49
-9260.667043026341
 53
276.1416
 43
43219.65088036786
 44
5204.586176083227
 45
-0.0001295516809004
 46
-133.8635115469746
 79
     2
 49
29.25978576600293
 49
-9260.667043026341
 53
276.1416
 43
43259.40666429014
 44
5204.586176083227
 45
-0.0001295516809004
 46
-133.8635115469746
 79
     2
 49
29.25978576600293
 49
-9260.667043026341
 53
276.1416
 43
43299.16244821247
 44
5204.586176083227
 45
-0.0001295516809004
 46
-133.8635115469746
 79
     2
 49
29.25978576600293
 49
-9260.667043026341
 53
276.1416
 43
43338.91823213478
 44
5204.586176083227
 45
-0.0001295516809004
 46
-133.8635115469746
 79
     2
 49
29.25978576600293
 49
-9260.667043026341
 53
276.1416
 43
43378.67401605708
 44
5204.586176083227
 45
-0.0001295516809004
 46
-133.8635115469746
 79
     2
 49
29.25978576600293
 49
-9260.667043026341
 53
276.1416
 43
43418.4297999794
 44
5204.586176083227
 45
-0.0001295516809004
 46
-133.8635115469746
 79
     2
 49
29.25978576600293
 49
-9260.667043026341
 53
276.1416
 43
43458.18558390168
 44
5204.586176083227
 45
-0.0001295516809004
 46
-133.8635115469746
 79
     2
 49
29.25978576600293
 49
-9260.667043026341
 53
276.1416
 43
43497.941367824
 44
5204.586176083227
 45
-0.0001295516809004
 46
-133.8635115469746
 79
     2
 49
29.25978576600293
 49
-9260.667043026341
 53
276.1416
 43
43537.69834164734
 44
5204.586176083227
 45
-0.0001295516809004
 46
-133.8635115469746
 79
     2
 49
29.25978576600293
 49
-9260.667043026341
 53
276.1416
 43
43577.45412556968
 44
5204.586176083227
 45
-0.0001295516809004
 46
-133.8635115469746
 79
     2
 49
29.25978576600293
 49
-9260.667043026341
 53
276.1416
 43
43617.20990949196
 44
5204.586176083227
 45
-0.0001295516809004
 46
-133.8635115469746
 79
     2
 49
29.25978576600293
 49
-9260.667043026341
 53
276.1416
 43
43656.96569341427
 44
5204.586176083227
 45
-0.0001295516809004
 46
-133.8635115469746
 79
     2
 49
29.25978576600293
 49
-9260.667043026341
 53
276.1416
 43
43696.72147733661
 44
5204.586176083227
 45
-0.0001295516809004
 46
-133.8635115469746
 79
     2
 49
29.25978576600293
 49
-9260.667043026341
 53
276.1416
 43
43736.47726125888
 44
5204.586176083227
 45
-0.0001295516809004
 46
-133.8635115469746
 79
     2
 49
29.25978576600293
 49
-9260.667043026341
 53
276.1416
 43
43776.23304518118
 44
5204.586176083227
 45
-0.0001295516809004
 46
-133.8635115469746
 79
     2
 49
29.25978576600293
 49
-9260.667043026341
 53
276.1416
 43
43815.98882910349
 44
5204.586176083227
 45
-0.0001295516809004
 46
-133.8635115469746
 79
     2
 49
29.25978576600293
 49
-9260.667043026341
 53
276.1416
 43
43855.74461302583
 44
5204.586176083227
 45
-0.0001295516809004
 46
-133.8635115469746
 79
     2
 49
29.25978576600293
 49
-9260.667043026341
 53
276.1416
 43
43895.50039694812
 44
5204.586176083227
 45
-0.0001295516809004
 46
-133.8635115469746
 79
     2
 49
29.25978576600293
 49
-9260.667043026341
 53
83.85800000000008
 43
42976.92034775775
 44
5175.494404345223
 45
39.7558606288076
 46
-0.0002485672396058
 79
     2
 49
29.25978576600241
 49
-9260.66704302619
 53
83.85800000000008
 43
42976.92034775775
 44
5041.630893390014
 45
39.7558606288076
 46
-0.0002485672396058
 79
     2
 49
29.25978576600241
 49
-9260.66704302619
 53
83.85800000000008
 43
42976.92034775775
 44
4907.76702546448
 45
39.7558606288076
 46
-0.0002485672396058
 79
     2
 49
29.25978576600241
 49
-9260.66704302619
 53
83.85800000000008
 43
42976.92034775775
 44
4773.90315753897
 45
39.7558606288076
 46
-0.0002485672396058
 79
     2
 49
29.25978576600241
 49
-9260.66704302619
 53
83.85800000000008
 43
42976.92034775775
 44
4640.039289613465
 45
39.7558606288076
 46
-0.0002485672396058
 79
     2
 49
29.25978576600241
 49
-9260.66704302619
 53
83.85800000000008
 43
42976.92034775775
 44
4506.17542168793
 45
39.7558606288076
 46
-0.0002485672396058
 79
     2
 49
29.25978576600241
 49
-9260.66704302619
 53
83.85800000000008
 43
42976.92034775775
 44
4372.311553762425
 45
39.7558606288076
 46
-0.0002485672396058
 79
     2
 49
29.25978576600241
 49
-9260.66704302619
 53
83.85800000000008
 43
42976.92034775775
 44
4238.447685836891
 45
39.7558606288076
 46
-0.0002485672396058
 79
     2
 49
29.25978576600241
 49
-9260.66704302619
 53
83.85800000000008
 43
42976.92034775775
 44
4104.583817911382
 45
39.7558606288076
 46
-0.0002485672396058
 79
     2
 49
29.25978576600241
 49
-9260.66704302619
 53
83.85800000000008
 43
42976.92034775775
 44
3970.714000480631
 45
39.7558606288076
 46
-0.0002485672396058
 79
     2
 49
29.25978576600241
 49
-9260.66704302619
 53
83.85800000000008
 43
42976.92034775775
 44
3836.850132555098
 45
39.7558606288076
 46
-0.0002485672396058
 79
     2
 49
29.25978576600241
 49
-9260.66704302619
 53
83.85800000000008
 43
42976.92034775775
 44
3702.986264629563
 45
39.7558606288076
 46
-0.0002485672396058
 79
     2
 49
29.25978576600241
 49
-9260.66704302619
 53
83.85800000000008
 43
42976.92034775775
 44
3569.122396704054
 45
39.7558606288076
 46
-0.0002485672396058
 79
     2
 49
29.25978576600241
 49
-9260.66704302619
 53
83.85800000000008
 43
42976.92034775775
 44
3435.258528778548
 45
39.7558606288076
 46
-0.0002485672396058
 79
     2
 49
29.25978576600241
 49
-9260.66704302619
 53
83.85800000000008
 43
42976.92034775775
 44
3301.394660853013
 45
39.7558606288076
 46
-0.0002485672396058
 79
     2
 49
29.25978576600241
 49
-9260.66704302619
 53
83.85800000000008
 43
42976.92034775775
 44
3167.530792927482
 45
39.7558606288076
 46
-0.0002485672396058
 79
     2
 49
29.25978576600241
 49
-9260.66704302619
 53
83.85800000000008
 43
42976.92034775775
 44
3033.666925001973
 45
39.7558606288076
 46
-0.0002485672396058
 79
     2
 49
29.25978576600241
 49
-9260.66704302619
 53
83.85800000000008
 43
42976.92034775775
 44
2899.803057076464
 45
39.7558606288076
 46
-0.0002485672396058
 79
     2
 49
29.25978576600241
 49
-9260.66704302619
 53
83.85800000000008
 43
42976.92034775775
 44
2765.939189150959
 45
39.7558606288076
 46
-0.0002485672396058
 79
     2
 49
29.25978576600241
 49
-9260.66704302619
 53
83.85800000000008
 43
42976.92034775775
 44
2632.075321225424
 45
39.7558606288076
 46
-0.0002485672396058
 79
     2
 49
29.25978576600241
 49
-9260.66704302619
 53
83.85800000000008
 43
42976.92034775775
 44
2498.21145329989
 45
39.7558606288076
 46
-0.0002485672396058
 79
     2
 49
29.25978576600241
 49
-9260.66704302619
 53
83.85800000000008
 43
42976.92034775775
 44
2364.347585374384
 45
39.7558606288076
 46
-0.0002485672396058
 79
     2
 49
29.25978576600241
 49
-9260.66704302619
 53
83.85800000000008
 43
42976.92034775775
 44
2230.483717448875
 45
39.7558606288076
 46
-0.0002485672396058
 79
     2
 49
29.25978576600241
 49
-9260.66704302619
 53
83.85800000000008
 43
42976.92034775775
 44
2096.619849523341
 45
39.7558606288076
 46
-0.0002485672396058
 79
     2
 49
29.25978576600241
 49
-9260.66704302619
 53
83.85800000000008
 43
42976.92034775775
 44
1962.755981597805
 45
39.7558606288076
 46
-0.0002485672396058
 79
     2
 49
29.25978576600241
 49
-9260.66704302619
 53
83.85800000000008
 43
42976.92034775775
 44
1828.8921136723
 45
39.7558606288076
 46
-0.0002485672396058
 79
     2
 49
29.25978576600241
 49
-9260.66704302619
 53
83.85800000000008
 43
42976.92034775775
 44
1695.028245746765
 45
39.7558606288076
 46
-0.0002485672396058
 79
     2
 49
29.25978576600241
 49
-9260.66704302619
 53
83.85800000000008
 43
42976.92034775775
 44
1561.16437782126
 45
39.7558606288076
 46
-0.0002485672396058
 79
     2
 49
29.25978576600241
 49
-9260.66704302619
 53
83.85800000000008
 43
42976.92034775775
 44
1427.300509895725
 45
39.7558606288076
 46
-0.0002485672396058
 79
     2
 49
29.25978576600241
 49
-9260.66704302619
 53
83.85800000000008
 43
42976.92034775775
 44
1293.43664197022
 45
39.7558606288076
 46
-0.0002485672396058
 79
     2
 49
29.25978576600241
 49
-9260.66704302619
 53
83.85800000000008
 43
42976.92034775775
 44
1159.572774044711
 45
39.7558606288076
 46
-0.0002485672396058
 79
     2
 49
29.25978576600241
 49
-9260.66704302619
 53
83.85800000000008
 43
42976.92034775775
 44
1025.708906119176
 45
39.7558606288076
 46
-0.0002485672396058
 79
     2
 49
29.25978576600241
 49
-9260.66704302619
 53
83.85800000000008
 43
42976.92034775775
 44
891.8450381936418
 45
39.7558606288076
 46
-0.0002485672396058
 79
     2
 49
29.25978576600241
 49
-9260.66704302619
 53
83.85800000000008
 43
42976.92034775775
 44
757.9811702681363
 45
39.7558606288076
 46
-0.0002485672396058
 79
     2
 49
29.25978576600241
 49
-9260.66704302619
 53
83.85800000000008
 43
42976.92034775775
 44
624.1173023426272
 45
39.7558606288076
 46
-0.0002485672396058
 79
     2
 49
29.25978576600241
 49
-9260.66704302619
 53
83.85800000000008
 43
42976.92034775775
 44
490.2534344170963
 45
39.7558606288076
 46
-0.0002485672396058
 79
     2
 49
29.25978576600241
 49
-9260.66704302619
 53
83.85800000000008
 43
42976.92034775775
 44
356.3895664915872
 45
39.7558606288076
 46
-0.0002485672396058
 79
     2
 49
29.25978576600241
 49
-9260.66704302619
 53
83.85800000000008
 43
42976.92034775775
 44
222.5256985660526
 45
39.7558606288076
 46
-0.0002485672396058
 79
     2
 49
29.25978576600241
 49
-9260.66704302619
 53
83.85800000000008
 43
42976.92034775775
 44
88.66183064054348
 45
39.7558606288076
 46
-0.0002485672396058
 79
     2
 49
29.25978576600241
 49
-9260.66704302619
 53
83.85800000000008
 43
42976.92034775775
 44
-45.20203728496198
 45
39.7558606288076
 46
-0.0002485672396058
 79
     2
 49
29.25978576600241
 49
-9260.66704302619
 53
83.85800000000008
 43
42976.92034775775
 44
-179.0659052104965
 45
39.7558606288076
 46
-0.0002485672396058
 79
     2
 49
29.25978576600241
 49
-9260.66704302619
 53
83.85800000000008
 43
42976.92034775775
 44
-312.9297731360275
 45
39.7558606288076
 46
-0.0002485672396058
 79
     2
 49
29.25978576600241
 49
-9260.66704302619
 53
83.85800000000008
 43
42976.92034775775
 44
-446.7936410615366
 45
39.7558606288076
 46
-0.0002485672396058
 79
     2
 49
29.25978576600241
 49
-9260.66704302619
 53
83.85800000000008
 43
42976.92034775775
 44
-580.657508987042
 45
39.7558606288076
 46
-0.0002485672396058
 79
     2
 49
29.25978576600241
 49
-9260.66704302619
 53
83.85800000000008
 43
42976.92034775775
 44
-714.5213769125766
 45
39.7558606288076
 46
-0.0002485672396058
 79
     2
 49
29.25978576600241
 49
-9260.66704302619
 53
83.85800000000008
 43
42976.92034775775
 44
-848.3852448381112
 45
39.7558606288076
 46
-0.0002485672396058
 79
     2
 49
29.25978576600241
 49
-9260.66704302619
 53
83.85800000000008
 43
42976.92034775775
 44
-982.2491127636203
 45
39.7558606288076
 46
-0.0002485672396058
 79
     2
 49
29.25978576600241
 49
-9260.66704302619
 53
83.85800000000008
 43
42976.92034775775
 44
-1116.112980689151
 45
39.7558606288076
 46
-0.0002485672396058
 79
     2
 49
29.25978576600241
 49
-9260.66704302619
 53
83.85800000000008
 43
42976.92034775775
 44
-1249.976848614635
 45
39.7558606288076
 46
-0.0002485672396058
 79
     2
 49
29.25978576600241
 49
-9260.66704302619
 53
83.85800000000008
 43
42976.92034775775
 44
-1383.840716540166
 45
39.7558606288076
 46
-0.0002485672396058
 79
     2
 49
29.25978576600241
 49
-9260.66704302619
 53
83.85800000000008
 43
42976.92034775775
 44
-1517.7045844657
 45
39.7558606288076
 46
-0.0002485672396058
 79
     2
 49
29.25978576600241
 49
-9260.66704302619
 53
83.85800000000008
 43
42976.92034775775
 44
-1651.568452391209
 45
39.7558606288076
 46
-0.0002485672396058
 79
     2
 49
29.25978576600241
 49
-9260.66704302619
 53
83.85800000000008
 43
42976.92034775775
 44
-1785.432320316744
 45
39.7558606288076
 46
-0.0002485672396058
 79
     2
 49
29.25978576600241
 49
-9260.66704302619
 53
83.85800000000008
 43
42976.92034775775
 44
-1919.296188242275
 45
39.7558606288076
 46
-0.0002485672396058
 79
     2
 49
29.25978576600241
 49
-9260.66704302619
 53
83.85800000000008
 43
42976.92034775775
 44
-2053.160056167784
 45
39.7558606288076
 46
-0.0002485672396058
 79
     2
 49
29.25978576600241
 49
-9260.66704302619
 53
83.85800000000008
 43
42976.92034775775
 44
-2187.02392409329
 45
39.7558606288076
 46
-0.0002485672396058
 79
     2
 49
29.25978576600241
 49
-9260.66704302619
 53
83.85800000000008
 43
42976.92034775775
 44
-2320.887792018824
 45
39.7558606288076
 46
-0.0002485672396058
 79
     2
 49
29.25978576600241
 49
-9260.66704302619
 53
83.85800000000008
 43
42976.92034775775
 44
-2454.751659944334
 45
39.7558606288076
 46
-0.0002485672396058
 79
     2
 49
29.25978576600241
 49
-9260.66704302619
 53
83.85800000000008
 43
42976.92034775775
 44
-2588.615527869868
 45
39.7558606288076
 46
-0.0002485672396058
 79
     2
 49
29.25978576600241
 49
-9260.66704302619
 53
83.85800000000008
 43
42976.92034775775
 44
-2722.479395795374
 45
39.7558606288076
 46
-0.0002485672396058
 79
     2
 49
29.25978576600241
 49
-9260.66704302619
 53
83.85800000000008
 43
42976.92034775775
 44
-2856.343263720883
 45
39.7558606288076
 46
-0.0002485672396058
 79
     2
 49
29.25978576600241
 49
-9260.66704302619
 53
83.85800000000008
 43
42976.92034775775
 44
-2990.207131646414
 45
39.7558606288076
 46
-0.0002485672396058
 79
     2
 49
29.25978576600241
 49
-9260.66704302619
 53
83.85800000000008
 43
42976.92034775775
 44
-3124.070999571948
 45
39.7558606288076
 46
-0.0002485672396058
 79
     2
 49
29.25978576600241
 49
-9260.66704302619
 53
83.85800000000008
 43
42976.92034775775
 44
-3257.934867497457
 45
39.7558606288076
 46
-0.0002485672396058
 79
     2
 49
29.25978576600241
 49
-9260.66704302619
 53
83.85800000000008
 43
42976.92034775775
 44
-3391.798735422963
 45
39.7558606288076
 46
-0.0002485672396058
 79
     2
 49
29.25978576600241
 49
-9260.66704302619
 53
83.85800000000008
 43
42976.92034775775
 44
-3525.662603348526
 45
39.7558606288076
 46
-0.0002485672396058
 79
     2
 49
29.25978576600241
 49
-9260.66704302619
 53
83.85800000000008
 43
42976.92034775775
 44
-3659.526471274032
 45
39.7558606288076
 46
-0.0002485672396058
 79
     2
 49
29.25978576600241
 49
-9260.66704302619
 53
83.85800000000008
 43
42976.92034775775
 44
-3793.390339199537
 45
39.7558606288076
 46
-0.0002485672396058
 79
     2
 49
29.25978576600241
 49
-9260.66704302619
 53
83.85800000000008
 43
42976.92034775775
 44
-3927.254207125047
 45
39.7558606288076
 46
-0.0002485672396058
 79
     2
 49
29.25978576600241
 49
-9260.66704302619
 53
83.25300000000003
 43
42961.89511025148
 44
5120.7837060686
 45
39.75591911914366
 46
0.0002898923439309
 79
     2
 49
26.86118323298722
 49
-16553.23227874064
 53
83.25300000000003
 43
42961.89511025148
 44
4986.92043309358
 45
39.75591911914366
 46
0.0002898923439309
 79
     2
 49
26.86118323298722
 49
-16553.23227874064
 53
83.25300000000003
 43
42961.89511025148
 44
4853.056565168074
 45
39.75591911914366
 46
0.0002898923439309
 79
     2
 49
26.86118323298722
 49
-16553.23227874064
 53
83.25300000000003
 43
42961.89511025148
 44
4719.192697242564
 45
39.75591911914366
 46
0.0002898923439309
 79
     2
 49
26.86118323298722
 49
-16553.23227874064
 53
83.25300000000003
 43
42961.89511025148
 44
4585.328829317059
 45
39.75591911914366
 46
0.0002898923439309
 79
     2
 49
26.86118323298722
 49
-16553.23227874064
 53
83.25300000000003
 43
42961.89511025148
 44
4451.464961391525
 45
39.75591911914366
 46
0.0002898923439309
 79
     2
 49
26.86118323298722
 49
-16553.23227874064
 53
83.25300000000003
 43
42961.89511025148
 44
4317.60109346599
 45
39.75591911914366
 46
0.0002898923439309
 79
     2
 49
26.86118323298722
 49
-16553.23227874064
 53
83.25300000000003
 43
42961.89511025148
 44
4183.737225540481
 45
39.75591911914366
 46
0.0002898923439309
 79
     2
 49
26.86118323298722
 49
-16553.23227874064
 53
83.25300000000003
 43
42961.89511025148
 44
4049.873357614949
 45
39.75591911914366
 46
0.0002898923439309
 79
     2
 49
26.86118323298722
 49
-16553.23227874064
 53
83.25300000000003
 43
42961.89511025148
 44
3916.014249293624
 45
39.75591911914366
 46
0.0002898923439309
 79
     2
 49
26.86118323298722
 49
-16553.23227874064
 53
83.25300000000003
 43
42961.89511025148
 44
3782.15038136812
 45
39.75591911914366
 46
0.0002898923439309
 79
     2
 49
26.86118323298722
 49
-16553.23227874064
 53
83.25300000000003
 43
42961.89511025148
 44
3648.286513442585
 45
39.75591911914366
 46
0.0002898923439309
 79
     2
 49
26.86118323298722
 49
-16553.23227874064
 53
83.25300000000003
 43
42961.89511025148
 44
3514.422645517079
 45
39.75591911914366
 46
0.0002898923439309
 79
     2
 49
26.86118323298722
 49
-16553.23227874064
 53
83.25300000000003
 43
42961.89511025148
 44
3380.558777591545
 45
39.75591911914366
 46
0.0002898923439309
 79
     2
 49
26.86118323298722
 49
-16553.23227874064
 53
83.25300000000003
 43
42961.89511025148
 44
3246.69490966601
 45
39.75591911914366
 46
0.0002898923439309
 79
     2
 49
26.86118323298722
 49
-16553.23227874064
 53
83.25300000000003
 43
42961.89511025148
 44
3112.831041740501
 45
39.75591911914366
 46
0.0002898923439309
 79
     2
 49
26.86118323298722
 49
-16553.23227874064
 53
83.25300000000003
 43
42961.89511025148
 44
2978.967173814996
 45
39.75591911914366
 46
0.0002898923439309
 79
     2
 49
26.86118323298722
 49
-16553.23227874064
 53
83.25300000000003
 43
42961.89511025148
 44
2845.103305889461
 45
39.75591911914366
 46
0.0002898923439309
 79
     2
 49
26.86118323298722
 49
-16553.23227874064
 53
83.25300000000003
 43
42961.89511025148
 44
2711.23943796393
 45
39.75591911914366
 46
0.0002898923439309
 79
     2
 49
26.86118323298722
 49
-16553.23227874064
 53
83.25300000000003
 43
42961.89511025148
 44
2577.375570038421
 45
39.75591911914366
 46
0.0002898923439309
 79
     2
 49
26.86118323298722
 49
-16553.23227874064
 53
83.25300000000003
 43
42961.89511025148
 44
2443.511702112912
 45
39.75591911914366
 46
0.0002898923439309
 79
     2
 49
26.86118323298722
 49
-16553.23227874064
 53
83.25300000000003
 43
42961.89511025148
 44
2309.647834187407
 45
39.75591911914366
 46
0.0002898923439309
 79
     2
 49
26.86118323298722
 49
-16553.23227874064
 53
83.25300000000003
 43
42961.89511025148
 44
2175.783966261872
 45
39.75591911914366
 46
0.0002898923439309
 79
     2
 49
26.86118323298722
 49
-16553.23227874064
 53
83.25300000000003
 43
42961.89511025148
 44
2041.920098336337
 45
39.75591911914366
 46
0.0002898923439309
 79
     2
 49
26.86118323298722
 49
-16553.23227874064
 53
83.25300000000003
 43
42961.89511025148
 44
1908.056230410831
 45
39.75591911914366
 46
0.0002898923439309
 79
     2
 49
26.86118323298722
 49
-16553.23227874064
 53
83.25300000000003
 43
42961.89511025148
 44
1774.192362485322
 45
39.75591911914366
 46
0.0002898923439309
 79
     2
 49
26.86118323298722
 49
-16553.23227874064
 53
83.25300000000003
 43
42961.89511025148
 44
1640.328494559788
 45
39.75591911914366
 46
0.0002898923439309
 79
     2
 49
26.86118323298722
 49
-16553.23227874064
 53
83.25300000000003
 43
42961.89511025148
 44
1506.464626634253
 45
39.75591911914366
 46
0.0002898923439309
 79
     2
 49
26.86118323298722
 49
-16553.23227874064
 53
83.25300000000003
 43
42961.89511025148
 44
1372.600758708748
 45
39.75591911914366
 46
0.0002898923439309
 79
     2
 49
26.86118323298722
 49
-16553.23227874064
 53
83.25300000000003
 43
42961.89511025148
 44
1238.736890783239
 45
39.75591911914366
 46
0.0002898923439309
 79
     2
 49
26.86118323298722
 49
-16553.23227874064
 53
83.25300000000003
 43
42961.89511025148
 44
1104.873022857708
 45
39.75591911914366
 46
0.0002898923439309
 79
     2
 49
26.86118323298722
 49
-16553.23227874064
 53
83.25300000000003
 43
42961.89511025148
 44
971.0091549321733
 45
39.75591911914366
 46
0.0002898923439309
 79
     2
 49
26.86118323298722
 49
-16553.23227874064
 53
83.25300000000003
 43
42961.89511025148
 44
837.1452870066677
 45
39.75591911914366
 46
0.0002898923439309
 79
     2
 49
26.86118323298722
 49
-16553.23227874064
 53
83.25300000000003
 43
42961.89511025148
 44
703.2814190811587
 45
39.75591911914366
 46
0.0002898923439309
 79
     2
 49
26.86118323298722
 49
-16553.23227874064
 53
83.25300000000003
 43
42961.89511025148
 44
569.4175511556495
 45
39.75591911914366
 46
0.0002898923439309
 79
     2
 49
26.86118323298722
 49
-16553.23227874064
 53
83.25300000000003
 43
42961.89511025148
 44
435.5536832301149
 45
39.75591911914366
 46
0.0002898923439309
 79
     2
 49
26.86118323298722
 49
-16553.23227874064
 53
83.25300000000003
 43
42961.89511025148
 44
301.689815304584
 45
39.75591911914366
 46
0.0002898923439309
 79
     2
 49
26.86118323298722
 49
-16553.23227874064
 53
83.25300000000003
 43
42961.89511025148
 44
167.8259473790749
 45
39.75591911914366
 46
0.0002898923439309
 79
     2
 49
26.86118323298722
 49
-16553.23227874064
 53
83.25300000000003
 43
42961.89511025148
 44
33.962079453544
 45
39.75591911914366
 46
0.0002898923439309
 79
     2
 49
26.86118323298722
 49
-16553.23227874064
 53
83.25300000000003
 43
42961.89511025148
 44
-99.90178847196512
 45
39.75591911914366
 46
0.0002898923439309
 79
     2
 49
26.86118323298722
 49
-16553.23227874064
 53
83.25300000000003
 43
42961.89511025148
 44
-233.7656563974997
 45
39.75591911914366
 46
0.0002898923439309
 79
     2
 49
26.86118323298722
 49
-16553.23227874064
 53
83.25300000000003
 43
42961.89511025148
 44
-367.6295243230088
 45
39.75591911914366
 46
0.0002898923439309
 79
     2
 49
26.86118323298722
 49
-16553.23227874064
 53
83.25300000000003
 43
42961.89511025148
 44
-501.4933922485142
 45
39.75591911914366
 46
0.0002898923439309
 79
     2
 49
26.86118323298722
 49
-16553.23227874064
 53
83.25300000000003
 43
42961.89511025148
 44
-635.3572601740488
 45
39.75591911914366
 46
0.0002898923439309
 79
     2
 49
26.86118323298722
 49
-16553.23227874064
 53
83.25300000000003
 43
42961.89511025148
 44
-769.2211280995798
 45
39.75591911914366
 46
0.0002898923439309
 79
     2
 49
26.86118323298722
 49
-16553.23227874064
 53
83.25300000000003
 43
42961.89511025148
 44
-903.0849960250888
 45
39.75591911914366
 46
0.0002898923439309
 79
     2
 49
26.86118323298722
 49
-16553.23227874064
 53
83.25300000000003
 43
42961.89511025148
 44
-1036.948863950594
 45
39.75591911914366
 46
0.0002898923439309
 79
     2
 49
26.86118323298722
 49
-16553.23227874064
 53
83.25300000000003
 43
42961.89511025148
 44
-1170.812731876129
 45
39.75591911914366
 46
0.0002898923439309
 79
     2
 49
26.86118323298722
 49
-16553.23227874064
 53
83.25300000000003
 43
42961.89511025148
 44
-1304.676599801663
 45
39.75591911914366
 46
0.0002898923439309
 79
     2
 49
26.86118323298722
 49
-16553.23227874064
 53
83.25300000000003
 43
42961.89511025148
 44
-1438.540467727172
 45
39.75591911914366
 46
0.0002898923439309
 79
     2
 49
26.86118323298722
 49
-16553.23227874064
 53
83.25300000000003
 43
42961.89511025148
 44
-1572.404335652678
 45
39.75591911914366
 46
0.0002898923439309
 79
     2
 49
26.86118323298722
 49
-16553.23227874064
 53
83.25300000000003
 43
42961.89511025148
 44
-1706.268203578187
 45
39.75591911914366
 46
0.0002898923439309
 79
     2
 49
26.86118323298722
 49
-16553.23227874064
 53
83.25300000000003
 43
42961.89511025148
 44
-1840.132071503718
 45
39.75591911914366
 46
0.0002898923439309
 79
     2
 49
26.86118323298722
 49
-16553.23227874064
 53
83.25300000000003
 43
42961.89511025148
 44
-1973.995939429252
 45
39.75591911914366
 46
0.0002898923439309
 79
     2
 49
26.86118323298722
 49
-16553.23227874064
 53
83.25300000000003
 43
42961.89511025148
 44
-2107.859807354762
 45
39.75591911914366
 46
0.0002898923439309
 79
     2
 49
26.86118323298722
 49
-16553.23227874064
 53
83.25300000000003
 43
42961.89511025148
 44
-2241.723675280271
 45
39.75591911914366
 46
0.0002898923439309
 79
     2
 49
26.86118323298722
 49
-16553.23227874064
 53
83.25300000000003
 43
42961.89511025148
 44
-2375.587543205828
 45
39.75591911914366
 46
0.0002898923439309
 79
     2
 49
26.86118323298722
 49
-16553.23227874064
 53
83.25300000000003
 43
42961.89511025148
 44
-2509.451411131337
 45
39.75591911914366
 46
0.0002898923439309
 79
     2
 49
26.86118323298722
 49
-16553.23227874064
 53
83.25300000000003
 43
42961.89511025148
 44
-2643.315279056842
 45
39.75591911914366
 46
0.0002898923439309
 79
     2
 49
26.86118323298722
 49
-16553.23227874064
 53
83.25300000000003
 43
42961.89511025148
 44
-2777.179146982351
 45
39.75591911914366
 46
0.0002898923439309
 79
     2
 49
26.86118323298722
 49
-16553.23227874064
 53
83.25300000000003
 43
42961.89511025148
 44
-2911.043014907886
 45
39.75591911914366
 46
0.0002898923439309
 79
     2
 49
26.86118323298722
 49
-16553.23227874064
 53
83.25300000000003
 43
42961.89511025148
 44
-3044.90688283342
 45
39.75591911914366
 46
0.0002898923439309
 79
     2
 49
26.86118323298722
 49
-16553.23227874064
 53
83.25300000000003
 43
42961.89511025148
 44
-3178.770750758926
 45
39.75591911914366
 46
0.0002898923439309
 79
     2
 49
26.86118323298722
 49
-16553.23227874064
 53
83.25300000000003
 43
42961.89511025148
 44
-3312.634618684435
 45
39.75591911914366
 46
0.0002898923439309
 79
     2
 49
26.86118323298722
 49
-16553.23227874064
 53
83.25300000000003
 43
42961.89511025148
 44
-3446.498486609966
 45
39.75591911914366
 46
0.0002898923439309
 79
     2
 49
26.86118323298722
 49
-16553.23227874064
 53
83.25300000000003
 43
42961.89511025148
 44
-3580.362354535475
 45
39.75591911914366
 46
0.0002898923439309
 79
     2
 49
26.86118323298722
 49
-16553.23227874064
 53
83.25300000000003
 43
42961.89511025148
 44
-3714.22622246101
 45
39.75591911914366
 46
0.0002898923439309
 79
     2
 49
26.86118323298722
 49
-16553.23227874064
 53
83.25300000000003
 43
42961.89511025148
 44
-3848.090090386515
 45
39.75591911914366
 46
0.0002898923439309
 79
     2
 49
26.86118323298722
 49
-16553.23227874064
 53
83.25300000000003
 43
42961.89511025148
 44
-3981.95395831205
 45
39.75591911914366
 46
0.0002898923439309
 79
     2
 49
26.86118323298722
 49
-16553.23227874064
 53
83.25300000000003
 43
42961.89511025148
 44
-4115.817826237559
 45
39.75591911914366
 46
0.0002898923439309
 79
     2
 49
26.86118323298722
 49
-16553.23227874064
 53
83.25300000000003
 43
42961.89511025148
 44
-4249.681694163089
 45
39.75591911914366
 46
0.0002898923439309
 79
     2
 49
26.86118323298722
 49
-16553.23227874064
 53
83.25300000000003
 43
42961.89511025148
 44
-4383.545562088598
 45
39.75591911914366
 46
0.0002898923439309
 79
     2
 49
26.86118323298722
 49
-16553.23227874064
 53
83.25300000000003
 43
42961.89511025148
 44
-4517.409430014133
 45
39.75591911914366
 46
0.0002898923439309
 79
     2
 49
26.86118323298722
 49
-16553.23227874064
 53
83.25300000000003
 43
42961.89511025148
 44
-4651.273297939638
 45
39.75591911914366
 46
0.0002898923439309
 79
     2
 49
26.86118323298722
 49
-16553.23227874064
 53
83.25300000000003
 43
42961.89511025148
 44
-4785.137165865146
 45
39.75591911914366
 46
0.0002898923439309
 79
     2
 49
26.86118323298722
 49
-16553.23227874064
 53
83.25300000000003
 43
42961.89511025148
 44
-4919.001033790681
 45
39.75591911914366
 46
0.0002898923439309
 79
     2
 49
26.86118323298722
 49
-16553.23227874064
 53
83.25300000000003
 43
42961.89511025148
 44
-5052.864901716188
 45
39.75591911914366
 46
0.0002898923439309
 79
     2
 49
26.86118323298722
 49
-16553.23227874064
 53
83.25300000000003
 43
42961.89511025148
 44
-5186.728769641723
 45
39.75591911914366
 46
0.0002898923439309
 79
     2
 49
26.86118323298722
 49
-16553.23227874064
 53
83.25300000000003
 43
42961.89511025148
 44
-5320.592637567255
 45
39.75591911914366
 46
0.0002898923439309
 79
     2
 49
26.86118323298722
 49
-16553.23227874064
 53
83.25300000000003
 43
42961.89511025148
 44
-5454.456505492762
 45
39.75591911914366
 46
0.0002898923439309
 79
     2
 49
26.86118323298722
 49
-16553.23227874064
 53
83.25300000000003
 43
42961.89511025148
 44
-5588.32037341827
 45
39.75591911914366
 46
0.0002898923439309
 79
     2
 49
26.86118323298722
 49
-16553.23227874064
 53
83.25300000000003
 43
42961.89511025148
 44
-5722.184241343804
 45
39.75591911914366
 46
0.0002898923439309
 79
     2
 49
26.86118323298722
 49
-16553.23227874064
 53
83.25300000000003
 43
42961.89511025148
 44
-5856.048109269337
 45
39.75591911914366
 46
0.0002898923439309
 79
     2
 49
26.86118323298722
 49
-16553.23227874064
 53
83.25300000000003
 43
42961.89511025148
 44
-5989.911977194847
 45
39.75591911914366
 46
0.0002898923439309
 79
     2
 49
26.86118323298722
 49
-16553.23227874064
 53
83.25300000000003
 43
42961.89511025148
 44
-6123.775845120352
 45
39.75591911914366
 46
0.0002898923439309
 79
     2
 49
26.86118323298722
 49
-16553.23227874064
 53
83.25300000000003
 43
42961.89511025148
 44
-6257.639713045886
 45
39.75591911914366
 46
0.0002898923439309
 79
     2
 49
26.86118323298722
 49
-16553.23227874064
 53
83.25300000000003
 43
42961.89511025148
 44
-6391.503580971393
 45
39.75591911914366
 46
0.0002898923439309
 79
     2
 49
26.86118323298722
 49
-16553.23227874064
 53
83.25300000000003
 43
42961.89511025148
 44
-6525.367448896928
 45
39.75591911914366
 46
0.0002898923439309
 79
     2
 49
26.86118323298722
 49
-16553.23227874064
 53
83.25300000000003
 43
42961.89511025148
 44
-6659.231316822435
 45
39.75591911914366
 46
0.0002898923439309
 79
     2
 49
26.86118323298722
 49
-16553.23227874064
 53
83.25300000000003
 43
42961.89511025148
 44
-6793.107083758434
 45
39.75591911914366
 46
0.0002898923439309
 79
     2
 49
26.86118323298722
 49
-16553.23227874064
 53
83.25300000000003
 43
42961.89511025148
 44
-6926.970951683967
 45
39.75591911914366
 46
0.0002898923439309
 79
     2
 49
26.86118323298722
 49
-16553.23227874064
 53
83.25300000000003
 43
42961.89511025148
 44
-7060.8348196095
 45
39.75591911914366
 46
0.0002898923439309
 79
     2
 49
26.86118323298722
 49
-16553.23227874064
 53
83.25300000000003
 43
42961.89511025148
 44
-7194.698687535009
 45
39.75591911914366
 46
0.0002898923439309
 79
     2
 49
26.86118323298722
 49
-16553.23227874064
 53
83.25300000000003
 43
42961.89511025148
 44
-7328.562555460516
 45
39.75591911914366
 46
0.0002898923439309
 79
     2
 49
26.86118323298722
 49
-16553.23227874064
 53
83.25300000000003
 43
42961.89511025148
 44
-7462.426423386048
 45
39.75591911914366
 46
0.0002898923439309
 79
     2
 49
26.86118323298722
 49
-16553.23227874064
 53
83.25300000000003
 43
42961.89511025148
 44
-7596.290291311582
 45
39.75591911914366
 46
0.0002898923439309
 79
     2
 49
26.86118323298722
 49
-16553.23227874064
 53
83.25300000000003
 43
42961.89511025148
 44
-7730.154159237091
 45
39.75591911914366
 46
0.0002898923439309
 79
     2
 49
26.86118323298722
 49
-16553.23227874064
 53
83.25300000000003
 43
42961.89511025148
 44
-7864.018027162598
 45
39.75591911914366
 46
0.0002898923439309
 79
     2
 49
26.86118323298722
 49
-16553.23227874064
 53
83.25300000000003
 43
42961.89511025148
 44
-7997.881895088106
 45
39.75591911914366
 46
0.0002898923439309
 79
     2
 49
26.86118323298722
 49
-16553.23227874064
 53
83.25300000000003
 43
42961.89511025148
 44
-8131.74576301364
 45
39.75591911914366
 46
0.0002898923439309
 79
     2
 49
26.86118323298722
 49
-16553.23227874064
 53
83.25300000000003
 43
42961.89511025148
 44
-8265.609630939172
 45
39.75591911914366
 46
0.0002898923439309
 79
     2
 49
26.86118323298722
 49
-16553.23227874064
 53
83.25300000000003
 43
42961.89511025148
 44
-8399.473498864679
 45
39.75591911914366
 46
0.0002898923439309
 79
     2
 49
26.86118323298722
 49
-16553.23227874064
 53
83.25300000000003
 43
42961.89511025148
 44
-8533.337366790187
 45
39.75591911914366
 46
0.0002898923439309
 79
     2
 49
26.86118323298722
 49
-16553.23227874064
 53
83.25300000000003
 43
42961.89511025148
 44
-8667.201234715722
 45
39.75591911914366
 46
0.0002898923439309
 79
     2
 49
26.86118323298722
 49
-16553.23227874064
 53
83.25300000000003
 43
42961.89511025148
 44
-8801.065102641256
 45
39.75591911914366
 46
0.0002898923439309
 79
     2
 49
26.86118323298722
 49
-16553.23227874064
 53
83.25300000000003
 43
42961.89511025148
 44
-8934.928970566762
 45
39.75591911914366
 46
0.0002898923439309
 79
     2
 49
26.86118323298722
 49
-16553.23227874064
 53
83.25300000000003
 43
42961.89511025148
 44
-9068.792838492271
 45
39.75591911914366
 46
0.0002898923439309
 79
     2
 49
26.86118323298722
 49
-16553.23227874064
 53
83.25300000000003
 43
42961.89511025148
 44
-9202.656706417803
 45
39.75591911914366
 46
0.0002898923439309
 79
     2
 49
26.86118323298722
 49
-16553.23227874064
 53
83.25300000000003
 43
42961.89511025148
 44
-9336.520574343337
 45
39.75591911914366
 46
0.0002898923439309
 79
     2
 49
26.86118323298722
 49
-16553.23227874064
 53
83.25300000000003
 43
42961.89511025148
 44
-9470.384442268844
 45
39.75591911914366
 46
0.0002898923439309
 79
     2
 49
26.86118323298722
 49
-16553.23227874064
 53
83.25300000000003
 43
42961.89511025148
 44
-9604.248310194353
 45
39.75591911914366
 46
0.0002898923439309
 79
     2
 49
26.86118323298722
 49
-16553.23227874064
 53
83.25300000000003
 43
42961.89511025148
 44
-9738.112178119886
 45
39.75591911914366
 46
0.0002898923439309
 79
     2
 49
26.86118323298722
 49
-16553.23227874064
 53
83.25300000000003
 43
42961.89511025148
 44
-9871.97604604542
 45
39.75591911914366
 46
0.0002898923439309
 79
     2
 49
26.86118323298722
 49
-16553.23227874064
 53
83.25300000000003
 43
42961.89511025148
 44
-10005.83991397093
 45
39.75591911914366
 46
0.0002898923439309
 79
     2
 49
26.86118323298722
 49
-16553.23227874064
 53
83.25300000000003
 43
42961.89511025148
 44
-10139.70378189643
 45
39.75591911914366
 46
0.0002898923439309
 79
     2
 49
26.86118323298722
 49
-16553.23227874064
 53
83.25300000000003
 43
42961.89511025148
 44
-10273.56764982197
 45
39.75591911914366
 46
0.0002898923439309
 79
     2
 49
26.86118323298722
 49
-16553.23227874064
 53
83.25300000000003
 43
42961.89511025148
 44
-10407.43151774747
 45
39.75591911914366
 46
0.0002898923439309
 79
     2
 49
26.86118323298722
 49
-16553.23227874064
 53
83.25300000000003
 43
42961.89511025148
 44
-10541.29538567301
 45
39.75591911914366
 46
0.0002898923439309
 79
     2
 49
26.86118323298722
 49
-16553.23227874064
 53
83.25300000000003
 43
42961.89511025148
 44
-10675.15925359852
 45
39.75591911914366
 46
0.0002898923439309
 79
     2
 49
26.86118323298722
 49
-16553.23227874064
 53
83.25300000000003
 43
42961.89511025148
 44
-10809.02312152402
 45
39.75591911914366
 46
0.0002898923439309
 79
     2
 49
26.86118323298722
 49
-16553.23227874064
 53
83.25300000000003
 43
42961.89511025148
 44
-10942.88698944956
 45
39.75591911914366
 46
0.0002898923439309
 79
     2
 49
26.86118323298722
 49
-16553.23227874064
 53
83.25300000000003
 43
42961.89511025148
 44
-11076.75085737509
 45
39.75591911914366
 46
0.0002898923439309
 79
     2
 49
26.86118323298722
 49
-16553.23227874064
 53
83.25300000000003
 43
42961.89511025148
 44
-11210.6147253006
 45
39.75591911914366
 46
0.0002898923439309
 79
     2
 49
26.86118323298722
 49
-16553.23227874064
 53
74.89100000000004
 43
42956.07459028396
 44
5108.029751683182
 45
39.75585674360782
 46
-0.0000110486508308
 79
     2
 49
13.20944850668065
 49
-1512.017376140759
 53
74.89100000000004
 43
42956.07459028396
 44
4974.165883757647
 45
39.75585674360782
 46
-0.0000110486508308
 79
     2
 49
13.20944850668065
 49
-1512.017376140759
 53
74.89100000000004
 43
42956.07459028396
 44
4840.302015832138
 45
39.75585674360782
 46
-0.0000110486508308
 79
     2
 49
13.20944850668065
 49
-1512.017376140759
 53
74.89100000000004
 43
42956.07459028396
 44
4706.438147906603
 45
39.75585674360782
 46
-0.0000110486508308
 79
     2
 49
13.20944850668065
 49
-1512.017376140759
 53
74.89100000000004
 43
42956.07459028396
 44
4572.574279981098
 45
39.75585674360782
 46
-0.0000110486508308
 79
     2
 49
13.20944850668065
 49
-1512.017376140759
 53
74.89100000000004
 43
42956.07459028396
 44
4438.710412055563
 45
39.75585674360782
 46
-0.0000110486508308
 79
     2
 49
13.20944850668065
 49
-1512.017376140759
 53
74.89100000000004
 43
42956.07459028396
 44
4304.846544130057
 45
39.75585674360782
 46
-0.0000110486508308
 79
     2
 49
13.20944850668065
 49
-1512.017376140759
 53
74.89100000000004
 43
42956.07459028396
 44
4170.982676204523
 45
39.75585674360782
 46
-0.0000110486508308
 79
     2
 49
13.20944850668065
 49
-1512.017376140759
 53
74.89100000000004
 43
42956.07459028396
 44
4037.122377982167
 45
39.75585674360782
 46
-0.0000110486508308
 79
     2
 49
13.20944850668065
 49
-1512.017376140759
 53
74.89100000000004
 43
42956.07459028396
 44
3903.258510056632
 45
39.75585674360782
 46
-0.0000110486508308
 79
     2
 49
13.20944850668065
 49
-1512.017376140759
 53
74.89100000000004
 43
42956.07459028396
 44
3769.394642131101
 45
39.75585674360782
 46
-0.0000110486508308
 79
     2
 49
13.20944850668065
 49
-1512.017376140759
 53
67.06200000000002
 43
42965.05703430693
 44
5147.458193827096
 45
39.75591328370574
 46
0.0002941157301779
 79
     2
 49
30.44290437825485
 49
-5783.884461102885
 53
67.06200000000002
 43
42965.05703430693
 44
5013.5944448917
 45
39.75591328370574
 46
0.0002941157301779
 79
     2
 49
30.44290437825485
 49
-5783.884461102885
 53
67.06200000000002
 43
42965.05703430693
 44
4879.730576966191
 45
39.75591328370574
 46
0.0002941157301779
 79
     2
 49
30.44290437825485
 49
-5783.884461102885
 53
67.06200000000002
 43
42965.05703430693
 44
4745.866709040656
 45
39.75591328370574
 46
0.0002941157301779
 79
     2
 49
30.44290437825485
 49
-5783.884461102885
 53
67.06200000000002
 43
42965.05703430693
 44
4612.002841115121
 45
39.75591328370574
 46
0.0002941157301779
 79
     2
 49
30.44290437825485
 49
-5783.884461102885
 53
67.06200000000002
 43
42965.05703430693
 44
4478.138973189616
 45
39.75591328370574
 46
0.0002941157301779
 79
     2
 49
30.44290437825485
 49
-5783.884461102885
 53
67.06200000000002
 43
42965.05703430693
 44
4344.27510526411
 45
39.75591328370574
 46
0.0002941157301779
 79
     2
 49
30.44290437825485
 49
-5783.884461102885
 53
67.06200000000002
 43
42965.05703430693
 44
4210.411237338572
 45
39.75591328370574
 46
0.0002941157301779
 79
     2
 49
30.44290437825485
 49
-5783.884461102885
 53
67.06200000000002
 43
42965.05703430693
 44
4076.547369413066
 45
39.75591328370574
 46
0.0002941157301779
 79
     2
 49
30.44290437825485
 49
-5783.884461102885
 53
67.06200000000002
 43
42965.05703430693
 44
3942.679931784379
 45
39.75591328370574
 46
0.0002941157301779
 79
     2
 49
30.44290437825485
 49
-5783.884461102885
 53
67.06200000000002
 43
42965.05703430693
 44
3808.816063858875
 45
39.75591328370574
 46
0.0002941157301779
 79
     2
 49
30.44290437825485
 49
-5783.884461102885
 53
67.06200000000002
 43
42965.05703430693
 44
3674.95219593334
 45
39.75591328370574
 46
0.0002941157301779
 79
     2
 49
30.44290437825485
 49
-5783.884461102885
 53
67.06200000000002
 43
42965.05703430693
 44
3541.088328007834
 45
39.75591328370574
 46
0.0002941157301779
 79
     2
 49
30.44290437825485
 49
-5783.884461102885
 53
67.06200000000002
 43
42965.05703430693
 44
3407.224460082325
 45
39.75591328370574
 46
0.0002941157301779
 79
     2
 49
30.44290437825485
 49
-5783.884461102885
 53
67.06200000000002
 43
42965.05703430693
 44
3273.360592156791
 45
39.75591328370574
 46
0.0002941157301779
 79
     2
 49
30.44290437825485
 49
-5783.884461102885
 53
67.06200000000002
 43
42965.05703430693
 44
3139.496724231282
 45
39.75591328370574
 46
0.0002941157301779
 79
     2
 49
30.44290437825485
 49
-5783.884461102885
 53
67.06200000000002
 43
42965.05703430693
 44
3005.632856305751
 45
39.75591328370574
 46
0.0002941157301779
 79
     2
 49
30.44290437825485
 49
-5783.884461102885
 53
67.06200000000002
 43
42965.05703430693
 44
2871.768988380216
 45
39.75591328370574
 46
0.0002941157301779
 79
     2
 49
30.44290437825485
 49
-5783.884461102885
 53
67.06200000000002
 43
42965.05703430693
 44
2737.905120454711
 45
39.75591328370574
 46
0.0002941157301779
 79
     2
 49
30.44290437825485
 49
-5783.884461102885
 53
67.06200000000002
 43
42965.05703430693
 44
2604.041252529202
 45
39.75591328370574
 46
0.0002941157301779
 79
     2
 49
30.44290437825485
 49
-5783.884461102885
 53
67.06200000000002
 43
42965.05703430693
 44
2470.177384603667
 45
39.75591328370574
 46
0.0002941157301779
 79
     2
 49
30.44290437825485
 49
-5783.884461102885
 53
67.06200000000002
 43
42965.05703430693
 44
2336.313516678132
 45
39.75591328370574
 46
0.0002941157301779
 79
     2
 49
30.44290437825485
 49
-5783.884461102885
 53
67.06200000000002
 43
42965.05703430693
 44
2202.449648752627
 45
39.75591328370574
 46
0.0002941157301779
 79
     2
 49
30.44290437825485
 49
-5783.884461102885
 53
67.06200000000002
 43
42965.05703430693
 44
2068.585780827118
 45
39.75591328370574
 46
0.0002941157301779
 79
     2
 49
30.44290437825485
 49
-5783.884461102885
 53
67.06200000000002
 43
42965.05703430693
 44
1934.721912901612
 45
39.75591328370574
 46
0.0002941157301779
 79
     2
 49
30.44290437825485
 49
-5783.884461102885
 53
67.06200000000002
 43
42965.05703430693
 44
1800.858044976077
 45
39.75591328370574
 46
0.0002941157301779
 79
     2
 49
30.44290437825485
 49
-5783.884461102885
 53
67.06200000000002
 43
42965.05703430693
 44
1666.994177050546
 45
39.75591328370574
 46
0.0002941157301779
 79
     2
 49
30.44290437825485
 49
-5783.884461102885
 53
67.06200000000002
 43
42965.05703430693
 44
1533.130309125037
 45
39.75591328370574
 46
0.0002941157301779
 79
     2
 49
30.44290437825485
 49
-5783.884461102885
 53
67.06200000000002
 43
42965.05703430693
 44
1399.266441199528
 45
39.75591328370574
 46
0.0002941157301779
 79
     2
 49
30.44290437825485
 49
-5783.884461102885
 53
67.06200000000002
 43
42965.05703430693
 44
1265.402573273994
 45
39.75591328370574
 46
0.0002941157301779
 79
     2
 49
30.44290437825485
 49
-5783.884461102885
 53
67.06200000000002
 43
42965.05703430693
 44
1131.538705348459
 45
39.75591328370574
 46
0.0002941157301779
 79
     2
 49
30.44290437825485
 49
-5783.884461102885
 53
67.06200000000002
 43
42965.05703430693
 44
997.6748374229536
 45
39.75591328370574
 46
0.0002941157301779
 79
     2
 49
30.44290437825485
 49
-5783.884461102885
 53
67.06200000000002
 43
42965.05703430693
 44
863.8109694974483
 45
39.75591328370574
 46
0.0002941157301779
 79
     2
 49
30.44290437825485
 49
-5783.884461102885
 53
67.06200000000002
 43
42965.05703430693
 44
729.9471015719136
 45
39.75591328370574
 46
0.0002941157301779
 79
     2
 49
30.44290437825485
 49
-5783.884461102885
 53
67.06200000000002
 43
42965.05703430693
 44
596.083233646379
 45
39.75591328370574
 46
0.0002941157301779
 79
     2
 49
30.44290437825485
 49
-5783.884461102885
 53
67.06200000000002
 43
42965.05703430693
 44
462.21936572087
 45
39.75591328370574
 46
0.0002941157301779
 79
     2
 49
30.44290437825485
 49
-5783.884461102885
 53
67.06200000000002
 43
42965.05703430693
 44
328.3554977953645
 45
39.75591328370574
 46
0.0002941157301779
 79
     2
 49
30.44290437825485
 49
-5783.884461102885
 53
67.06200000000002
 43
42965.05703430693
 44
194.4916298698554
 45
39.75591328370574
 46
0.0002941157301779
 79
     2
 49
30.44290437825485
 49
-5783.884461102885
 53
67.06200000000002
 43
42965.05703430693
 44
60.62776194432444
 45
39.75591328370574
 46
0.0002941157301779
 79
     2
 49
30.44290437825485
 49
-5783.884461102885
 53
67.06200000000002
 43
42965.05703430693
 44
-73.23610598121013
 45
39.75591328370574
 46
0.0002941157301779
 79
     2
 49
30.44290437825485
 49
-5783.884461102885
 53
52.43499999999998
 43
42941.35936364728
 44
5204.586176083227
 45
39.75587516365481
 46
-0.0001991838662986
 79
     2
 49
16.34697959064519
 49
-6569.897158549879
 53
52.43499999999998
 43
42941.35936364728
 44
5070.722784118126
 45
39.75587516365481
 46
-0.0001991838662986
 79
     2
 49
16.34697959064519
 49
-6569.897158549879
 53
52.43499999999998
 43
42941.35936364728
 44
4936.858916192591
 45
39.75587516365481
 46
-0.0001991838662986
 79
     2
 49
16.34697959064519
 49
-6569.897158549879
 53
52.43499999999998
 43
42941.35936364728
 44
4802.995048267058
 45
39.75587516365481
 46
-0.0001991838662986
 79
     2
 49
16.34697959064519
 49
-6569.897158549879
 53
52.43499999999998
 43
42941.35936364728
 44
4669.131180341552
 45
39.75587516365481
 46
-0.0001991838662986
 79
     2
 49
16.34697959064519
 49
-6569.897158549879
 53
52.43499999999998
 43
42941.35936364728
 44
4535.267312416043
 45
39.75587516365481
 46
-0.0001991838662986
 79
     2
 49
16.34697959064519
 49
-6569.897158549879
 53
52.43499999999998
 43
42941.35936364728
 44
4401.403444490512
 45
39.75587516365481
 46
-0.0001991838662986
 79
     2
 49
16.34697959064519
 49
-6569.897158549879
 53
52.43499999999998
 43
42941.35936364728
 44
4267.539576565003
 45
39.75587516365481
 46
-0.0001991838662986
 79
     2
 49
16.34697959064519
 49
-6569.897158549879
 53
52.43499999999998
 43
42941.35936364728
 44
4133.675708639468
 45
39.75587516365481
 46
-0.0001991838662986
 79
     2
 49
16.34697959064519
 49
-6569.897158549879
 53
52.43499999999998
 43
42941.35936364728
 44
3999.80708110975
 45
39.75587516365481
 46
-0.0001991838662986
 79
     2
 49
16.34697959064519
 49
-6569.897158549879
 53
52.43499999999998
 43
42941.35936364728
 44
3865.943213184241
 45
39.75587516365481
 46
-0.0001991838662986
 79
     2
 49
16.34697959064519
 49
-6569.897158549879
 53
52.43499999999998
 43
42941.35936364728
 44
3732.079345258735
 45
39.75587516365481
 46
-0.0001991838662986
 79
     2
 49
16.34697959064519
 49
-6569.897158549879
 53
52.43499999999998
 43
42941.35936364728
 44
3598.215477333201
 45
39.75587516365481
 46
-0.0001991838662986
 79
     2
 49
16.34697959064519
 49
-6569.897158549879
 53
52.43499999999998
 43
42941.35936364728
 44
3464.351609407666
 45
39.75587516365481
 46
-0.0001991838662986
 79
     2
 49
16.34697959064519
 49
-6569.897158549879
 53
52.43499999999998
 43
42941.35936364728
 44
3330.487741482161
 45
39.75587516365481
 46
-0.0001991838662986
 79
     2
 49
16.34697959064519
 49
-6569.897158549879
 53
52.43499999999998
 43
42941.35936364728
 44
3196.623873556655
 45
39.75587516365481
 46
-0.0001991838662986
 79
     2
 49
16.34697959064519
 49
-6569.897158549879
 53
52.43499999999998
 43
42941.35936364728
 44
3062.76000563112
 45
39.75587516365481
 46
-0.0001991838662986
 79
     2
 49
16.34697959064519
 49
-6569.897158549879
 53
52.43499999999998
 43
42941.35936364728
 44
2928.896137705611
 45
39.75587516365481
 46
-0.0001991838662986
 79
     2
 49
16.34697959064519
 49
-6569.897158549879
 53
52.43499999999998
 43
42941.35936364728
 44
2795.032269780077
 45
39.75587516365481
 46
-0.0001991838662986
 79
     2
 49
16.34697959064519
 49
-6569.897158549879
 53
52.43499999999998
 43
42941.35936364728
 44
2661.168401854571
 45
39.75587516365481
 46
-0.0001991838662986
 79
     2
 49
16.34697959064519
 49
-6569.897158549879
 53
52.43499999999998
 43
42941.35936364728
 44
2527.304533929062
 45
39.75587516365481
 46
-0.0001991838662986
 79
     2
 49
16.34697959064519
 49
-6569.897158549879
 53
52.43499999999998
 43
42941.35936364728
 44
2393.440666003531
 45
39.75587516365481
 46
-0.0001991838662986
 79
     2
 49
16.34697959064519
 49
-6569.897158549879
 53
52.43499999999998
 43
42941.35936364728
 44
2259.576798077997
 45
39.75587516365481
 46
-0.0001991838662986
 79
     2
 49
16.34697959064519
 49
-6569.897158549879
 53
52.43499999999998
 43
42941.35936364728
 44
2125.712930152487
 45
39.75587516365481
 46
-0.0001991838662986
 79
     2
 49
16.34697959064519
 49
-6569.897158549879
 53
52.43499999999998
 43
42941.35936364728
 44
1991.849062226952
 45
39.75587516365481
 46
-0.0001991838662986
 79
     2
 49
16.34697959064519
 49
-6569.897158549879
 53
52.43499999999998
 43
42941.35936364728
 44
1857.985194301447
 45
39.75587516365481
 46
-0.0001991838662986
 79
     2
 49
16.34697959064519
 49
-6569.897158549879
 53
52.43499999999998
 43
42941.35936364728
 44
1724.121326375913
 45
39.75587516365481
 46
-0.0001991838662986
 79
     2
 49
16.34697959064519
 49
-6569.897158549879
 53
52.43499999999998
 43
42941.35936364728
 44
1590.257458450407
 45
39.75587516365481
 46
-0.0001991838662986
 79
     2
 49
16.34697959064519
 49
-6569.897158549879
 53
52.43499999999998
 43
42941.35936364728
 44
1456.393590524898
 45
39.75587516365481
 46
-0.0001991838662986
 79
     2
 49
16.34697959064519
 49
-6569.897158549879
 53
52.43499999999998
 43
42941.35936364728
 44
1322.529722599363
 45
39.75587516365481
 46
-0.0001991838662986
 79
     2
 49
16.34697959064519
 49
-6569.897158549879
 53
52.43499999999998
 43
42941.35936364728
 44
1188.665854673829
 45
39.75587516365481
 46
-0.0001991838662986
 79
     2
 49
16.34697959064519
 49
-6569.897158549879
 53
52.43499999999998
 43
42941.35936364728
 44
1054.801986748323
 45
39.75587516365481
 46
-0.0001991838662986
 79
     2
 49
16.34697959064519
 49
-6569.897158549879
 53
52.43499999999998
 43
42941.35936364728
 44
920.9381188228144
 45
39.75587516365481
 46
-0.0001991838662986
 79
     2
 49
16.34697959064519
 49
-6569.897158549879
 53
52.43499999999998
 43
42941.35936364728
 44
787.0742508972798
 45
39.75587516365481
 46
-0.0001991838662986
 79
     2
 49
16.34697959064519
 49
-6569.897158549879
 53
52.43499999999998
 43
42941.35936364728
 44
653.2103829717743
 45
39.75587516365481
 46
-0.0001991838662986
 79
     2
 49
16.34697959064519
 49
-6569.897158549879
 53
52.43499999999998
 43
42941.35936364728
 44
519.3465150462397
 45
39.75587516365481
 46
-0.0001991838662986
 79
     2
 49
16.34697959064519
 49
-6569.897158549879
 53
52.43499999999998
 43
42941.35936364728
 44
385.4826471207343
 45
39.75587516365481
 46
-0.0001991838662986
 79
     2
 49
16.34697959064519
 49
-6569.897158549879
 53
52.43499999999998
 43
42941.35936364728
 44
251.6187791951998
 45
39.75587516365481
 46
-0.0001991838662986
 79
     2
 49
16.34697959064519
 49
-6569.897158549879
 53
52.43499999999998
 43
42941.35936364728
 44
117.7549112696906
 45
39.75587516365481
 46
-0.0001991838662986
 79
     2
 49
16.34697959064519
 49
-6569.897158549879
 53
25.04599999999999
 43
42940.82731724209
 44
5100.905814107431
 45
39.75589259518684
 46
0.0003200987065788
 79
     2
 49
16.82972244591059
 49
-10734.28048182555
 53
25.04599999999999
 43
42940.82731724209
 44
4967.041946181925
 45
39.75589259518684
 46
0.0003200987065788
 79
     2
 49
16.82972244591059
 49
-10734.28048182555
 53
25.04599999999999
 43
42940.82731724209
 44
4833.178078256391
 45
39.75589259518684
 46
0.0003200987065788
 79
     2
 49
16.82972244591059
 49
-10734.28048182555
 53
25.04599999999999
 43
42940.82731724209
 44
4699.314210330881
 45
39.75589259518684
 46
0.0003200987065788
 79
     2
 49
16.82972244591059
 49
-10734.28048182555
 53
25.04599999999999
 43
42940.82731724209
 44
4565.450342405347
 45
39.75589259518684
 46
0.0003200987065788
 79
     2
 49
16.82972244591059
 49
-10734.28048182555
 53
25.04599999999999
 43
42940.82731724209
 44
4431.586474479838
 45
39.75589259518684
 46
0.0003200987065788
 79
     2
 49
16.82972244591059
 49
-10734.28048182555
 53
25.04599999999999
 43
42940.82731724209
 44
4297.722606554333
 45
39.75589259518684
 46
0.0003200987065788
 79
     2
 49
16.82972244591059
 49
-10734.28048182555
 53
25.04599999999999
 43
42940.82731724209
 44
4163.858738628798
 45
39.75589259518684
 46
0.0003200987065788
 79
     2
 49
16.82972244591059
 49
-10734.28048182555
 53
25.04599999999999
 43
42940.82731724209
 44
4029.994870703263
 45
39.75589259518684
 46
0.0003200987065788
 79
     2
 49
16.82972244591059
 49
-10734.28048182555
 53
25.04599999999999
 43
42940.82731724209
 44
3896.131002777758
 45
39.75589259518684
 46
0.0003200987065788
 79
     2
 49
16.82972244591059
 49
-10734.28048182555
 53
25.04599999999999
 43
42940.82731724209
 44
3762.267134852224
 45
39.75589259518684
 46
0.0003200987065788
 79
     2
 49
16.82972244591059
 49
-10734.28048182555
 53
25.04599999999999
 43
42940.82731724209
 44
3628.403266926715
 45
39.75589259518684
 46
0.0003200987065788
 79
     2
 49
16.82972244591059
 49
-10734.28048182555
 53
25.04599999999999
 43
42940.82731724209
 44
3494.539399001209
 45
39.75589259518684
 46
0.0003200987065788
 79
     2
 49
16.82972244591059
 49
-10734.28048182555
 53
25.04599999999999
 43
42940.82731724209
 44
3360.675531075675
 45
39.75589259518684
 46
0.0003200987065788
 79
     2
 49
16.82972244591059
 49
-10734.28048182555
 53
25.04599999999999
 43
42940.82731724209
 44
3226.811663150169
 45
39.75589259518684
 46
0.0003200987065788
 79
     2
 49
16.82972244591059
 49
-10734.28048182555
 53
25.04599999999999
 43
42940.82731724209
 44
3092.947795224635
 45
39.75589259518684
 46
0.0003200987065788
 79
     2
 49
16.82972244591059
 49
-10734.28048182555
 53
25.04599999999999
 43
42940.82731724209
 44
2959.0839272991
 45
39.75589259518684
 46
0.0003200987065788
 79
     2
 49
16.82972244591059
 49
-10734.28048182555
 53
25.04599999999999
 43
42940.82731724209
 44
2825.220059373591
 45
39.75589259518684
 46
0.0003200987065788
 79
     2
 49
16.82972244591059
 49
-10734.28048182555
 53
25.04599999999999
 43
42940.82731724209
 44
2691.356191448085
 45
39.75589259518684
 46
0.0003200987065788
 79
     2
 49
16.82972244591059
 49
-10734.28048182555
 53
25.04599999999999
 43
42940.82731724209
 44
2557.492323522551
 45
39.75589259518684
 46
0.0003200987065788
 79
     2
 49
16.82972244591059
 49
-10734.28048182555
 53
25.04599999999999
 43
42940.82731724209
 44
2423.628455597045
 45
39.75589259518684
 46
0.0003200987065788
 79
     2
 49
16.82972244591059
 49
-10734.28048182555
 53
25.04599999999999
 43
42940.82731724209
 44
2289.764587671511
 45
39.75589259518684
 46
0.0003200987065788
 79
     2
 49
16.82972244591059
 49
-10734.28048182555
 53
25.04599999999999
 43
42940.82731724209
 44
2155.900719746002
 45
39.75589259518684
 46
0.0003200987065788
 79
     2
 49
16.82972244591059
 49
-10734.28048182555
 53
25.04599999999999
 43
42940.82731724209
 44
2022.036851820496
 45
39.75589259518684
 46
0.0003200987065788
 79
     2
 49
16.82972244591059
 49
-10734.28048182555
 53
25.04599999999999
 43
42940.82731724209
 44
1888.172983894961
 45
39.75589259518684
 46
0.0003200987065788
 79
     2
 49
16.82972244591059
 49
-10734.28048182555
 53
25.04599999999999
 43
42940.82731724209
 44
1754.309115969427
 45
39.75589259518684
 46
0.0003200987065788
 79
     2
 49
16.82972244591059
 49
-10734.28048182555
 53
25.04599999999999
 43
42940.82731724209
 44
1620.445248043921
 45
39.75589259518684
 46
0.0003200987065788
 79
     2
 49
16.82972244591059
 49
-10734.28048182555
 53
25.04599999999999
 43
42940.82731724209
 44
1486.581380118416
 45
39.75589259518684
 46
0.0003200987065788
 79
     2
 49
16.82972244591059
 49
-10734.28048182555
 53
25.04599999999999
 43
42940.82731724209
 44
1352.717512192877
 45
39.75589259518684
 46
0.0003200987065788
 79
     2
 49
16.82972244591059
 49
-10734.28048182555
 53
25.04599999999999
 43
42940.82731724209
 44
1218.853644267343
 45
39.75589259518684
 46
0.0003200987065788
 79
     2
 49
16.82972244591059
 49
-10734.28048182555
 53
25.04599999999999
 43
42940.82731724209
 44
1084.989776341837
 45
39.75589259518684
 46
0.0003200987065788
 79
     2
 49
16.82972244591059
 49
-10734.28048182555
 53
25.04599999999999
 43
42940.82731724209
 44
951.1259084163285
 45
39.75589259518684
 46
0.0003200987065788
 79
     2
 49
16.82972244591059
 49
-10734.28048182555
 53
25.04599999999999
 43
42940.82731724209
 44
817.2620404907975
 45
39.75589259518684
 46
0.0003200987065788
 79
     2
 49
16.82972244591059
 49
-10734.28048182555
 53
25.04599999999999
 43
42940.82731724209
 44
683.3981725652629
 45
39.75589259518684
 46
0.0003200987065788
 79
     2
 49
16.82972244591059
 49
-10734.28048182555
 53
14.07599999999998
 43
42951.32555241235
 44
5217.543722537993
 45
39.75585659252739
 46
-0.0002922356444212
 79
     2
 49
9.670087838729893
 49
-3843.073153322045
 53
14.07599999999998
 43
42951.32555241235
 44
5083.679616632242
 45
39.75585659252739
 46
-0.0002922356444212
 79
     2
 49
9.670087838729893
 49
-3843.073153322045
 53
14.07599999999998
 43
42951.32555241235
 44
4949.815748706733
 45
39.75585659252739
 46
-0.0002922356444212
 79
     2
 49
9.670087838729893
 49
-3843.073153322045
 53
14.07599999999998
 43
42951.32555241235
 44
4815.951880781227
 45
39.75585659252739
 46
-0.0002922356444212
 79
     2
 49
9.670087838729893
 49
-3843.073153322045
 53
14.07599999999998
 43
42951.32555241235
 44
4682.088012855692
 45
39.75585659252739
 46
-0.0002922356444212
 79
     2
 49
9.670087838729893
 49
-3843.073153322045
 53
14.07599999999998
 43
42951.32555241235
 44
4548.224144930162
 45
39.75585659252739
 46
-0.0002922356444212
 79
     2
 49
9.670087838729893
 49
-3843.073153322045
 53
14.07599999999998
 43
42951.32555241235
 44
4414.360277004653
 45
39.75585659252739
 46
-0.0002922356444212
 79
     2
 49
9.670087838729893
 49
-3843.073153322045
 98
        1
 10
4915.613661211577
 20
996.3451577361556
  0
HATCH
  5
5EEA
330
67
100
AcDbEntity
  8
F_01 sichtbar
370
    13
100
AcDbHatch
 10
0.0
 20
0.0
 30
0.0
210
0.0
220
0.0
230
1.0
  2
BATT_INSULATION
 70
     0
 71
     0
 91
        1
 92
        1
 93
        4
 72
     1
 10
454.0678212371422
 20
810.7080441154622
 11
406.5678212371549
 21
796.6334889866739
 72
     1
 10
406.5678212371549
 20
796.6334889866739
 11
406.5678212371567
 21
668.6942115859892
 72
     1
 10
406.5678212371567
 20
668.6942115859892
 11
454.0678212371422
 21
668.6942115859892
 72
     1
 10
454.0678212371422
 20
668.6942115859892
 11
454.0678212371422
 21
810.7080441154622
 97
        0
 75
     0
 76
     2
 52
270.0
 41
46.15373762819272
 77
     0
 78
   528
 53
90.0
 43
-1364.052017314698
 44
17316.01929263393
 45
51.9229548317168
 46
15.42047143269309
 79
     2
 49
0.0
 49
-15.42047143269309
 53
75.92359999999998
 43
-1358.282800111172
 44
17308.3090338407
 45
-0.0000056969334701
 46
15.42045346660799
 79
     2
 49
3.750821949567946
 49
-1490.646556440059
 53
75.92359999999998
 43
-1306.35984527945
 44
17308.3090338407
 45
-0.0000056969334701
 46
15.42045346660799
 79
     2
 49
3.750821949567946
 49
-1490.646556440059
 53
75.92359999999998
 43
-1254.436890447738
 44
17308.3090338407
 45
-0.0000056969334701
 46
15.42045346660799
 79
     2
 49
3.750821949567946
 49
-1490.646556440059
 53
75.92359999999998
 43
-1202.513935616016
 44
17308.3090338407
 45
-0.0000056969334701
 46
15.42045346660799
 79
     2
 49
3.750821949567946
 49
-1490.646556440059
 53
75.92359999999998
 43
-1150.590980784303
 44
17308.3090338407
 45
-0.0000056969334701
 46
15.42045346660799
 79
     2
 49
3.750821949567946
 49
-1490.646556440059
 53
75.92359999999998
 43
-1098.668025952593
 44
17308.3090338407
 45
-0.0000056969334701
 46
15.42045346660799
 79
     2
 49
3.750821949567946
 49
-1490.646556440059
 53
75.92359999999998
 43
-1046.745071120869
 44
17308.3090338407
 45
-0.0000056969334701
 46
15.42045346660799
 79
     2
 49
3.750821949567946
 49
-1490.646556440059
 53
64.95440000000001
 43
-1314.892286754781
 44
17310.10519884798
 45
0.00001650432676
 46
15.42046743135135
 79
     2
 49
6.527892342656226
 49
-4163.599702041419
 53
64.95440000000001
 43
-1262.969331923059
 44
17310.10519884798
 45
0.00001650432676
 46
15.42046743135135
 79
     2
 49
6.527892342656226
 49
-4163.599702041419
 53
64.95440000000001
 43
-1211.046377091348
 44
17310.10519884798
 45
0.00001650432676
 46
15.42046743135135
 79
     2
 49
6.527892342656226
 49
-4163.599702041419
 53
64.95440000000001
 43
-1159.123422259625
 44
17310.10519884798
 45
0.00001650432676
 46
15.42046743135135
 79
     2
 49
6.527892342656226
 49
-4163.599702041419
 53
64.95440000000001
 43
-1107.200467427909
 44
17310.10519884798
 45
0.00001650432676
 46
15.42046743135135
 79
     2
 49
6.527892342656226
 49
-4163.599702041419
 53
64.95440000000001
 43
-1055.277512596191
 44
17310.10519884798
 45
0.00001650432676
 46
15.42046743135135
 79
     2
 49
6.527892342656226
 49
-4163.599702041419
 53
64.95440000000001
 43
-1003.35455776448
 44
17310.10519884798
 45
0.00001650432676
 46
15.42046743135135
 79
     2
 49
6.527892342656226
 49
-4163.599702041419
 53
64.95440000000001
 43
-951.4316029327565
 44
17310.10519884798
 45
0.00001650432676
 46
15.42046743135135
 79
     2
 49
6.527892342656226
 49
-4163.599702041419
 53
64.95440000000001
 43
-899.5100327131767
 44
17310.10519884798
 45
0.00001650432676
 46
15.42046743135135
 79
     2
 49
6.527892342656226
 49
-4163.599702041419
 53
64.95440000000001
 43
-847.5870778814551
 44
17310.10519884798
 45
0.00001650432676
 46
15.42046743135135
 79
     2
 49
6.527892342656226
 49
-4163.599702041419
 53
64.95440000000001
 43
-795.664123049737
 44
17310.10519884798
 45
0.00001650432676
 46
15.42046743135135
 79
     2
 49
6.527892342656226
 49
-4163.599702041419
 53
64.95440000000001
 43
-743.7411682180209
 44
17310.10519884798
 45
0.00001650432676
 46
15.42046743135135
 79
     2
 49
6.527892342656226
 49
-4163.599702041419
 53
64.95440000000001
 43
-691.8182133863028
 44
17310.10519884798
 45
0.00001650432676
 46
15.42046743135135
 79
     2
 49
6.527892342656226
 49
-4163.599702041419
 53
64.95440000000001
 43
-639.8952585545921
 44
17310.10519884798
 45
0.00001650432676
 46
15.42046743135135
 79
     2
 49
6.527892342656226
 49
-4163.599702041419
 53
64.95440000000001
 43
-587.9723037228741
 44
17310.10519884798
 45
0.00001650432676
 46
15.42046743135135
 79
     2
 49
6.527892342656226
 49
-4163.599702041419
 53
64.95440000000001
 43
-536.0493488911524
 44
17310.10519884798
 45
0.00001650432676
 46
15.42046743135135
 79
     2
 49
6.527892342656226
 49
-4163.599702041419
 53
64.95440000000001
 43
-484.1263940594399
 44
17310.10519884798
 45
0.00001650432676
 46
15.42046743135135
 79
     2
 49
6.527892342656226
 49
-4163.599702041419
 53
64.95440000000001
 43
-432.2034392277237
 44
17310.10519884798
 45
0.00001650432676
 46
15.42046743135135
 79
     2
 49
6.527892342656226
 49
-4163.599702041419
 53
64.95440000000001
 43
-380.2804843960057
 44
17310.10519884798
 45
0.00001650432676
 46
15.42046743135135
 79
     2
 49
6.527892342656226
 49
-4163.599702041419
 53
64.95440000000001
 43
-328.3575295642841
 44
17310.10519884798
 45
0.00001650432676
 46
15.42046743135135
 79
     2
 49
6.527892342656226
 49
-4163.599702041419
 53
64.95440000000001
 43
-276.4345747325715
 44
17310.10519884798
 45
0.00001650432676
 46
15.42046743135135
 79
     2
 49
6.527892342656226
 49
-4163.599702041419
 53
64.95440000000001
 43
-224.5116199008553
 44
17310.10519884798
 45
0.00001650432676
 46
15.42046743135135
 79
     2
 49
6.527892342656226
 49
-4163.599702041419
 53
64.95440000000001
 43
-172.5886650691391
 44
17310.10519884798
 45
0.00001650432676
 46
15.42046743135135
 79
     2
 49
6.527892342656226
 49
-4163.599702041419
 53
64.95440000000001
 43
-120.6657102374156
 44
17310.10519884798
 45
0.00001650432676
 46
15.42046743135135
 79
     2
 49
6.527892342656226
 49
-4163.599702041419
 53
64.95440000000001
 43
-68.74275540570306
 44
17310.10519884798
 45
0.00001650432676
 46
15.42046743135135
 79
     2
 49
6.527892342656226
 49
-4163.599702041419
 53
64.95440000000001
 43
-16.8198005739905
 44
17310.10519884798
 45
0.00001650432676
 46
15.42046743135135
 79
     2
 49
6.527892342656226
 49
-4163.599702041419
 53
64.95440000000001
 43
35.10315425772933
 44
17310.10519884798
 45
0.00001650432676
 46
15.42046743135135
 79
     2
 49
6.527892342656226
 49
-4163.599702041419
 53
64.95440000000001
 43
87.02610908944189
 44
17310.10519884798
 45
0.00001650432676
 46
15.42046743135135
 79
     2
 49
6.527892342656226
 49
-4163.599702041419
 53
64.95440000000001
 43
138.9490639211653
 44
17310.10519884798
 45
0.00001650432676
 46
15.42046743135135
 79
     2
 49
6.527892342656226
 49
-4163.599702041419
 53
64.95440000000001
 43
190.872018752887
 44
17310.10519884798
 45
0.00001650432676
 46
15.42046743135135
 79
     2
 49
6.527892342656226
 49
-4163.599702041419
 53
64.95440000000001
 43
242.7949735845977
 44
17310.10519884798
 45
0.00001650432676
 46
15.42046743135135
 79
     2
 49
6.527892342656226
 49
-4163.599702041419
 53
64.95440000000001
 43
294.7179284163103
 44
17310.10519884798
 45
0.00001650432676
 46
15.42046743135135
 79
     2
 49
6.527892342656226
 49
-4163.599702041419
 53
64.95440000000001
 43
346.6408832480338
 44
17310.10519884798
 45
0.00001650432676
 46
15.42046743135135
 79
     2
 49
6.527892342656226
 49
-4163.599702041419
 53
64.95440000000001
 43
398.56383807975
 44
17310.10519884798
 45
0.00001650432676
 46
15.42046743135135
 79
     2
 49
6.527892342656226
 49
-4163.599702041419
 53
37.5647
 43
-1357.370433025739
 44
17311.94724067046
 45
0.0000034821466346
 46
15.42046066973198
 79
     2
 49
6.340646629098716
 49
-2548.323746346614
 53
37.5647
 43
-1305.447385886544
 44
17311.94724067046
 45
0.0000034821466346
 46
15.42046066973198
 79
     2
 49
6.340646629098716
 49
-2548.323746346614
 53
37.5647
 43
-1253.524431054828
 44
17311.94724067046
 45
0.0000034821466346
 46
15.42046066973198
 79
     2
 49
6.340646629098716
 49
-2548.323746346614
 53
37.5647
 43
-1201.601476223115
 44
17311.94724067046
 45
0.0000034821466346
 46
15.42046066973198
 79
     2
 49
6.340646629098716
 49
-2548.323746346614
 53
37.5647
 43
-1149.678521391393
 44
17311.94724067046
 45
0.0000034821466346
 46
15.42046066973198
 79
     2
 49
6.340646629098716
 49
-2548.323746346614
 53
37.5647
 43
-1097.75556655967
 44
17311.94724067046
 45
0.0000034821466346
 46
15.42046066973198
 79
     2
 49
6.340646629098716
 49
-2548.323746346614
 53
37.5647
 43
-1045.832611727959
 44
17311.94724067046
 45
0.0000034821466346
 46
15.42046066973198
 79
     2
 49
6.340646629098716
 49
-2548.323746346614
 53
37.5647
 43
-993.9096568962467
 44
17311.94724067046
 45
0.0000034821466346
 46
15.42046066973198
 79
     2
 49
6.340646629098716
 49
-2548.323746346614
 53
37.5647
 43
-941.9867020645252
 44
17311.94724067046
 45
0.0000034821466346
 46
15.42046066973198
 79
     2
 49
6.340646629098716
 49
-2548.323746346614
 53
37.5647
 43
-890.0623626206815
 44
17311.94724067046
 45
0.0000034821466346
 46
15.42046066973198
 79
     2
 49
6.340646629098716
 49
-2548.323746346614
 53
37.5647
 43
-838.1394077889691
 44
17311.94724067046
 45
0.0000034821466346
 46
15.42046066973198
 79
     2
 49
6.340646629098716
 49
-2548.323746346614
 53
37.5647
 43
-786.2164529572473
 44
17311.94724067046
 45
0.0000034821466346
 46
15.42046066973198
 79
     2
 49
6.340646629098716
 49
-2548.323746346614
 53
37.5647
 43
-734.2934981255239
 44
17311.94724067046
 45
0.0000034821466346
 46
15.42046066973198
 79
     2
 49
6.340646629098716
 49
-2548.323746346614
 53
37.5647
 43
-682.3705432938131
 44
17311.94724067046
 45
0.0000034821466346
 46
15.42046066973198
 79
     2
 49
6.340646629098716
 49
-2548.323746346614
 53
37.5647
 43
-630.4475884621005
 44
17311.94724067046
 45
0.0000034821466346
 46
15.42046066973198
 79
     2
 49
6.340646629098716
 49
-2548.323746346614
 53
37.5647
 43
-578.524633630379
 44
17311.94724067046
 45
0.0000034821466346
 46
15.42046066973198
 79
     2
 49
6.340646629098716
 49
-2548.323746346614
 53
37.5647
 43
-526.6016787986609
 44
17311.94724067046
 45
0.0000034821466346
 46
15.42046066973198
 79
     2
 49
6.340646629098716
 49
-2548.323746346614
 53
37.5647
 43
-474.6787239669447
 44
17311.94724067046
 45
0.0000034821466346
 46
15.42046066973198
 79
     2
 49
6.340646629098716
 49
-2548.323746346614
 53
37.5647
 43
-422.7557691352322
 44
17311.94724067046
 45
0.0000034821466346
 46
15.42046066973198
 79
     2
 49
6.340646629098716
 49
-2548.323746346614
 53
37.5647
 43
-370.8328143035105
 44
17311.94724067046
 45
0.0000034821466346
 46
15.42046066973198
 79
     2
 49
6.340646629098716
 49
-2548.323746346614
 53
37.5647
 43
-318.909859471798
 44
17311.94724067046
 45
0.0000034821466346
 46
15.42046066973198
 79
     2
 49
6.340646629098716
 49
-2548.323746346614
 53
37.5647
 43
-266.9869046400763
 44
17311.94724067046
 45
0.0000034821466346
 46
15.42046066973198
 79
     2
 49
6.340646629098716
 49
-2548.323746346614
 53
37.5647
 43
-215.0639498083638
 44
17311.94724067046
 45
0.0000034821466346
 46
15.42046066973198
 79
     2
 49
6.340646629098716
 49
-2548.323746346614
 53
37.5647
 43
-163.1409949766457
 44
17311.94724067046
 45
0.0000034821466346
 46
15.42046066973198
 79
     2
 49
6.340646629098716
 49
-2548.323746346614
 53
37.5647
 43
-111.2180401449295
 44
17311.94724067046
 45
0.0000034821466346
 46
15.42046066973198
 79
     2
 49
6.340646629098716
 49
-2548.323746346614
 53
37.5647
 43
-59.29508531320789
 44
17311.94724067046
 45
0.0000034821466346
 46
15.42046066973198
 79
     2
 49
6.340646629098716
 49
-2548.323746346614
 53
37.5647
 43
-7.372130481495332
 44
17311.94724067046
 45
0.0000034821466346
 46
15.42046066973198
 79
     2
 49
6.340646629098716
 49
-2548.323746346614
 53
37.5647
 43
44.5508243502154
 44
17311.94724067046
 45
0.0000034821466346
 46
15.42046066973198
 79
     2
 49
6.340646629098716
 49
-2548.323746346614
 53
37.5647
 43
96.47377918193889
 44
17311.94724067046
 45
0.0000034821466346
 46
15.42046066973198
 79
     2
 49
6.340646629098716
 49
-2548.323746346614
 53
37.5647
 43
148.396734013655
 44
17311.94724067046
 45
0.0000034821466346
 46
15.42046066973198
 79
     2
 49
6.340646629098716
 49
-2548.323746346614
 53
37.5647
 43
200.3196888453731
 44
17311.94724067046
 45
0.0000034821466346
 46
15.42046066973198
 79
     2
 49
6.340646629098716
 49
-2548.323746346614
 53
37.5647
 43
252.2426436770948
 44
17311.94724067046
 45
0.0000034821466346
 46
15.42046066973198
 79
     2
 49
6.340646629098716
 49
-2548.323746346614
 53
37.5647
 43
304.1655985088037
 44
17311.94724067046
 45
0.0000034821466346
 46
15.42046066973198
 79
     2
 49
6.340646629098716
 49
-2548.323746346614
 53
37.5647
 43
356.0885533405198
 44
17311.94724067046
 45
0.0000034821466346
 46
15.42046066973198
 79
     2
 49
6.340646629098716
 49
-2548.323746346614
 53
37.5647
 43
408.0115081722397
 44
17311.94724067046
 45
0.0000034821466346
 46
15.42046066973198
 79
     2
 49
6.340646629098716
 49
-2548.323746346614
 53
37.5647
 43
459.9344630039523
 44
17311.94724067046
 45
0.0000034821466346
 46
15.42046066973198
 79
     2
 49
6.340646629098716
 49
-2548.323746346614
 53
37.5647
 43
511.8574178356684
 44
17311.94724067046
 45
0.0000034821466346
 46
15.42046066973198
 79
     2
 49
6.340646629098716
 49
-2548.323746346614
 53
37.5647
 43
563.7803726673882
 44
17311.94724067046
 45
0.0000034821466346
 46
15.42046066973198
 79
     2
 49
6.340646629098716
 49
-2548.323746346614
 53
37.5647
 43
615.7033274991045
 44
17311.94724067046
 45
0.0000034821466346
 46
15.42046066973198
 79
     2
 49
6.340646629098716
 49
-2548.323746346614
 53
22.93839999999997
 43
-1341.060394453998
 44
17302.01954862977
 45
0.0000064260253368
 46
15.42047545591863
 79
     2
 49
11.80815684974733
 49
-2243.446094003543
 53
22.93839999999997
 43
-1289.137578083493
 44
17302.01954862977
 45
0.0000064260253368
 46
15.42047545591863
 79
     2
 49
11.80815684974733
 49
-2243.446094003543
 53
22.93839999999997
 43
-1237.214623251772
 44
17302.01954862977
 45
0.0000064260253368
 46
15.42047545591863
 79
     2
 49
11.80815684974733
 49
-2243.446094003543
 53
22.93839999999997
 43
-1185.291668420059
 44
17302.01954862977
 45
0.0000064260253368
 46
15.42047545591863
 79
     2
 49
11.80815684974733
 49
-2243.446094003543
 53
22.93839999999997
 43
-1133.368713588346
 44
17302.01954862977
 45
0.0000064260253368
 46
15.42047545591863
 79
     2
 49
11.80815684974733
 49
-2243.446094003543
 53
22.93839999999997
 43
-1081.445758756625
 44
17302.01954862977
 45
0.0000064260253368
 46
15.42047545591863
 79
     2
 49
11.80815684974733
 49
-2243.446094003543
 53
22.93839999999997
 43
-1029.522803924908
 44
17302.01954862977
 45
0.0000064260253368
 46
15.42047545591863
 79
     2
 49
11.80815684974733
 49
-2243.446094003543
 53
22.93839999999997
 43
-977.5998490931906
 44
17302.01954862977
 45
0.0000064260253368
 46
15.42047545591863
 79
     2
 49
11.80815684974733
 49
-2243.446094003543
 53
22.93839999999997
 43
-925.6768942614781
 44
17302.01954862977
 45
0.0000064260253368
 46
15.42047545591863
 79
     2
 49
11.80815684974733
 49
-2243.446094003543
 53
22.93839999999997
 43
-873.7516317428781
 44
17302.01954862977
 45
0.0000064260253368
 46
15.42047545591863
 79
     2
 49
11.80815684974733
 49
-2243.446094003543
 53
22.93839999999997
 43
-821.8286769111619
 44
17302.01954862977
 45
0.0000064260253368
 46
15.42047545591863
 79
     2
 49
11.80815684974733
 49
-2243.446094003543
 53
22.93839999999997
 43
-769.9057220794384
 44
17302.01954862977
 45
0.0000064260253368
 46
15.42047545591863
 79
     2
 49
11.80815684974733
 49
-2243.446094003543
 53
22.93839999999997
 43
-717.9827672477276
 44
17302.01954862977
 45
0.0000064260253368
 46
15.42047545591863
 79
     2
 49
11.80815684974733
 49
-2243.446094003543
 53
22.93839999999997
 43
-666.0598124160151
 44
17302.01954862977
 45
0.0000064260253368
 46
15.42047545591863
 79
     2
 49
11.80815684974733
 49
-2243.446094003543
 53
22.93839999999997
 43
-614.1368575842935
 44
17302.01954862977
 45
0.0000064260253368
 46
15.42047545591863
 79
     2
 49
11.80815684974733
 49
-2243.446094003543
 53
22.93839999999997
 43
-562.2139027525754
 44
17302.01954862977
 45
0.0000064260253368
 46
15.42047545591863
 79
     2
 49
11.80815684974733
 49
-2243.446094003543
 53
22.93839999999997
 43
-510.2909479208592
 44
17302.01954862977
 45
0.0000064260253368
 46
15.42047545591863
 79
     2
 49
11.80815684974733
 49
-2243.446094003543
 53
22.93839999999997
 43
-458.3679930891412
 44
17302.01954862977
 45
0.0000064260253368
 46
15.42047545591863
 79
     2
 49
11.80815684974733
 49
-2243.446094003543
 53
22.93839999999997
 43
-406.4450382574305
 44
17302.01954862977
 45
0.0000064260253368
 46
15.42047545591863
 79
     2
 49
11.80815684974733
 49
-2243.446094003543
 53
22.93839999999997
 43
-354.5220834257125
 44
17302.01954862977
 45
0.0000064260253368
 46
15.42047545591863
 79
     2
 49
11.80815684974733
 49
-2243.446094003543
 53
22.93839999999997
 43
-302.5991285939908
 44
17302.01954862977
 45
0.0000064260253368
 46
15.42047545591863
 79
     2
 49
11.80815684974733
 49
-2243.446094003543
 53
22.93839999999997
 43
-250.6761737622783
 44
17302.01954862977
 45
0.0000064260253368
 46
15.42047545591863
 79
     2
 49
11.80815684974733
 49
-2243.446094003543
 53
22.93839999999997
 43
-198.753218930562
 44
17302.01954862977
 45
0.0000064260253368
 46
15.42047545591863
 79
     2
 49
11.80815684974733
 49
-2243.446094003543
 53
22.93839999999997
 43
-146.830264098844
 44
17302.01954862977
 45
0.0000064260253368
 46
15.42047545591863
 79
     2
 49
11.80815684974733
 49
-2243.446094003543
 53
22.93839999999997
 43
-94.9073092671224
 44
17302.01954862977
 45
0.0000064260253368
 46
15.42047545591863
 79
     2
 49
11.80815684974733
 49
-2243.446094003543
 53
22.93839999999997
 43
-42.98435443540983
 44
17302.01954862977
 45
0.0000064260253368
 46
15.42047545591863
 79
     2
 49
11.80815684974733
 49
-2243.446094003543
 53
22.93839999999997
 43
8.938600396311812
 44
17302.01954862977
 45
0.0000064260253368
 46
15.42047545591863
 79
     2
 49
11.80815684974733
 49
-2243.446094003543
 53
22.93839999999997
 43
60.86155522802437
 44
17302.01954862977
 45
0.0000064260253368
 46
15.42047545591863
 79
     2
 49
11.80815684974733
 49
-2243.446094003543
 53
22.93839999999997
 43
112.784510059746
 44
17302.01954862977
 45
0.0000064260253368
 46
15.42047545591863
 79
     2
 49
11.80815684974733
 49
-2243.446094003543
 53
22.93839999999997
 43
164.7074648914568
 44
17302.01954862977
 45
0.0000064260253368
 46
15.42047545591863
 79
     2
 49
11.80815684974733
 49
-2243.446094003543
 53
22.93839999999997
 43
216.6304197231693
 44
17302.01954862977
 45
0.0000064260253368
 46
15.42047545591863
 79
     2
 49
11.80815684974733
 49
-2243.446094003543
 53
22.93839999999997
 43
268.5533745548928
 44
17302.01954862977
 45
0.0000064260253368
 46
15.42047545591863
 79
     2
 49
11.80815684974733
 49
-2243.446094003543
 53
22.93839999999997
 43
320.476329386609
 44
17302.01954862977
 45
0.0000064260253368
 46
15.42047545591863
 79
     2
 49
11.80815684974733
 49
-2243.446094003543
 53
22.93839999999997
 43
372.3992842183252
 44
17302.01954862977
 45
0.0000064260253368
 46
15.42047545591863
 79
     2
 49
11.80815684974733
 49
-2243.446094003543
 53
22.93839999999997
 43
424.3222390500413
 44
17302.01954862977
 45
0.0000064260253368
 46
15.42047545591863
 79
     2
 49
11.80815684974733
 49
-2243.446094003543
 53
22.93839999999997
 43
476.2451938817612
 44
17302.01954862977
 45
0.0000064260253368
 46
15.42047545591863
 79
     2
 49
11.80815684974733
 49
-2243.446094003543
 53
22.93839999999997
 43
528.1681487134737
 44
17302.01954862977
 45
0.0000064260253368
 46
15.42047545591863
 79
     2
 49
11.80815684974733
 49
-2243.446094003543
 53
22.93839999999997
 43
580.09110354519
 44
17302.01954862977
 45
0.0000064260253368
 46
15.42047545591863
 79
     2
 49
11.80815684974733
 49
-2243.446094003543
 53
22.93839999999997
 43
632.0140583769098
 44
17302.01954862977
 45
0.0000064260253368
 46
15.42047545591863
 79
     2
 49
11.80815684974733
 49
-2243.446094003543
 53
22.93839999999997
 43
683.9370132086223
 44
17302.01954862977
 45
0.0000064260253368
 46
15.42047545591863
 79
     2
 49
11.80815684974733
 49
-2243.446094003543
 53
15.10899999999998
 43
-1319.839275122458
 44
17308.77057121699
 45
51.92292317524827
 46
0.0000001396797961
 79
     2
 49
5.123664875318557
 49
-586.4794671091432
 53
15.10899999999998
 43
-1319.839275122458
 44
17324.19104264969
 45
51.92292317524827
 46
0.0000001396797961
 79
     2
 49
5.123664875318557
 49
-586.4794671091432
 53
15.10899999999998
 43
-1319.839275122458
 44
17339.61151408238
 45
51.92292317524827
 46
0.0000001396797961
 79
     2
 49
5.123664875318557
 49
-586.4794671091432
 53
15.10899999999998
 43
-1319.839275122458
 44
17355.03207782254
 45
51.92292317524827
 46
0.0000001396797961
 79
     2
 49
5.123664875318557
 49
-586.4794671091432
 53
15.10899999999998
 43
-1319.839275122458
 44
17370.4525031015
 45
51.92292317524827
 46
0.0000001396797961
 79
     2
 49
5.123664875318557
 49
-586.4794671091432
 53
15.10899999999998
 43
-1319.839275122458
 44
17385.87292838045
 45
51.92292317524827
 46
0.0000001396797961
 79
     2
 49
5.123664875318557
 49
-586.4794671091432
 53
15.10899999999998
 43
-1319.839275122458
 44
17401.29335365941
 45
51.92292317524827
 46
0.0000001396797961
 79
     2
 49
5.123664875318557
 49
-586.4794671091432
 53
15.10899999999998
 43
-1319.839275122458
 44
17416.71377893837
 45
51.92292317524827
 46
0.0000001396797961
 79
     2
 49
5.123664875318557
 49
-586.4794671091432
 53
15.10899999999998
 43
-1319.839275122458
 44
17432.13420421732
 45
51.92292317524827
 46
0.0000001396797961
 79
     2
 49
5.123664875318557
 49
-586.4794671091432
 53
15.10899999999998
 43
-1319.839275122458
 44
17447.55462949628
 45
51.92292317524827
 46
0.0000001396797961
 79
     2
 49
5.123664875318557
 49
-586.4794671091432
 53
6.747399999999972
 43
-1330.185743101512
 44
17306.62109934818
 45
51.92304656764545
 46
0.0000050432755578
 79
     2
 49
10.4188831934011
 49
-6420.647671753949
 53
6.747399999999972
 43
-1330.185743101512
 44
17322.04157078085
 45
51.92304656764545
 46
0.0000050432755578
 79
     2
 49
10.4188831934011
 49
-6420.647671753949
 53
6.747399999999972
 43
-1330.185743101512
 44
17337.46204221355
 45
51.92304656764545
 46
0.0000050432755578
 79
     2
 49
10.4188831934011
 49
-6420.647671753949
 53
6.747399999999972
 43
-1330.185743101512
 44
17352.88269826121
 45
51.92304656764545
 46
0.0000050432755578
 79
     2
 49
10.4188831934011
 49
-6420.647671753949
 53
6.747399999999972
 43
-1330.185743101512
 44
17368.30312354016
 45
51.92304656764545
 46
0.0000050432755578
 79
     2
 49
10.4188831934011
 49
-6420.647671753949
 53
6.747399999999972
 43
-1330.185743101512
 44
17383.72354881911
 45
51.92304656764545
 46
0.0000050432755578
 79
     2
 49
10.4188831934011
 49
-6420.647671753949
 53
6.747399999999972
 43
-1330.185743101512
 44
17399.14397409807
 45
51.92304656764545
 46
0.0000050432755578
 79
     2
 49
10.4188831934011
 49
-6420.647671753949
 53
6.747399999999972
 43
-1330.185743101512
 44
17414.56439937702
 45
51.92304656764545
 46
0.0000050432755578
 79
     2
 49
10.4188831934011
 49
-6420.647671753949
 53
6.747399999999972
 43
-1330.185743101512
 44
17429.98482465598
 45
51.92304656764545
 46
0.0000050432755578
 79
     2
 49
10.4188831934011
 49
-6420.647671753949
 53
6.747399999999972
 43
-1330.185743101512
 44
17445.40524993493
 45
51.92304656764545
 46
0.0000050432755578
 79
     2
 49
10.4188831934011
 49
-6420.647671753949
 53
6.747399999999972
 43
-1330.185743101512
 44
17460.82567521389
 45
51.92304656764545
 46
0.0000050432755578
 79
     2
 49
10.4188831934011
 49
-6420.647671753949
 53
6.747399999999972
 43
-1330.185743101512
 44
17476.24610049285
 45
51.92304656764545
 46
0.0000050432755578
 79
     2
 49
10.4188831934011
 49
-6420.647671753949
 53
6.747399999999972
 43
-1330.185743101512
 44
17491.6665257718
 45
51.92304656764545
 46
0.0000050432755578
 79
     2
 49
10.4188831934011
 49
-6420.647671753949
 53
6.747399999999972
 43
-1330.185743101512
 44
17507.08695105075
 45
51.92304656764545
 46
0.0000050432755578
 79
     2
 49
10.4188831934011
 49
-6420.647671753949
 53
6.747399999999972
 43
-1330.185743101512
 44
17522.50783786709
 45
51.92304656764545
 46
0.0000050432755578
 79
     2
 49
10.4188831934011
 49
-6420.647671753949
 53
6.747399999999972
 43
-1330.185743101512
 44
17537.92826314604
 45
51.92304656764545
 46
0.0000050432755578
 79
     2
 49
10.4188831934011
 49
-6420.647671753949
 53
6.747399999999972
 43
-1330.185743101512
 44
17553.34868842498
 45
51.92304656764545
 46
0.0000050432755578
 79
     2
 49
10.4188831934011
 49
-6420.647671753949
 53
6.747399999999972
 43
-1330.185743101512
 44
17568.76911370396
 45
51.92304656764545
 46
0.0000050432755578
 79
     2
 49
10.4188831934011
 49
-6420.647671753949
 53
6.747399999999972
 43
-1330.185743101512
 44
17584.1895389829
 45
51.92304656764545
 46
0.0000050432755578
 79
     2
 49
10.4188831934011
 49
-6420.647671753949
 53
6.747399999999972
 43
-1330.185743101512
 44
17599.60996426186
 45
51.92304656764545
 46
0.0000050432755578
 79
     2
 49
10.4188831934011
 49
-6420.647671753949
 53
6.747399999999972
 43
-1330.185743101512
 44
17615.03038954082
 45
51.92304656764545
 46
0.0000050432755578
 79
     2
 49
10.4188831934011
 49
-6420.647671753949
 53
6.747399999999972
 43
-1330.185743101512
 44
17630.45081481978
 45
51.92304656764545
 46
0.0000050432755578
 79
     2
 49
10.4188831934011
 49
-6420.647671753949
 53
6.747399999999972
 43
-1330.185743101512
 44
17645.87124009873
 45
51.92304656764545
 46
0.0000050432755578
 79
     2
 49
10.4188831934011
 49
-6420.647671753949
 53
6.747399999999972
 43
-1330.185743101512
 44
17661.29166537768
 45
51.92304656764545
 46
0.0000050432755578
 79
     2
 49
10.4188831934011
 49
-6420.647671753949
 53
6.747399999999972
 43
-1330.185743101512
 44
17676.71255219402
 45
51.92304656764545
 46
0.0000050432755578
 79
     2
 49
10.4188831934011
 49
-6420.647671753949
 53
6.747399999999972
 43
-1330.185743101512
 44
17692.13297747296
 45
51.92304656764545
 46
0.0000050432755578
 79
     2
 49
10.4188831934011
 49
-6420.647671753949
 53
6.747399999999972
 43
-1330.185743101512
 44
17707.55340275193
 45
51.92304656764545
 46
0.0000050432755578
 79
     2
 49
10.4188831934011
 49
-6420.647671753949
 53
6.747399999999972
 43
-1330.185743101512
 44
17722.97382803089
 45
51.92304656764545
 46
0.0000050432755578
 79
     2
 49
10.4188831934011
 49
-6420.647671753949
 53
6.747399999999972
 43
-1330.185743101512
 44
17738.39425330984
 45
51.92304656764545
 46
0.0000050432755578
 79
     2
 49
10.4188831934011
 49
-6420.647671753949
 53
6.747399999999972
 43
-1330.185743101512
 44
17753.8146785888
 45
51.92304656764545
 46
0.0000050432755578
 79
     2
 49
10.4188831934011
 49
-6420.647671753949
 53
6.747399999999972
 43
-1330.185743101512
 44
17769.23464233037
 45
51.92304656764545
 46
0.0000050432755578
 79
     2
 49
10.4188831934011
 49
-6420.647671753949
 53
6.747399999999972
 43
-1330.185743101512
 44
17784.65460607195
 45
51.92304656764545
 46
0.0000050432755578
 79
     2
 49
10.4188831934011
 49
-6420.647671753949
 53
6.747399999999972
 43
-1330.185743101512
 44
17800.07456981353
 45
51.92304656764545
 46
0.0000050432755578
 79
     2
 49
10.4188831934011
 49
-6420.647671753949
 53
6.747399999999972
 43
-1330.185743101512
 44
17815.49453355511
 45
51.92304656764545
 46
0.0000050432755578
 79
     2
 49
10.4188831934011
 49
-6420.647671753949
 53
6.747399999999972
 43
-1330.185743101512
 44
17830.91911267046
 45
51.92304656764545
 46
0.0000050432755578
 79
     2
 49
10.4188831934011
 49
-6420.647671753949
 53
6.747399999999972
 43
-1330.185743101512
 44
17846.33907641203
 45
51.92304656764545
 46
0.0000050432755578
 79
     2
 49
10.4188831934011
 49
-6420.647671753949
 53
6.747399999999972
 43
-1330.185743101512
 44
17861.75904015361
 45
51.92304656764545
 46
0.0000050432755578
 79
     2
 49
10.4188831934011
 49
-6420.647671753949
 53
6.747399999999972
 43
-1330.185743101512
 44
17877.17900389519
 45
51.92304656764545
 46
0.0000050432755578
 79
     2
 49
10.4188831934011
 49
-6420.647671753949
 53
6.747399999999972
 43
-1330.185743101512
 44
17892.59896763676
 45
51.92304656764545
 46
0.0000050432755578
 79
     2
 49
10.4188831934011
 49
-6420.647671753949
 53
6.747399999999972
 43
-1330.185743101512
 44
17908.01893137835
 45
51.92304656764545
 46
0.0000050432755578
 79
     2
 49
10.4188831934011
 49
-6420.647671753949
 53
6.747399999999972
 43
-1330.185743101512
 44
17923.43889511992
 45
51.92304656764545
 46
0.0000050432755578
 79
     2
 49
10.4188831934011
 49
-6420.647671753949
 53
6.747399999999972
 43
-1330.185743101512
 44
17938.85885886151
 45
51.92304656764545
 46
0.0000050432755578
 79
     2
 49
10.4188831934011
 49
-6420.647671753949
 53
6.747399999999972
 43
-1330.185743101512
 44
17954.27882260308
 45
51.92304656764545
 46
0.0000050432755578
 79
     2
 49
10.4188831934011
 49
-6420.647671753949
 53
6.747399999999972
 43
-1330.185743101512
 44
17969.70340171842
 45
51.92304656764545
 46
0.0000050432755578
 79
     2
 49
10.4188831934011
 49
-6420.647671753949
 53
6.747399999999972
 43
-1330.185743101512
 44
17985.12336546
 45
51.92304656764545
 46
0.0000050432755578
 79
     2
 49
10.4188831934011
 49
-6420.647671753949
 53
6.747399999999972
 43
-1330.185743101512
 44
18000.54332920158
 45
51.92304656764545
 46
0.0000050432755578
 79
     2
 49
10.4188831934011
 49
-6420.647671753949
 53
6.747399999999972
 43
-1330.185743101512
 44
18015.96329294317
 45
51.92304656764545
 46
0.0000050432755578
 79
     2
 49
10.4188831934011
 49
-6420.647671753949
 53
6.747399999999972
 43
-1330.185743101512
 44
18031.38325668474
 45
51.92304656764545
 46
0.0000050432755578
 79
     2
 49
10.4188831934011
 49
-6420.647671753949
 53
6.747399999999972
 43
-1330.185743101512
 44
18046.80322042633
 45
51.92304656764545
 46
0.0000050432755578
 79
     2
 49
10.4188831934011
 49
-6420.647671753949
 53
6.141599999999983
 43
-1352.344475612981
 44
17300.80519071597
 45
51.92281660003864
 46
-0.0000502503489585
 79
     2
 49
11.34925023651022
 49
-3592.016307598095
 53
6.141599999999983
 43
-1352.344475612981
 44
17316.22564599487
 45
51.92281660003864
 46
-0.0000502503489585
 79
     2
 49
11.34925023651022
 49
-3592.016307598095
 53
6.141599999999983
 43
-1352.344475612981
 44
17331.64611742756
 45
51.92281660003864
 46
-0.0000502503489585
 79
     2
 49
11.34925023651022
 49
-3592.016307598095
 53
6.141599999999983
 43
-1352.344475612981
 44
17347.0664042453
 45
51.92281660003864
 46
-0.0000502503489585
 79
     2
 49
11.34925023651022
 49
-3592.016307598095
 53
6.141599999999983
 43
-1352.344475612981
 44
17362.48729106163
 45
51.92281660003864
 46
-0.0000502503489585
 79
     2
 49
11.34925023651022
 49
-3592.016307598095
 53
6.141599999999983
 43
-1352.344475612981
 44
17377.90771634057
 45
51.92281660003864
 46
-0.0000502503489585
 79
     2
 49
11.34925023651022
 49
-3592.016307598095
 53
6.141599999999983
 43
-1352.344475612981
 44
17393.32814161953
 45
51.92281660003864
 46
-0.0000502503489585
 79
     2
 49
11.34925023651022
 49
-3592.016307598095
 53
6.141599999999983
 43
-1352.344475612981
 44
17408.7485668985
 45
51.92281660003864
 46
-0.0000502503489585
 79
     2
 49
11.34925023651022
 49
-3592.016307598095
 53
6.141599999999983
 43
-1352.344475612981
 44
17424.16899217744
 45
51.92281660003864
 46
-0.0000502503489585
 79
     2
 49
11.34925023651022
 49
-3592.016307598095
 53
6.141599999999983
 43
-1352.344475612981
 44
17439.58941745641
 45
51.92281660003864
 46
-0.0000502503489585
 79
     2
 49
11.34925023651022
 49
-3592.016307598095
 53
6.141599999999983
 43
-1352.344475612981
 44
17455.00984273536
 45
51.92281660003864
 46
-0.0000502503489585
 79
     2
 49
11.34925023651022
 49
-3592.016307598095
 53
6.141599999999983
 43
-1352.344475612981
 44
17470.43026801431
 45
51.92281660003864
 46
-0.0000502503489585
 79
     2
 49
11.34925023651022
 49
-3592.016307598095
 53
6.141599999999983
 43
-1352.344475612981
 44
17485.85069329328
 45
51.92281660003864
 46
-0.0000502503489585
 79
     2
 49
11.34925023651022
 49
-3592.016307598095
 53
6.141599999999983
 43
-1352.344475612981
 44
17501.27111857222
 45
51.92281660003864
 46
-0.0000502503489585
 79
     2
 49
11.34925023651022
 49
-3592.016307598095
 53
6.141599999999983
 43
-1352.344475612981
 44
17516.69154385118
 45
51.92281660003864
 46
-0.0000502503489585
 79
     2
 49
11.34925023651022
 49
-3592.016307598095
 53
6.141599999999983
 43
-1352.344475612981
 44
17532.11243066751
 45
51.92281660003864
 46
-0.0000502503489585
 79
     2
 49
11.34925023651022
 49
-3592.016307598095
 53
6.141599999999983
 43
-1352.344475612981
 44
17547.53285594647
 45
51.92281660003864
 46
-0.0000502503489585
 79
     2
 49
11.34925023651022
 49
-3592.016307598095
 53
6.141599999999983
 43
-1352.344475612981
 44
17562.95328122542
 45
51.92281660003864
 46
-0.0000502503489585
 79
     2
 49
11.34925023651022
 49
-3592.016307598095
 53
6.141599999999983
 43
-1352.344475612981
 44
17578.37370650437
 45
51.92281660003864
 46
-0.0000502503489585
 79
     2
 49
11.34925023651022
 49
-3592.016307598095
 53
6.141599999999983
 43
-1352.344475612981
 44
17593.79413178334
 45
51.92281660003864
 46
-0.0000502503489585
 79
     2
 49
11.34925023651022
 49
-3592.016307598095
 53
6.141599999999983
 43
-1352.344475612981
 44
17609.21455706229
 45
51.92281660003864
 46
-0.0000502503489585
 79
     2
 49
11.34925023651022
 49
-3592.016307598095
 53
6.141599999999983
 43
-1352.344475612981
 44
17624.63498234124
 45
51.92281660003864
 46
-0.0000502503489585
 79
     2
 49
11.34925023651022
 49
-3592.016307598095
 53
6.141599999999983
 43
-1352.344475612981
 44
17640.05540762019
 45
51.92281660003864
 46
-0.0000502503489585
 79
     2
 49
11.34925023651022
 49
-3592.016307598095
 53
6.141599999999983
 43
-1352.344475612981
 44
17655.47583289916
 45
51.92281660003864
 46
-0.0000502503489585
 79
     2
 49
11.34925023651022
 49
-3592.016307598095
 53
6.141599999999983
 43
-1352.344475612981
 44
17670.89625817811
 45
51.92281660003864
 46
-0.0000502503489585
 79
     2
 49
11.34925023651022
 49
-3592.016307598095
 53
173.8580000000001
 43
-1341.060394453998
 44
17314.59854212851
 45
0.0000964139596056
 46
15.42045503177991
 79
     2
 49
11.34925023651006
 49
-3592.016307598054
 53
173.8580000000001
 43
-1289.137578083493
 44
17314.59854212851
 45
0.0000964139596056
 46
15.42045503177991
 79
     2
 49
11.34925023651006
 49
-3592.016307598054
 53
173.8580000000001
 43
-1237.214623251772
 44
17314.59854212851
 45
0.0000964139596056
 46
15.42045503177991
 79
     2
 49
11.34925023651006
 49
-3592.016307598054
 53
173.8580000000001
 43
-1185.291668420059
 44
17314.59854212851
 45
0.0000964139596056
 46
15.42045503177991
 79
     2
 49
11.34925023651006
 49
-3592.016307598054
 53
173.8580000000001
 43
-1133.368713588346
 44
17314.59854212851
 45
0.0000964139596056
 46
15.42045503177991
 79
     2
 49
11.34925023651006
 49
-3592.016307598054
 53
173.8580000000001
 43
-1081.445758756625
 44
17314.59854212851
 45
0.0000964139596056
 46
15.42045503177991
 79
     2
 49
11.34925023651006
 49
-3592.016307598054
 53
173.8580000000001
 43
-1029.522803924908
 44
17314.59854212851
 45
0.0000964139596056
 46
15.42045503177991
 79
     2
 49
11.34925023651006
 49
-3592.016307598054
 53
173.8580000000001
 43
-977.5998490931906
 44
17314.59854212851
 45
0.0000964139596056
 46
15.42045503177991
 79
     2
 49
11.34925023651006
 49
-3592.016307598054
 53
173.8580000000001
 43
-925.6768942614781
 44
17314.59854212851
 45
0.0000964139596056
 46
15.42045503177991
 79
     2
 49
11.34925023651006
 49
-3592.016307598054
 53
173.8580000000001
 43
-873.7516317428781
 44
17314.59854212851
 45
0.0000964139596056
 46
15.42045503177991
 79
     2
 49
11.34925023651006
 49
-3592.016307598054
 53
173.8580000000001
 43
-821.8286769111619
 44
17314.59854212851
 45
0.0000964139596056
 46
15.42045503177991
 79
     2
 49
11.34925023651006
 49
-3592.016307598054
 53
173.8580000000001
 43
-769.9057220794384
 44
17314.59854212851
 45
0.0000964139596056
 46
15.42045503177991
 79
     2
 49
11.34925023651006
 49
-3592.016307598054
 53
173.8580000000001
 43
-717.9827672477276
 44
17314.59854212851
 45
0.0000964139596056
 46
15.42045503177991
 79
     2
 49
11.34925023651006
 49
-3592.016307598054
 53
173.8580000000001
 43
-666.0598124160151
 44
17314.59854212851
 45
0.0000964139596056
 46
15.42045503177991
 79
     2
 49
11.34925023651006
 49
-3592.016307598054
 53
173.8580000000001
 43
-614.1368575842935
 44
17314.59854212851
 45
0.0000964139596056
 46
15.42045503177991
 79
     2
 49
11.34925023651006
 49
-3592.016307598054
 53
173.8580000000001
 43
-562.2139027525754
 44
17314.59854212851
 45
0.0000964139596056
 46
15.42045503177991
 79
     2
 49
11.34925023651006
 49
-3592.016307598054
 53
173.8580000000001
 43
-510.2909479208592
 44
17314.59854212851
 45
0.0000964139596056
 46
15.42045503177991
 79
     2
 49
11.34925023651006
 49
-3592.016307598054
 53
173.8580000000001
 43
-458.3679930891412
 44
17314.59854212851
 45
0.0000964139596056
 46
15.42045503177991
 79
     2
 49
11.34925023651006
 49
-3592.016307598054
 53
173.8580000000001
 43
-406.4450382574305
 44
17314.59854212851
 45
0.0000964139596056
 46
15.42045503177991
 79
     2
 49
11.34925023651006
 49
-3592.016307598054
 53
173.8580000000001
 43
-354.5220834257125
 44
17314.59854212851
 45
0.0000964139596056
 46
15.42045503177991
 79
     2
 49
11.34925023651006
 49
-3592.016307598054
 53
173.8580000000001
 43
-302.5991285939908
 44
17314.59854212851
 45
0.0000964139596056
 46
15.42045503177991
 79
     2
 49
11.34925023651006
 49
-3592.016307598054
 53
173.8580000000001
 43
-250.6761737622783
 44
17314.59854212851
 45
0.0000964139596056
 46
15.42045503177991
 79
     2
 49
11.34925023651006
 49
-3592.016307598054
 53
173.8580000000001
 43
-198.753218930562
 44
17314.59854212851
 45
0.0000964139596056
 46
15.42045503177991
 79
     2
 49
11.34925023651006
 49
-3592.016307598054
 53
173.8580000000001
 43
-146.830264098844
 44
17314.59854212851
 45
0.0000964139596056
 46
15.42045503177991
 79
     2
 49
11.34925023651006
 49
-3592.016307598054
 53
173.8580000000001
 43
-94.9073092671224
 44
17314.59854212851
 45
0.0000964139596056
 46
15.42045503177991
 79
     2
 49
11.34925023651006
 49
-3592.016307598054
 53
173.8580000000001
 43
-42.98435443540983
 44
17314.59854212851
 45
0.0000964139596056
 46
15.42045503177991
 79
     2
 49
11.34925023651006
 49
-3592.016307598054
 53
173.8580000000001
 43
8.938600396311812
 44
17314.59854212851
 45
0.0000964139596056
 46
15.42045503177991
 79
     2
 49
11.34925023651006
 49
-3592.016307598054
 53
173.8580000000001
 43
60.86155522802437
 44
17314.59854212851
 45
0.0000964139596056
 46
15.42045503177991
 79
     2
 49
11.34925023651006
 49
-3592.016307598054
 53
173.8580000000001
 43
112.784510059746
 44
17314.59854212851
 45
0.0000964139596056
 46
15.42045503177991
 79
     2
 49
11.34925023651006
 49
-3592.016307598054
 53
173.8580000000001
 43
164.7074648914568
 44
17314.59854212851
 45
0.0000964139596056
 46
15.42045503177991
 79
     2
 49
11.34925023651006
 49
-3592.016307598054
 53
173.8580000000001
 43
216.6304197231693
 44
17314.59854212851
 45
0.0000964139596056
 46
15.42045503177991
 79
     2
 49
11.34925023651006
 49
-3592.016307598054
 53
173.8580000000001
 43
268.5533745548928
 44
17314.59854212851
 45
0.0000964139596056
 46
15.42045503177991
 79
     2
 49
11.34925023651006
 49
-3592.016307598054
 53
173.8580000000001
 43
320.476329386609
 44
17314.59854212851
 45
0.0000964139596056
 46
15.42045503177991
 79
     2
 49
11.34925023651006
 49
-3592.016307598054
 53
173.8580000000001
 43
372.3992842183252
 44
17314.59854212851
 45
0.0000964139596056
 46
15.42045503177991
 79
     2
 49
11.34925023651006
 49
-3592.016307598054
 53
173.8580000000001
 43
424.3222390500413
 44
17314.59854212851
 45
0.0000964139596056
 46
15.42045503177991
 79
     2
 49
11.34925023651006
 49
-3592.016307598054
 53
173.8580000000001
 43
476.2451938817612
 44
17314.59854212851
 45
0.0000964139596056
 46
15.42045503177991
 79
     2
 49
11.34925023651006
 49
-3592.016307598054
 53
173.8580000000001
 43
528.1681487134737
 44
17314.59854212851
 45
0.0000964139596056
 46
15.42045503177991
 79
     2
 49
11.34925023651006
 49
-3592.016307598054
 53
173.8580000000001
 43
580.09110354519
 44
17314.59854212851
 45
0.0000964139596056
 46
15.42045503177991
 79
     2
 49
11.34925023651006
 49
-3592.016307598054
 53
173.8580000000001
 43
632.0140583769098
 44
17314.59854212851
 45
0.0000964139596056
 46
15.42045503177991
 79
     2
 49
11.34925023651006
 49
-3592.016307598054
 53
173.8580000000001
 43
683.9370132086223
 44
17314.59854212851
 45
0.0000964139596056
 46
15.42045503177991
 79
     2
 49
11.34925023651006
 49
-3592.016307598054
 53
173.8580000000001
 43
735.8599680403422
 44
17314.59854212851
 45
0.0000964139596056
 46
15.42045503177991
 79
     2
 49
11.34925023651006
 49
-3592.016307598054
 53
173.8580000000001
 43
787.7829228720583
 44
17314.59854212851
 45
0.0000964139596056
 46
15.42045503177991
 79
     2
 49
11.34925023651006
 49
-3592.016307598054
 53
173.8580000000001
 43
839.7058777037745
 44
17314.59854212851
 45
0.0000964139596056
 46
15.42045503177991
 79
     2
 49
11.34925023651006
 49
-3592.016307598054
 53
173.8580000000001
 43
891.6288325354909
 44
17314.59854212851
 45
0.0000964139596056
 46
15.42045503177991
 79
     2
 49
11.34925023651006
 49
-3592.016307598054
 53
173.8580000000001
 43
943.5517873672106
 44
17314.59854212851
 45
0.0000964139596056
 46
15.42045503177991
 79
     2
 49
11.34925023651006
 49
-3592.016307598054
 53
173.8580000000001
 43
995.4747421989267
 44
17314.59854212851
 45
0.0000964139596056
 46
15.42045503177991
 79
     2
 49
11.34925023651006
 49
-3592.016307598054
 53
173.8580000000001
 43
1047.397697030643
 44
17314.59854212851
 45
0.0000964139596056
 46
15.42045503177991
 79
     2
 49
11.34925023651006
 49
-3592.016307598054
 53
173.8580000000001
 43
1099.320651862366
 44
17314.59854212851
 45
0.0000964139596056
 46
15.42045503177991
 79
     2
 49
11.34925023651006
 49
-3592.016307598054
 53
173.8580000000001
 43
1151.243606694072
 44
17314.59854212851
 45
0.0000964139596056
 46
15.42045503177991
 79
     2
 49
11.34925023651006
 49
-3592.016307598054
 53
173.8580000000001
 43
1203.166561525788
 44
17314.59854212851
 45
0.0000964139596056
 46
15.42045503177991
 79
     2
 49
11.34925023651006
 49
-3592.016307598054
 53
173.8580000000001
 43
1255.089516357511
 44
17314.59854212851
 45
0.0000964139596056
 46
15.42045503177991
 79
     2
 49
11.34925023651006
 49
-3592.016307598054
 53
173.8580000000001
 43
1307.012471189227
 44
17314.59854212851
 45
0.0000964139596056
 46
15.42045503177991
 79
     2
 49
11.34925023651006
 49
-3592.016307598054
 53
173.8580000000001
 43
1358.935426020947
 44
17314.59854212851
 45
0.0000964139596056
 46
15.42045503177991
 79
     2
 49
11.34925023651006
 49
-3592.016307598054
 53
173.8580000000001
 43
1410.858380852664
 44
17314.59854212851
 45
0.0000964139596056
 46
15.42045503177991
 79
     2
 49
11.34925023651006
 49
-3592.016307598054
 53
173.8580000000001
 43
1462.781335684376
 44
17314.59854212851
 45
0.0000964139596056
 46
15.42045503177991
 79
     2
 49
11.34925023651006
 49
-3592.016307598054
 53
173.8580000000001
 43
1514.704290516092
 44
17314.59854212851
 45
0.0000964139596056
 46
15.42045503177991
 79
     2
 49
11.34925023651006
 49
-3592.016307598054
 53
173.8580000000001
 43
1566.627245347816
 44
17314.59854212851
 45
0.0000964139596056
 46
15.42045503177991
 79
     2
 49
11.34925023651006
 49
-3592.016307598054
 53
173.8580000000001
 43
1618.550200179525
 44
17314.59854212851
 45
0.0000964139596056
 46
15.42045503177991
 79
     2
 49
11.34925023651006
 49
-3592.016307598054
 53
173.8580000000001
 43
1670.473155011245
 44
17314.59854212851
 45
0.0000964139596056
 46
15.42045503177991
 79
     2
 49
11.34925023651006
 49
-3592.016307598054
 53
173.8580000000001
 43
1722.396109842961
 44
17314.59854212851
 45
0.0000964139596056
 46
15.42045503177991
 79
     2
 49
11.34925023651006
 49
-3592.016307598054
 53
173.8580000000001
 43
1774.319064674677
 44
17314.59854212851
 45
0.0000964139596056
 46
15.42045503177991
 79
     2
 49
11.34925023651006
 49
-3592.016307598054
 53
173.8580000000001
 43
1826.242019506393
 44
17314.59854212851
 45
0.0000964139596056
 46
15.42045503177991
 79
     2
 49
11.34925023651006
 49
-3592.016307598054
 53
173.8580000000001
 43
1878.164974338109
 44
17314.59854212851
 45
0.0000964139596056
 46
15.42045503177991
 79
     2
 49
11.34925023651006
 49
-3592.016307598054
 53
173.8580000000001
 43
1930.087929169829
 44
17314.59854212851
 45
0.0000964139596056
 46
15.42045503177991
 79
     2
 49
11.34925023651006
 49
-3592.016307598054
 53
173.8580000000001
 43
1982.010884001545
 44
17314.59854212851
 45
0.0000964139596056
 46
15.42045503177991
 79
     2
 49
11.34925023651006
 49
-3592.016307598054
 53
173.8580000000001
 43
2033.933838833265
 44
17314.59854212851
 45
0.0000964139596056
 46
15.42045503177991
 79
     2
 49
11.34925023651006
 49
-3592.016307598054
 53
173.8580000000001
 43
2085.856793664982
 44
17314.59854212851
 45
0.0000964139596056
 46
15.42045503177991
 79
     2
 49
11.34925023651006
 49
-3592.016307598054
 53
173.8580000000001
 43
2137.77974849669
 44
17314.59854212851
 45
0.0000964139596056
 46
15.42045503177991
 79
     2
 49
11.34925023651006
 49
-3592.016307598054
 53
173.8580000000001
 43
2189.702703328414
 44
17314.59854212851
 45
0.0000964139596056
 46
15.42045503177991
 79
     2
 49
11.34925023651006
 49
-3592.016307598054
 53
173.253
 43
-1319.839275122458
 44
17308.77057121699
 45
-0.0001124430909783
 46
15.42047771894057
 79
     2
 49
10.4188831934011
 49
-6420.647671753946
 53
173.253
 43
-1267.916551059427
 44
17308.77057121699
 45
-0.0001124430909783
 46
15.42047771894057
 79
     2
 49
10.4188831934011
 49
-6420.647671753946
 53
173.253
 43
-1215.993596227709
 44
17308.77057121699
 45
-0.0001124430909783
 46
15.42047771894057
 79
     2
 49
10.4188831934011
 49
-6420.647671753946
 53
173.253
 43
-1164.070641395992
 44
17308.77057121699
 45
-0.0001124430909783
 46
15.42047771894057
 79
     2
 49
10.4188831934011
 49
-6420.647671753946
 53
173.253
 43
-1112.14768656428
 44
17308.77057121699
 45
-0.0001124430909783
 46
15.42047771894057
 79
     2
 49
10.4188831934011
 49
-6420.647671753946
 53
173.253
 43
-1060.224731732563
 44
17308.77057121699
 45
-0.0001124430909783
 46
15.42047771894057
 79
     2
 49
10.4188831934011
 49
-6420.647671753946
 53
173.253
 43
-1008.30177690084
 44
17308.77057121699
 45
-0.0001124430909783
 46
15.42047771894057
 79
     2
 49
10.4188831934011
 49
-6420.647671753946
 53
173.253
 43
-956.3788220691295
 44
17308.77057121699
 45
-0.0001124430909783
 46
15.42047771894057
 79
     2
 49
10.4188831934011
 49
-6420.647671753946
 53
173.253
 43
-904.4558672374078
 44
17308.77057121699
 45
-0.0001124430909783
 46
15.42047771894057
 79
     2
 49
10.4188831934011
 49
-6420.647671753946
 53
173.253
 43
-852.5347585551971
 44
17308.77057121699
 45
-0.0001124430909783
 46
15.42047771894057
 79
     2
 49
10.4188831934011
 49
-6420.647671753946
 53
173.253
 43
-800.6118037234847
 44
17308.77057121699
 45
-0.0001124430909783
 46
15.42047771894057
 79
     2
 49
10.4188831934011
 49
-6420.647671753946
 53
173.253
 43
-748.6888488917629
 44
17308.77057121699
 45
-0.0001124430909783
 46
15.42047771894057
 79
     2
 49
10.4188831934011
 49
-6420.647671753946
 53
173.253
 43
-696.7658940600522
 44
17308.77057121699
 45
-0.0001124430909783
 46
15.42047771894057
 79
     2
 49
10.4188831934011
 49
-6420.647671753946
 53
173.253
 43
-644.8429392283287
 44
17308.77057121699
 45
-0.0001124430909783
 46
15.42047771894057
 79
     2
 49
10.4188831934011
 49
-6420.647671753946
 53
173.253
 43
-592.919984396607
 44
17308.77057121699
 45
-0.0001124430909783
 46
15.42047771894057
 79
     2
 49
10.4188831934011
 49
-6420.647671753946
 53
173.253
 43
-540.9970295648945
 44
17308.77057121699
 45
-0.0001124430909783
 46
15.42047771894057
 79
     2
 49
10.4188831934011
 49
-6420.647671753946
 53
173.253
 43
-489.0740747331838
 44
17308.77057121699
 45
-0.0001124430909783
 46
15.42047771894057
 79
     2
 49
10.4188831934011
 49
-6420.647671753946
 53
173.253
 43
-437.1511199014603
 44
17308.77057121699
 45
-0.0001124430909783
 46
15.42047771894057
 79
     2
 49
10.4188831934011
 49
-6420.647671753946
 53
173.253
 43
-385.2281650697441
 44
17308.77057121699
 45
-0.0001124430909783
 46
15.42047771894057
 79
     2
 49
10.4188831934011
 49
-6420.647671753946
 53
173.253
 43
-333.3052102380261
 44
17308.77057121699
 45
-0.0001124430909783
 46
15.42047771894057
 79
     2
 49
10.4188831934011
 49
-6420.647671753946
 53
173.253
 43
-281.3822554063154
 44
17308.77057121699
 45
-0.0001124430909783
 46
15.42047771894057
 79
     2
 49
10.4188831934011
 49
-6420.647671753946
 53
173.253
 43
-229.4593005746028
 44
17308.77057121699
 45
-0.0001124430909783
 46
15.42047771894057
 79
     2
 49
10.4188831934011
 49
-6420.647671753946
 53
173.253
 43
-177.5363457428793
 44
17308.77057121699
 45
-0.0001124430909783
 46
15.42047771894057
 79
     2
 49
10.4188831934011
 49
-6420.647671753946
 53
173.253
 43
-125.6133909111595
 44
17308.77057121699
 45
-0.0001124430909783
 46
15.42047771894057
 79
     2
 49
10.4188831934011
 49
-6420.647671753946
 53
173.253
 43
-73.69043607944695
 44
17308.77057121699
 45
-0.0001124430909783
 46
15.42047771894057
 79
     2
 49
10.4188831934011
 49
-6420.647671753946
 53
173.253
 43
-21.76748124772894
 44
17308.77057121699
 45
-0.0001124430909783
 46
15.42047771894057
 79
     2
 49
10.4188831934011
 49
-6420.647671753946
 53
173.253
 43
30.15547358398726
 44
17308.77057121699
 45
-0.0001124430909783
 46
15.42047771894057
 79
     2
 49
10.4188831934011
 49
-6420.647671753946
 53
173.253
 43
82.07842841570528
 44
17308.77057121699
 45
-0.0001124430909783
 46
15.42047771894057
 79
     2
 49
10.4188831934011
 49
-6420.647671753946
 53
173.253
 43
134.0013832474215
 44
17308.77057121699
 45
-0.0001124430909783
 46
15.42047771894057
 79
     2
 49
10.4188831934011
 49
-6420.647671753946
 53
173.253
 43
185.9243380791376
 44
17308.77057121699
 45
-0.0001124430909783
 46
15.42047771894057
 79
     2
 49
10.4188831934011
 49
-6420.647671753946
 53
173.253
 43
237.8472929108557
 44
17308.77057121699
 45
-0.0001124430909783
 46
15.42047771894057
 79
     2
 49
10.4188831934011
 49
-6420.647671753946
 53
173.253
 43
289.7702477425737
 44
17308.77057121699
 45
-0.0001124430909783
 46
15.42047771894057
 79
     2
 49
10.4188831934011
 49
-6420.647671753946
 53
173.253
 43
341.6932025742899
 44
17308.77057121699
 45
-0.0001124430909783
 46
15.42047771894057
 79
     2
 49
10.4188831934011
 49
-6420.647671753946
 53
173.253
 43
393.6161574060025
 44
17308.77057121699
 45
-0.0001124430909783
 46
15.42047771894057
 79
     2
 49
10.4188831934011
 49
-6420.647671753946
 53
173.253
 43
445.5391122377186
 44
17308.77057121699
 45
-0.0001124430909783
 46
15.42047771894057
 79
     2
 49
10.4188831934011
 49
-6420.647671753946
 53
173.253
 43
497.4620670694348
 44
17308.77057121699
 45
-0.0001124430909783
 46
15.42047771894057
 79
     2
 49
10.4188831934011
 49
-6420.647671753946
 53
173.253
 43
549.3850219011583
 44
17308.77057121699
 45
-0.0001124430909783
 46
15.42047771894057
 79
     2
 49
10.4188831934011
 49
-6420.647671753946
 53
173.253
 43
601.3079767328709
 44
17308.77057121699
 45
-0.0001124430909783
 46
15.42047771894057
 79
     2
 49
10.4188831934011
 49
-6420.647671753946
 53
173.253
 43
653.2309315645943
 44
17308.77057121699
 45
-0.0001124430909783
 46
15.42047771894057
 79
     2
 49
10.4188831934011
 49
-6420.647671753946
 53
173.253
 43
705.1538863963032
 44
17308.77057121699
 45
-0.0001124430909783
 46
15.42047771894057
 79
     2
 49
10.4188831934011
 49
-6420.647671753946
 53
173.253
 43
757.0768412280231
 44
17308.77057121699
 45
-0.0001124430909783
 46
15.42047771894057
 79
     2
 49
10.4188831934011
 49
-6420.647671753946
 53
173.253
 43
808.9997960597393
 44
17308.77057121699
 45
-0.0001124430909783
 46
15.42047771894057
 79
     2
 49
10.4188831934011
 49
-6420.647671753946
 53
173.253
 43
860.9227508914555
 44
17308.77057121699
 45
-0.0001124430909783
 46
15.42047771894057
 79
     2
 49
10.4188831934011
 49
-6420.647671753946
 53
173.253
 43
912.8457057231717
 44
17308.77057121699
 45
-0.0001124430909783
 46
15.42047771894057
 79
     2
 49
10.4188831934011
 49
-6420.647671753946
 53
173.253
 43
964.7686605548916
 44
17308.77057121699
 45
-0.0001124430909783
 46
15.42047771894057
 79
     2
 49
10.4188831934011
 49
-6420.647671753946
 53
173.253
 43
1016.691615386608
 44
17308.77057121699
 45
-0.0001124430909783
 46
15.42047771894057
 79
     2
 49
10.4188831934011
 49
-6420.647671753946
 53
173.253
 43
1068.61457021832
 44
17308.77057121699
 45
-0.0001124430909783
 46
15.42047771894057
 79
     2
 49
10.4188831934011
 49
-6420.647671753946
 53
173.253
 43
1120.53752505004
 44
17308.77057121699
 45
-0.0001124430909783
 46
15.42047771894057
 79
     2
 49
10.4188831934011
 49
-6420.647671753946
 53
173.253
 43
1172.46047988176
 44
17308.77057121699
 45
-0.0001124430909783
 46
15.42047771894057
 79
     2
 49
10.4188831934011
 49
-6420.647671753946
 53
173.253
 43
1224.383434713476
 44
17308.77057121699
 45
-0.0001124430909783
 46
15.42047771894057
 79
     2
 49
10.4188831934011
 49
-6420.647671753946
 53
173.253
 43
1276.306389545192
 44
17308.77057121699
 45
-0.0001124430909783
 46
15.42047771894057
 79
     2
 49
10.4188831934011
 49
-6420.647671753946
 53
173.253
 43
1328.229344376905
 44
17308.77057121699
 45
-0.0001124430909783
 46
15.42047771894057
 79
     2
 49
10.4188831934011
 49
-6420.647671753946
 53
173.253
 43
1380.152299208621
 44
17308.77057121699
 45
-0.0001124430909783
 46
15.42047771894057
 79
     2
 49
10.4188831934011
 49
-6420.647671753946
 53
173.253
 43
1432.075254040337
 44
17308.77057121699
 45
-0.0001124430909783
 46
15.42047771894057
 79
     2
 49
10.4188831934011
 49
-6420.647671753946
 53
173.253
 43
1483.998208872061
 44
17308.77057121699
 45
-0.0001124430909783
 46
15.42047771894057
 79
     2
 49
10.4188831934011
 49
-6420.647671753946
 53
173.253
 43
1535.921163703773
 44
17308.77057121699
 45
-0.0001124430909783
 46
15.42047771894057
 79
     2
 49
10.4188831934011
 49
-6420.647671753946
 53
173.253
 43
1587.844118535497
 44
17308.77057121699
 45
-0.0001124430909783
 46
15.42047771894057
 79
     2
 49
10.4188831934011
 49
-6420.647671753946
 53
173.253
 43
1639.767073367206
 44
17308.77057121699
 45
-0.0001124430909783
 46
15.42047771894057
 79
     2
 49
10.4188831934011
 49
-6420.647671753946
 53
173.253
 43
1691.690028198926
 44
17308.77057121699
 45
-0.0001124430909783
 46
15.42047771894057
 79
     2
 49
10.4188831934011
 49
-6420.647671753946
 53
173.253
 43
1743.612983030641
 44
17308.77057121699
 45
-0.0001124430909783
 46
15.42047771894057
 79
     2
 49
10.4188831934011
 49
-6420.647671753946
 53
173.253
 43
1795.535937862358
 44
17308.77057121699
 45
-0.0001124430909783
 46
15.42047771894057
 79
     2
 49
10.4188831934011
 49
-6420.647671753946
 53
173.253
 43
1847.458892694074
 44
17308.77057121699
 45
-0.0001124430909783
 46
15.42047771894057
 79
     2
 49
10.4188831934011
 49
-6420.647671753946
 53
173.253
 43
1899.38184752579
 44
17308.77057121699
 45
-0.0001124430909783
 46
15.42047771894057
 79
     2
 49
10.4188831934011
 49
-6420.647671753946
 53
173.253
 43
1951.30480235751
 44
17308.77057121699
 45
-0.0001124430909783
 46
15.42047771894057
 79
     2
 49
10.4188831934011
 49
-6420.647671753946
 53
173.253
 43
2003.227757189227
 44
17308.77057121699
 45
-0.0001124430909783
 46
15.42047771894057
 79
     2
 49
10.4188831934011
 49
-6420.647671753946
 53
173.253
 43
2055.150712020939
 44
17308.77057121699
 45
-0.0001124430909783
 46
15.42047771894057
 79
     2
 49
10.4188831934011
 49
-6420.647671753946
 53
173.253
 43
2107.073666852663
 44
17308.77057121699
 45
-0.0001124430909783
 46
15.42047771894057
 79
     2
 49
10.4188831934011
 49
-6420.647671753946
 53
173.253
 43
2158.996621684379
 44
17308.77057121699
 45
-0.0001124430909783
 46
15.42047771894057
 79
     2
 49
10.4188831934011
 49
-6420.647671753946
 53
173.253
 43
2210.919576516095
 44
17308.77057121699
 45
-0.0001124430909783
 46
15.42047771894057
 79
     2
 49
10.4188831934011
 49
-6420.647671753946
 53
173.253
 43
2262.842531347807
 44
17308.77057121699
 45
-0.0001124430909783
 46
15.42047771894057
 79
     2
 49
10.4188831934011
 49
-6420.647671753946
 53
173.253
 43
2314.765486179524
 44
17308.77057121699
 45
-0.0001124430909783
 46
15.42047771894057
 79
     2
 49
10.4188831934011
 49
-6420.647671753946
 53
173.253
 43
2366.68844101124
 44
17308.77057121699
 45
-0.0001124430909783
 46
15.42047771894057
 79
     2
 49
10.4188831934011
 49
-6420.647671753946
 53
173.253
 43
2418.611395842964
 44
17308.77057121699
 45
-0.0001124430909783
 46
15.42047771894057
 79
     2
 49
10.4188831934011
 49
-6420.647671753946
 53
173.253
 43
2470.534350674676
 44
17308.77057121699
 45
-0.0001124430909783
 46
15.42047771894057
 79
     2
 49
10.4188831934011
 49
-6420.647671753946
 53
173.253
 43
2522.457305506385
 44
17308.77057121699
 45
-0.0001124430909783
 46
15.42047771894057
 79
     2
 49
10.4188831934011
 49
-6420.647671753946
 53
173.253
 43
2574.380260338108
 44
17308.77057121699
 45
-0.0001124430909783
 46
15.42047771894057
 79
     2
 49
10.4188831934011
 49
-6420.647671753946
 53
173.253
 43
2626.303215169825
 44
17308.77057121699
 45
-0.0001124430909783
 46
15.42047771894057
 79
     2
 49
10.4188831934011
 49
-6420.647671753946
 53
173.253
 43
2678.226170001541
 44
17308.77057121699
 45
-0.0001124430909783
 46
15.42047771894057
 79
     2
 49
10.4188831934011
 49
-6420.647671753946
 53
173.253
 43
2730.149124833261
 44
17308.77057121699
 45
-0.0001124430909783
 46
15.42047771894057
 79
     2
 49
10.4188831934011
 49
-6420.647671753946
 53
173.253
 43
2782.072079664977
 44
17308.77057121699
 45
-0.0001124430909783
 46
15.42047771894057
 79
     2
 49
10.4188831934011
 49
-6420.647671753946
 53
173.253
 43
2833.995034496697
 44
17308.77057121699
 45
-0.0001124430909783
 46
15.42047771894057
 79
     2
 49
10.4188831934011
 49
-6420.647671753946
 53
173.253
 43
2885.917989328413
 44
17308.77057121699
 45
-0.0001124430909783
 46
15.42047771894057
 79
     2
 49
10.4188831934011
 49
-6420.647671753946
 53
173.253
 43
2937.840944160129
 44
17308.77057121699
 45
-0.0001124430909783
 46
15.42047771894057
 79
     2
 49
10.4188831934011
 49
-6420.647671753946
 53
173.253
 43
2989.763898991842
 44
17308.77057121699
 45
-0.0001124430909783
 46
15.42047771894057
 79
     2
 49
10.4188831934011
 49
-6420.647671753946
 53
173.253
 43
3041.686853823561
 44
17308.77057121699
 45
-0.0001124430909783
 46
15.42047771894057
 79
     2
 49
10.4188831934011
 49
-6420.647671753946
 53
173.253
 43
3093.609808655278
 44
17308.77057121699
 45
-0.0001124430909783
 46
15.42047771894057
 79
     2
 49
10.4188831934011
 49
-6420.647671753946
 53
173.253
 43
3145.53276348699
 44
17308.77057121699
 45
-0.0001124430909783
 46
15.42047771894057
 79
     2
 49
10.4188831934011
 49
-6420.647671753946
 53
173.253
 43
3197.45571831871
 44
17308.77057121699
 45
-0.0001124430909783
 46
15.42047771894057
 79
     2
 49
10.4188831934011
 49
-6420.647671753946
 53
173.253
 43
3249.378673150426
 44
17308.77057121699
 45
-0.0001124430909783
 46
15.42047771894057
 79
     2
 49
10.4188831934011
 49
-6420.647671753946
 53
173.253
 43
3301.30624335591
 44
17308.77057121699
 45
-0.0001124430909783
 46
15.42047771894057
 79
     2
 49
10.4188831934011
 49
-6420.647671753946
 53
173.253
 43
3353.229198187626
 44
17308.77057121699
 45
-0.0001124430909783
 46
15.42047771894057
 79
     2
 49
10.4188831934011
 49
-6420.647671753946
 53
173.253
 43
3405.152153019343
 44
17308.77057121699
 45
-0.0001124430909783
 46
15.42047771894057
 79
     2
 49
10.4188831934011
 49
-6420.647671753946
 53
173.253
 43
3457.075107851055
 44
17308.77057121699
 45
-0.0001124430909783
 46
15.42047771894057
 79
     2
 49
10.4188831934011
 49
-6420.647671753946
 53
173.253
 43
3508.998062682771
 44
17308.77057121699
 45
-0.0001124430909783
 46
15.42047771894057
 79
     2
 49
10.4188831934011
 49
-6420.647671753946
 53
173.253
 43
3560.921017514495
 44
17308.77057121699
 45
-0.0001124430909783
 46
15.42047771894057
 79
     2
 49
10.4188831934011
 49
-6420.647671753946
 53
173.253
 43
3612.843972346211
 44
17308.77057121699
 45
-0.0001124430909783
 46
15.42047771894057
 79
     2
 49
10.4188831934011
 49
-6420.647671753946
 53
173.253
 43
3664.766927177927
 44
17308.77057121699
 45
-0.0001124430909783
 46
15.42047771894057
 79
     2
 49
10.4188831934011
 49
-6420.647671753946
 53
173.253
 43
3716.689882009647
 44
17308.77057121699
 45
-0.0001124430909783
 46
15.42047771894057
 79
     2
 49
10.4188831934011
 49
-6420.647671753946
 53
173.253
 43
3768.612836841359
 44
17308.77057121699
 45
-0.0001124430909783
 46
15.42047771894057
 79
     2
 49
10.4188831934011
 49
-6420.647671753946
 53
173.253
 43
3820.535791673075
 44
17308.77057121699
 45
-0.0001124430909783
 46
15.42047771894057
 79
     2
 49
10.4188831934011
 49
-6420.647671753946
 53
173.253
 43
3872.458746504799
 44
17308.77057121699
 45
-0.0001124430909783
 46
15.42047771894057
 79
     2
 49
10.4188831934011
 49
-6420.647671753946
 53
173.253
 43
3924.381701336508
 44
17308.77057121699
 45
-0.0001124430909783
 46
15.42047771894057
 79
     2
 49
10.4188831934011
 49
-6420.647671753946
 53
173.253
 43
3976.304656168224
 44
17308.77057121699
 45
-0.0001124430909783
 46
15.42047771894057
 79
     2
 49
10.4188831934011
 49
-6420.647671753946
 53
173.253
 43
4028.227610999944
 44
17308.77057121699
 45
-0.0001124430909783
 46
15.42047771894057
 79
     2
 49
10.4188831934011
 49
-6420.647671753946
 53
173.253
 43
4080.15056583166
 44
17308.77057121699
 45
-0.0001124430909783
 46
15.42047771894057
 79
     2
 49
10.4188831934011
 49
-6420.647671753946
 53
173.253
 43
4132.073520663376
 44
17308.77057121699
 45
-0.0001124430909783
 46
15.42047771894057
 79
     2
 49
10.4188831934011
 49
-6420.647671753946
 53
173.253
 43
4183.996475495096
 44
17308.77057121699
 45
-0.0001124430909783
 46
15.42047771894057
 79
     2
 49
10.4188831934011
 49
-6420.647671753946
 53
173.253
 43
4235.919430326812
 44
17308.77057121699
 45
-0.0001124430909783
 46
15.42047771894057
 79
     2
 49
10.4188831934011
 49
-6420.647671753946
 53
173.253
 43
4287.842385158529
 44
17308.77057121699
 45
-0.0001124430909783
 46
15.42047771894057
 79
     2
 49
10.4188831934011
 49
-6420.647671753946
 53
173.253
 43
4339.765339990252
 44
17308.77057121699
 45
-0.0001124430909783
 46
15.42047771894057
 79
     2
 49
10.4188831934011
 49
-6420.647671753946
 53
173.253
 43
4391.68829482196
 44
17308.77057121699
 45
-0.0001124430909783
 46
15.42047771894057
 79
     2
 49
10.4188831934011
 49
-6420.647671753946
 53
173.253
 43
4443.611249653677
 44
17308.77057121699
 45
-0.0001124430909783
 46
15.42047771894057
 79
     2
 49
10.4188831934011
 49
-6420.647671753946
 53
173.253
 43
4495.534204485397
 44
17308.77057121699
 45
-0.0001124430909783
 46
15.42047771894057
 79
     2
 49
10.4188831934011
 49
-6420.647671753946
 53
173.253
 43
4547.457159317113
 44
17308.77057121699
 45
-0.0001124430909783
 46
15.42047771894057
 79
     2
 49
10.4188831934011
 49
-6420.647671753946
 53
173.253
 43
4599.380114148833
 44
17308.77057121699
 45
-0.0001124430909783
 46
15.42047771894057
 79
     2
 49
10.4188831934011
 49
-6420.647671753946
 53
173.253
 43
4651.303068980548
 44
17308.77057121699
 45
-0.0001124430909783
 46
15.42047771894057
 79
     2
 49
10.4188831934011
 49
-6420.647671753946
 53
173.253
 43
4703.226023812262
 44
17308.77057121699
 45
-0.0001124430909783
 46
15.42047771894057
 79
     2
 49
10.4188831934011
 49
-6420.647671753946
 53
173.253
 43
4755.148978643978
 44
17308.77057121699
 45
-0.0001124430909783
 46
15.42047771894057
 79
     2
 49
10.4188831934011
 49
-6420.647671753946
 53
173.253
 43
4807.071933475698
 44
17308.77057121699
 45
-0.0001124430909783
 46
15.42047771894057
 79
     2
 49
10.4188831934011
 49
-6420.647671753946
 53
173.253
 43
4858.994888307414
 44
17308.77057121699
 45
-0.0001124430909783
 46
15.42047771894057
 79
     2
 49
10.4188831934011
 49
-6420.647671753946
 53
173.253
 43
4910.91784313913
 44
17308.77057121699
 45
-0.0001124430909783
 46
15.42047771894057
 79
     2
 49
10.4188831934011
 49
-6420.647671753946
 53
173.253
 43
4962.840797970846
 44
17308.77057121699
 45
-0.0001124430909783
 46
15.42047771894057
 79
     2
 49
10.4188831934011
 49
-6420.647671753946
 53
173.253
 43
5014.763752802562
 44
17308.77057121699
 45
-0.0001124430909783
 46
15.42047771894057
 79
     2
 49
10.4188831934011
 49
-6420.647671753946
 53
164.891
 43
-1314.892286754781
 44
17306.51291498717
 45
0.0000042855372929
 46
15.42045352479333
 79
     2
 49
5.123664875318557
 49
-586.4794671091429
 53
164.891
 43
-1262.969331923059
 44
17306.51291498717
 45
0.0000042855372929
 46
15.42045352479333
 79
     2
 49
5.123664875318557
 49
-586.4794671091429
 53
164.891
 43
-1211.046377091348
 44
17306.51291498717
 45
0.0000042855372929
 46
15.42045352479333
 79
     2
 49
5.123664875318557
 49
-586.4794671091429
 53
164.891
 43
-1159.123422259625
 44
17306.51291498717
 45
0.0000042855372929
 46
15.42045352479333
 79
     2
 49
5.123664875318557
 49
-586.4794671091429
 53
164.891
 43
-1107.200467427909
 44
17306.51291498717
 45
0.0000042855372929
 46
15.42045352479333
 79
     2
 49
5.123664875318557
 49
-586.4794671091429
 53
164.891
 43
-1055.277512596191
 44
17306.51291498717
 45
0.0000042855372929
 46
15.42045352479333
 79
     2
 49
5.123664875318557
 49
-586.4794671091429
 53
164.891
 43
-1003.35455776448
 44
17306.51291498717
 45
0.0000042855372929
 46
15.42045352479333
 79
     2
 49
5.123664875318557
 49
-586.4794671091429
 53
164.891
 43
-951.4316029327565
 44
17306.51291498717
 45
0.0000042855372929
 46
15.42045352479333
 79
     2
 49
5.123664875318557
 49
-586.4794671091429
 53
164.891
 43
-899.5100327131767
 44
17306.51291498717
 45
0.0000042855372929
 46
15.42045352479333
 79
     2
 49
5.123664875318557
 49
-586.4794671091429
 53
164.891
 43
-847.5870778814551
 44
17306.51291498717
 45
0.0000042855372929
 46
15.42045352479333
 79
     2
 49
5.123664875318557
 49
-586.4794671091429
 53
164.891
 43
-795.664123049737
 44
17306.51291498717
 45
0.0000042855372929
 46
15.42045352479333
 79
     2
 49
5.123664875318557
 49
-586.4794671091429
 53
157.062
 43
-1330.185743101512
 44
17309.99701448699
 45
-0.0001140812529166
 46
15.42047545549798
 79
     2
 49
11.80815684974729
 49
-2243.446094003533
 53
157.062
 43
-1278.26283442354
 44
17309.99701448699
 45
-0.0001140812529166
 46
15.42047545549798
 79
     2
 49
11.80815684974729
 49
-2243.446094003533
 53
157.062
 43
-1226.339879591824
 44
17309.99701448699
 45
-0.0001140812529166
 46
15.42047545549798
 79
     2
 49
11.80815684974729
 49
-2243.446094003533
 53
157.062
 43
-1174.416924760105
 44
17309.99701448699
 45
-0.0001140812529166
 46
15.42047545549798
 79
     2
 49
11.80815684974729
 49
-2243.446094003533
 53
157.062
 43
-1122.493969928384
 44
17309.99701448699
 45
-0.0001140812529166
 46
15.42047545549798
 79
     2
 49
11.80815684974729
 49
-2243.446094003533
 53
157.062
 43
-1070.571015096671
 44
17309.99701448699
 45
-0.0001140812529166
 46
15.42047545549798
 79
     2
 49
11.80815684974729
 49
-2243.446094003533
 53
157.062
 43
-1018.648060264955
 44
17309.99701448699
 45
-0.0001140812529166
 46
15.42047545549798
 79
     2
 49
11.80815684974729
 49
-2243.446094003533
 53
157.062
 43
-966.7251054332373
 44
17309.99701448699
 45
-0.0001140812529166
 46
15.42047545549798
 79
     2
 49
11.80815684974729
 49
-2243.446094003533
 53
157.062
 43
-914.8021506015266
 44
17309.99701448699
 45
-0.0001140812529166
 46
15.42047545549798
 79
     2
 49
11.80815684974729
 49
-2243.446094003533
 53
157.062
 43
-862.8778111576721
 44
17309.99701448699
 45
-0.0001140812529166
 46
15.42047545549798
 79
     2
 49
11.80815684974729
 49
-2243.446094003533
 53
157.062
 43
-810.9548563259595
 44
17309.99701448699
 45
-0.0001140812529166
 46
15.42047545549798
 79
     2
 49
11.80815684974729
 49
-2243.446094003533
 53
157.062
 43
-759.0319014942378
 44
17309.99701448699
 45
-0.0001140812529166
 46
15.42047545549798
 79
     2
 49
11.80815684974729
 49
-2243.446094003533
 53
157.062
 43
-707.1089466625253
 44
17309.99701448699
 45
-0.0001140812529166
 46
15.42047545549798
 79
     2
 49
11.80815684974729
 49
-2243.446094003533
 53
157.062
 43
-655.1859918308146
 44
17309.99701448699
 45
-0.0001140812529166
 46
15.42047545549798
 79
     2
 49
11.80815684974729
 49
-2243.446094003533
 53
157.062
 43
-603.2630369990911
 44
17309.99701448699
 45
-0.0001140812529166
 46
15.42047545549798
 79
     2
 49
11.80815684974729
 49
-2243.446094003533
 53
157.062
 43
-551.3400821673804
 44
17309.99701448699
 45
-0.0001140812529166
 46
15.42047545549798
 79
     2
 49
11.80815684974729
 49
-2243.446094003533
 53
157.062
 43
-499.4171273356569
 44
17309.99701448699
 45
-0.0001140812529166
 46
15.42047545549798
 79
     2
 49
11.80815684974729
 49
-2243.446094003533
 53
157.062
 43
-447.4941725039352
 44
17309.99701448699
 45
-0.0001140812529166
 46
15.42047545549798
 79
     2
 49
11.80815684974729
 49
-2243.446094003533
 53
157.062
 43
-395.5712176722227
 44
17309.99701448699
 45
-0.0001140812529166
 46
15.42047545549798
 79
     2
 49
11.80815684974729
 49
-2243.446094003533
 53
157.062
 43
-343.6482628405101
 44
17309.99701448699
 45
-0.0001140812529166
 46
15.42047545549798
 79
     2
 49
11.80815684974729
 49
-2243.446094003533
 53
157.062
 43
-291.7253080087903
 44
17309.99701448699
 45
-0.0001140812529166
 46
15.42047545549798
 79
     2
 49
11.80815684974729
 49
-2243.446094003533
 53
157.062
 43
-239.8023531770723
 44
17309.99701448699
 45
-0.0001140812529166
 46
15.42047545549798
 79
     2
 49
11.80815684974729
 49
-2243.446094003533
 53
157.062
 43
-187.8793983453542
 44
17309.99701448699
 45
-0.0001140812529166
 46
15.42047545549798
 79
     2
 49
11.80815684974729
 49
-2243.446094003533
 53
157.062
 43
-135.956443513638
 44
17309.99701448699
 45
-0.0001140812529166
 46
15.42047545549798
 79
     2
 49
11.80815684974729
 49
-2243.446094003533
 53
157.062
 43
-84.03348868192551
 44
17309.99701448699
 45
-0.0001140812529166
 46
15.42047545549798
 79
     2
 49
11.80815684974729
 49
-2243.446094003533
 53
157.062
 43
-32.11053385020932
 44
17309.99701448699
 45
-0.0001140812529166
 46
15.42047545549798
 79
     2
 49
11.80815684974729
 49
-2243.446094003533
 53
157.062
 43
19.81242098151415
 44
17309.99701448699
 45
-0.0001140812529166
 46
15.42047545549798
 79
     2
 49
11.80815684974729
 49
-2243.446094003533
 53
157.062
 43
71.73537581322489
 44
17309.99701448699
 45
-0.0001140812529166
 46
15.42047545549798
 79
     2
 49
11.80815684974729
 49
-2243.446094003533
 53
157.062
 43
123.6583306449429
 44
17309.99701448699
 45
-0.0001140812529166
 46
15.42047545549798
 79
     2
 49
11.80815684974729
 49
-2243.446094003533
 53
157.062
 43
175.5812854766591
 44
17309.99701448699
 45
-0.0001140812529166
 46
15.42047545549798
 79
     2
 49
11.80815684974729
 49
-2243.446094003533
 53
157.062
 43
227.5042403083826
 44
17309.99701448699
 45
-0.0001140812529166
 46
15.42047545549798
 79
     2
 49
11.80815684974729
 49
-2243.446094003533
 53
157.062
 43
279.4271951400915
 44
17309.99701448699
 45
-0.0001140812529166
 46
15.42047545549798
 79
     2
 49
11.80815684974729
 49
-2243.446094003533
 53
157.062
 43
331.3501499718114
 44
17309.99701448699
 45
-0.0001140812529166
 46
15.42047545549798
 79
     2
 49
11.80815684974729
 49
-2243.446094003533
 53
157.062
 43
383.2731048035275
 44
17309.99701448699
 45
-0.0001140812529166
 46
15.42047545549798
 79
     2
 49
11.80815684974729
 49
-2243.446094003533
 53
157.062
 43
435.1960596352437
 44
17309.99701448699
 45
-0.0001140812529166
 46
15.42047545549798
 79
     2
 49
11.80815684974729
 49
-2243.446094003533
 53
157.062
 43
487.1190144669635
 44
17309.99701448699
 45
-0.0001140812529166
 46
15.42047545549798
 79
     2
 49
11.80815684974729
 49
-2243.446094003533
 53
157.062
 43
539.0419692986797
 44
17309.99701448699
 45
-0.0001140812529166
 46
15.42047545549798
 79
     2
 49
11.80815684974729
 49
-2243.446094003533
 53
157.062
 43
590.9649241303923
 44
17309.99701448699
 45
-0.0001140812529166
 46
15.42047545549798
 79
     2
 49
11.80815684974729
 49
-2243.446094003533
 53
157.062
 43
642.8878789621085
 44
17309.99701448699
 45
-0.0001140812529166
 46
15.42047545549798
 79
     2
 49
11.80815684974729
 49
-2243.446094003533
 53
157.062
 43
694.8108337938283
 44
17309.99701448699
 45
-0.0001140812529166
 46
15.42047545549798
 79
     2
 49
11.80815684974729
 49
-2243.446094003533
 53
142.435
 43
-1352.344475612981
 44
17300.80519071597
 45
0.0000772591966259
 46
15.42046066953884
 79
     2
 49
6.340646629098743
 49
-2548.32374634662
 53
142.435
 43
-1300.421705396216
 44
17300.80519071597
 45
0.0000772591966259
 46
15.42046066953884
 79
     2
 49
6.340646629098743
 49
-2548.32374634662
 53
142.435
 43
-1248.498750564493
 44
17300.80519071597
 45
0.0000772591966259
 46
15.42046066953884
 79
     2
 49
6.340646629098743
 49
-2548.32374634662
 53
142.435
 43
-1196.575795732771
 44
17300.80519071597
 45
0.0000772591966259
 46
15.42046066953884
 79
     2
 49
6.340646629098743
 49
-2548.32374634662
 53
142.435
 43
-1144.652840901059
 44
17300.80519071597
 45
0.0000772591966259
 46
15.42046066953884
 79
     2
 49
6.340646629098743
 49
-2548.32374634662
 53
142.435
 43
-1092.729886069348
 44
17300.80519071597
 45
0.0000772591966259
 46
15.42046066953884
 79
     2
 49
6.340646629098743
 49
-2548.32374634662
 53
142.435
 43
-1040.80693123763
 44
17300.80519071597
 45
0.0000772591966259
 46
15.42046066953884
 79
     2
 49
6.340646629098743
 49
-2548.32374634662
 53
142.435
 43
-988.883976405914
 44
17300.80519071597
 45
0.0000772591966259
 46
15.42046066953884
 79
     2
 49
6.340646629098743
 49
-2548.32374634662
 53
142.435
 43
-936.9610215741904
 44
17300.80519071597
 45
0.0000772591966259
 46
15.42046066953884
 79
     2
 49
6.340646629098743
 49
-2548.32374634662
 53
142.435
 43
-885.0362205929668
 44
17300.80519071597
 45
0.0000772591966259
 46
15.42046066953884
 79
     2
 49
6.340646629098743
 49
-2548.32374634662
 53
142.435
 43
-833.1132657612542
 44
17300.80519071597
 45
0.0000772591966259
 46
15.42046066953884
 79
     2
 49
6.340646629098743
 49
-2548.32374634662
 53
142.435
 43
-781.1903109295417
 44
17300.80519071597
 45
0.0000772591966259
 46
15.42046066953884
 79
     2
 49
6.340646629098743
 49
-2548.32374634662
 53
142.435
 43
-729.2673560978201
 44
17300.80519071597
 45
0.0000772591966259
 46
15.42046066953884
 79
     2
 49
6.340646629098743
 49
-2548.32374634662
 53
142.435
 43
-677.3444012660984
 44
17300.80519071597
 45
0.0000772591966259
 46
15.42046066953884
 79
     2
 49
6.340646629098743
 49
-2548.32374634662
 53
142.435
 43
-625.4214464343858
 44
17300.80519071597
 45
0.0000772591966259
 46
15.42046066953884
 79
     2
 49
6.340646629098743
 49
-2548.32374634662
 53
142.435
 43
-573.4984916026751
 44
17300.80519071597
 45
0.0000772591966259
 46
15.42046066953884
 79
     2
 49
6.340646629098743
 49
-2548.32374634662
 53
142.435
 43
-521.5755367709516
 44
17300.80519071597
 45
0.0000772591966259
 46
15.42046066953884
 79
     2
 49
6.340646629098743
 49
-2548.32374634662
 53
142.435
 43
-469.6525819392409
 44
17300.80519071597
 45
0.0000772591966259
 46
15.42046066953884
 79
     2
 49
6.340646629098743
 49
-2548.32374634662
 53
142.435
 43
-417.7296271075174
 44
17300.80519071597
 45
0.0000772591966259
 46
15.42046066953884
 79
     2
 49
6.340646629098743
 49
-2548.32374634662
 53
142.435
 43
-365.8066722758049
 44
17300.80519071597
 45
0.0000772591966259
 46
15.42046066953884
 79
     2
 49
6.340646629098743
 49
-2548.32374634662
 53
142.435
 43
-313.8837174440941
 44
17300.80519071597
 45
0.0000772591966259
 46
15.42046066953884
 79
     2
 49
6.340646629098743
 49
-2548.32374634662
 53
142.435
 43
-261.9607626123725
 44
17300.80519071597
 45
0.0000772591966259
 46
15.42046066953884
 79
     2
 49
6.340646629098743
 49
-2548.32374634662
 53
142.435
 43
-210.037807780649
 44
17300.80519071597
 45
0.0000772591966259
 46
15.42046066953884
 79
     2
 49
6.340646629098743
 49
-2548.32374634662
 53
142.435
 43
-158.1148529489382
 44
17300.80519071597
 45
0.0000772591966259
 46
15.42046066953884
 79
     2
 49
6.340646629098743
 49
-2548.32374634662
 53
142.435
 43
-106.1918981172166
 44
17300.80519071597
 45
0.0000772591966259
 46
15.42046066953884
 79
     2
 49
6.340646629098743
 49
-2548.32374634662
 53
142.435
 43
-54.26894328550407
 44
17300.80519071597
 45
0.0000772591966259
 46
15.42046066953884
 79
     2
 49
6.340646629098743
 49
-2548.32374634662
 53
142.435
 43
-2.345988453780591
 44
17300.80519071597
 45
0.0000772591966259
 46
15.42046066953884
 79
     2
 49
6.340646629098743
 49
-2548.32374634662
 53
142.435
 43
49.57696637793015
 44
17300.80519071597
 45
0.0000772591966259
 46
15.42046066953884
 79
     2
 49
6.340646629098743
 49
-2548.32374634662
 53
142.435
 43
101.4999212096481
 44
17300.80519071597
 45
0.0000772591966259
 46
15.42046066953884
 79
     2
 49
6.340646629098743
 49
-2548.32374634662
 53
142.435
 43
153.4228760413643
 44
17300.80519071597
 45
0.0000772591966259
 46
15.42046066953884
 79
     2
 49
6.340646629098743
 49
-2548.32374634662
 53
142.435
 43
205.3458308730806
 44
17300.80519071597
 45
0.0000772591966259
 46
15.42046066953884
 79
     2
 49
6.340646629098743
 49
-2548.32374634662
 53
142.435
 43
257.2687857047986
 44
17300.80519071597
 45
0.0000772591966259
 46
15.42046066953884
 79
     2
 49
6.340646629098743
 49
-2548.32374634662
 53
142.435
 43
309.1917405365129
 44
17300.80519071597
 45
0.0000772591966259
 46
15.42046066953884
 79
     2
 49
6.340646629098743
 49
-2548.32374634662
 53
142.435
 43
361.1146953682328
 44
17300.80519071597
 45
0.0000772591966259
 46
15.42046066953884
 79
     2
 49
6.340646629098743
 49
-2548.32374634662
 53
142.435
 43
413.0376501999453
 44
17300.80519071597
 45
0.0000772591966259
 46
15.42046066953884
 79
     2
 49
6.340646629098743
 49
-2548.32374634662
 53
142.435
 43
464.9606050316688
 44
17300.80519071597
 45
0.0000772591966259
 46
15.42046066953884
 79
     2
 49
6.340646629098743
 49
-2548.32374634662
 53
142.435
 43
516.883559863385
 44
17300.80519071597
 45
0.0000772591966259
 46
15.42046066953884
 79
     2
 49
6.340646629098743
 49
-2548.32374634662
 53
142.435
 43
568.8065146951012
 44
17300.80519071597
 45
0.0000772591966259
 46
15.42046066953884
 79
     2
 49
6.340646629098743
 49
-2548.32374634662
 53
142.435
 43
620.7294695268138
 44
17300.80519071597
 45
0.0000772591966259
 46
15.42046066953884
 79
     2
 49
6.340646629098743
 49
-2548.32374634662
 53
115.046
 43
-1312.129062482982
 44
17300.59882120124
 45
-0.0001241594983084
 46
15.42046743086035
 79
     2
 49
6.527892342656238
 49
-4163.599702041431
 53
115.046
 43
-1260.206107651264
 44
17300.59882120124
 45
-0.0001241594983084
 46
15.42046743086035
 79
     2
 49
6.527892342656238
 49
-4163.599702041431
 53
115.046
 43
-1208.283152819542
 44
17300.59882120124
 45
-0.0001241594983084
 46
15.42046743086035
 79
     2
 49
6.527892342656238
 49
-4163.599702041431
 53
115.046
 43
-1156.360197987829
 44
17300.59882120124
 45
-0.0001241594983084
 46
15.42046743086035
 79
     2
 49
6.527892342656238
 49
-4163.599702041431
 53
115.046
 43
-1104.437243156108
 44
17300.59882120124
 45
-0.0001241594983084
 46
15.42046743086035
 79
     2
 49
6.527892342656238
 49
-4163.599702041431
 53
115.046
 43
-1052.514288324395
 44
17300.59882120124
 45
-0.0001241594983084
 46
15.42046743086035
 79
     2
 49
6.527892342656238
 49
-4163.599702041431
 53
115.046
 43
-1000.591333492679
 44
17300.59882120124
 45
-0.0001241594983084
 46
15.42046743086035
 79
     2
 49
6.527892342656238
 49
-4163.599702041431
 53
115.046
 43
-948.668378660961
 44
17300.59882120124
 45
-0.0001241594983084
 46
15.42046743086035
 79
     2
 49
6.527892342656238
 49
-4163.599702041431
 53
115.046
 43
-896.7454238292393
 44
17300.59882120124
 45
-0.0001241594983084
 46
15.42046743086035
 79
     2
 49
6.527892342656238
 49
-4163.599702041431
 53
115.046
 43
-844.8224689975267
 44
17300.59882120124
 45
-0.0001241594983084
 46
15.42046743086035
 79
     2
 49
6.527892342656238
 49
-4163.599702041431
 53
115.046
 43
-792.8995141658051
 44
17300.59882120124
 45
-0.0001241594983084
 46
15.42046743086035
 79
     2
 49
6.527892342656238
 49
-4163.599702041431
 53
115.046
 43
-740.9765593340925
 44
17300.59882120124
 45
-0.0001241594983084
 46
15.42046743086035
 79
     2
 49
6.527892342656238
 49
-4163.599702041431
 53
115.046
 43
-689.05360450238
 44
17300.59882120124
 45
-0.0001241594983084
 46
15.42046743086035
 79
     2
 49
6.527892342656238
 49
-4163.599702041431
 53
115.046
 43
-637.1306496706583
 44
17300.59882120124
 45
-0.0001241594983084
 46
15.42046743086035
 79
     2
 49
6.527892342656238
 49
-4163.599702041431
 53
115.046
 43
-585.2076948389476
 44
17300.59882120124
 45
-0.0001241594983084
 46
15.42046743086035
 79
     2
 49
6.527892342656238
 49
-4163.599702041431
 53
115.046
 43
-533.2847400072242
 44
17300.59882120124
 45
-0.0001241594983084
 46
15.42046743086035
 79
     2
 49
6.527892342656238
 49
-4163.599702041431
 53
115.046
 43
-481.3617851755025
 44
17300.59882120124
 45
-0.0001241594983084
 46
15.42046743086035
 79
     2
 49
6.527892342656238
 49
-4163.599702041431
 53
115.046
 43
-429.4388303437899
 44
17300.59882120124
 45
-0.0001241594983084
 46
15.42046743086035
 79
     2
 49
6.527892342656238
 49
-4163.599702041431
 53
115.046
 43
-377.5158755120792
 44
17300.59882120124
 45
-0.0001241594983084
 46
15.42046743086035
 79
     2
 49
6.527892342656238
 49
-4163.599702041431
 53
115.046
 43
-325.5929206803557
 44
17300.59882120124
 45
-0.0001241594983084
 46
15.42046743086035
 79
     2
 49
6.527892342656238
 49
-4163.599702041431
 53
115.046
 43
-273.669965848645
 44
17300.59882120124
 45
-0.0001241594983084
 46
15.42046743086035
 79
     2
 49
6.527892342656238
 49
-4163.599702041431
 53
115.046
 43
-221.7470110169234
 44
17300.59882120124
 45
-0.0001241594983084
 46
15.42046743086035
 79
     2
 49
6.527892342656238
 49
-4163.599702041431
 53
115.046
 43
-169.8240561852053
 44
17300.59882120124
 45
-0.0001241594983084
 46
15.42046743086035
 79
     2
 49
6.527892342656238
 49
-4163.599702041431
 53
115.046
 43
-117.9011013534928
 44
17300.59882120124
 45
-0.0001241594983084
 46
15.42046743086035
 79
     2
 49
6.527892342656238
 49
-4163.599702041431
 53
115.046
 43
-65.97814652177658
 44
17300.59882120124
 45
-0.0001241594983084
 46
15.42046743086035
 79
     2
 49
6.527892342656238
 49
-4163.599702041431
 53
115.046
 43
-14.05519169005492
 44
17300.59882120124
 45
-0.0001241594983084
 46
15.42046743086035
 79
     2
 49
6.527892342656238
 49
-4163.599702041431
 53
115.046
 43
37.86776314165763
 44
17300.59882120124
 45
-0.0001241594983084
 46
15.42046743086035
 79
     2
 49
6.527892342656238
 49
-4163.599702041431
 53
115.046
 43
89.79071797337565
 44
17300.59882120124
 45
-0.0001241594983084
 46
15.42046743086035
 79
     2
 49
6.527892342656238
 49
-4163.599702041431
 53
115.046
 43
141.7136728050918
 44
17300.59882120124
 45
-0.0001241594983084
 46
15.42046743086035
 79
     2
 49
6.527892342656238
 49
-4163.599702041431
 53
115.046
 43
193.6366276368135
 44
17300.59882120124
 45
-0.0001241594983084
 46
15.42046743086035
 79
     2
 49
6.527892342656238
 49
-4163.599702041431
 53
115.046
 43
245.5595824685261
 44
17300.59882120124
 45
-0.0001241594983084
 46
15.42046743086035
 79
     2
 49
6.527892342656238
 49
-4163.599702041431
 53
115.046
 43
297.4825373002423
 44
17300.59882120124
 45
-0.0001241594983084
 46
15.42046743086035
 79
     2
 49
6.527892342656238
 49
-4163.599702041431
 53
115.046
 43
349.4054921319584
 44
17300.59882120124
 45
-0.0001241594983084
 46
15.42046743086035
 79
     2
 49
6.527892342656238
 49
-4163.599702041431
 53
115.046
 43
401.3284469636783
 44
17300.59882120124
 45
-0.0001241594983084
 46
15.42046743086035
 79
     2
 49
6.527892342656238
 49
-4163.599702041431
 53
104.0759999999998
 43
-1357.370433025739
 44
17304.67086393393
 45
0.000113352007534
 46
15.42045346619244
 79
     2
 49
3.750821949567952
 49
-1490.646556440062
 53
104.0759999999998
 43
-1305.447385886544
 44
17304.67086393393
 45
0.000113352007534
 46
15.42045346619244
 79
     2
 49
3.750821949567952
 49
-1490.646556440062
 53
104.0759999999998
 43
-1253.524431054828
 44
17304.67086393393
 45
0.000113352007534
 46
15.42045346619244
 79
     2
 49
3.750821949567952
 49
-1490.646556440062
 53
104.0759999999998
 43
-1201.601476223115
 44
17304.67086393393
 45
0.000113352007534
 46
15.42045346619244
 79
     2
 49
3.750821949567952
 49
-1490.646556440062
 53
104.0759999999998
 43
-1149.678521391393
 44
17304.67086393393
 45
0.000113352007534
 46
15.42045346619244
 79
     2
 49
3.750821949567952
 49
-1490.646556440062
 53
104.0759999999998
 43
-1097.75556655967
 44
17304.67086393393
 45
0.000113352007534
 46
15.42045346619244
 79
     2
 49
3.750821949567952
 49
-1490.646556440062
 53
104.0759999999998
 43
-1045.832611727959
 44
17304.67086393393
 45
0.000113352007534
 46
15.42045346619244
 79
     2
 49
3.750821949567952
 49
-1490.646556440062
 98
        1
 10
279.9429496852754
 20
2551.425039468177
  0
HATCH
  5
5EEB
330
67
100
AcDbEntity
  8
F_01 sichtbar
370
    13
100
AcDbHatch
 10
0.0
 20
0.0
 30
0.0
210
0.0
220
0.0
230
1.0
  2
HEX
 70
     0
 71
     0
 91
        1
 92
        1
 93
        4
 72
     1
 10
287.1241686733047
 20
735.6942115859911
 11
287.1241686733047
 21
690.6942115859892
 72
     1
 10
287.1241686733047
 20
690.6942115859892
 11
379.5678212371567
 21
690.6942115859892
 72
     1
 10
379.5678212371567
 20
690.6942115859892
 11
379.5678212371567
 21
735.6942115859892
 72
     1
 10
379.5678212371567
 20
735.6942115859892
 11
287.1241686733047
 21
735.6942115859911
 97
        0
 75
     0
 76
     1
 52
0.0
 41
2.0
 77
     0
 78
     3
 53
0.0
 43
-33459.90984113589
 44
-13988.35418264896
 45
0.0
 46
10.99852
 79
     2
 49
6.349999999999999
 49
-12.7
 53
120.0
 43
-33459.90984113589
 44
-13988.35418264896
 45
-9.524997724031223
 46
-5.499259999999996
 79
     2
 49
6.349999999999982
 49
-12.69999999999996
 53
60.0
 43
-33453.5598411359
 44
-13988.35418264896
 45
-9.524997724031223
 46
5.49926
 79
     2
 49
6.349999999999999
 49
-12.7
 98
        1
 10
301.8199018917585
 20
690.1132361139461
1001
ACAD
1010
0.0
1020
0.0
1030
0.0
  0
HATCH
  5
5EEC
330
67
100
AcDbEntity
  8
F_01 sichtbar
370
    13
100
AcDbHatch
 10
0.0
 20
0.0
 30
0.0
210
0.0
220
0.0
230
1.0
  2
HEX
 70
     0
 71
     0
 91
        1
 92
        1
 93
        4
 72
     1
 10
287.1241686733029
 20
543.6942115859892
 11
287.124168673301
 21
506.6942115859874
 72
     1
 10
287.124168673301
 20
506.6942115859874
 11
449.0678212371421
 21
506.6942115859892
 72
     1
 10
449.0678212371421
 20
506.6942115859892
 11
449.0678212371421
 21
543.6942115859892
 72
     1
 10
449.0678212371421
 20
543.6942115859892
 11
287.1241686733029
 21
543.6942115859892
 97
        0
 75
     0
 76
     1
 52
0.0
 41
2.0
 77
     0
 78
     3
 53
0.0
 43
-33392.90984113589
 44
-14180.35418264896
 45
0.0
 46
10.99852
 79
     2
 49
6.349999999999999
 49
-12.7
 53
120.0
 43
-33392.90984113589
 44
-14180.35418264896
 45
-9.524997724031223
 46
-5.499259999999996
 79
     2
 49
6.34999999999998
 49
-12.69999999999996
 53
60.0
 43
-33386.5598411359
 44
-14180.35418264896
 45
-9.524997724031223
 46
5.49926
 79
     2
 49
6.349999999999999
 49
-12.7
 98
        1
 10
368.8199018917585
 20
498.1132361139462
1001
ACAD
1010
0.0
1020
0.0
1030
0.0
  0
POLYLINE
  5
5EED
330
67
100
AcDbEntity
  8
F_0 sichtbar
370
    13
100
AcDb2dPolyline
 66
     1
 10
0.0
 20
0.0
 30
0.0
  0
VERTEX
  5
5EEE
330
5EED
100
AcDbEntity
  8
F_0 sichtbar
370
    13
100
AcDbVertex
100
AcDb2dVertex
 10
357.8245797852087
 20
782.1905534293801
 30
0.0
  0
VERTEX
  5
5EEF
330
5EED
100
AcDbEntity
  8
F_0 sichtbar
370
    13
100
AcDbVertex
100
AcDb2dVertex
 10
508.2592878518426
 20
826.7653237865925
 30
0.0
  0
SEQEND
  5
5EF0
330
5EED
100
AcDbEntity
  8
F_0 sichtbar
370
    13
  0
POLYLINE
  5
5EF1
330
67
100
AcDbEntity
  8
F_0 sichtbar
370
    13
100
AcDb2dPolyline
 66
     1
 10
0.0
 20
0.0
 30
0.0
  0
VERTEX
  5
5EF2
330
5EF1
100
AcDbEntity
  8
F_0 sichtbar
370
    13
100
AcDbVertex
100
AcDb2dVertex
 10
354.983607223423
 20
791.7785081071615
 30
0.0
  0
VERTEX
  5
5EF3
330
5EF1
100
AcDbEntity
  8
F_0 sichtbar
370
    13
100
AcDbVertex
100
AcDb2dVertex
 10
505.4183152900568
 20
836.3532784643739
 30
0.0
  0
SEQEND
  5
5EF4
330
5EF1
100
AcDbEntity
  8
F_0 sichtbar
370
    13
  0
HATCH
  5
5EF5
330
67
100
AcDbEntity
  8
F_01 sichtbar
370
    13
100
AcDbHatch
 10
0.0
 20
0.0
 30
0.0
210
0.0
220
0.0
230
1.0
  2
CROSS
 70
     0
 71
     0
 91
        2
 92
        1
 93
        5
 72
     1
 10
449.0678212371276
 20
323.6942115859893
 11
347.2507404203934
 21
323.6942115859893
 72
     1
 10
347.2507404203934
 20
323.6942115859893
 11
347.2507404203934
 21
311.6942115859856
 72
     1
 10
347.2507404203934
 20
311.6942115859856
 11
408.5678029299961
 21
311.6942128474402
 72
     1
 10
408.5678029299961
 20
311.6942128474402
 11
449.0678212371276
 21
311.6942128474402
 72
     1
 10
449.0678212371276
 20
311.6942128474402
 11
449.0678212371276
 21
323.6942115859893
 97
        0
 92
        1
 93
        4
 72
     1
 10
347.2507404203934
 20
323.6942115859893
 11
287.1241686732992
 21
323.6942115859893
 72
     1
 10
287.1241686732992
 20
323.6942115859893
 11
287.1241686732992
 21
311.6942115859856
 72
     1
 10
287.1241686732992
 20
311.6942115859856
 11
347.2507404203934
 21
311.6942115859856
 72
     1
 10
347.2507404203934
 20
311.6942115859856
 11
347.2507404203934
 21
323.6942115859893
 97
        0
 75
     0
 76
     1
 52
0.0
 41
1.0
 77
     0
 78
     2
 53
0.0
 43
-33392.90984113591
 44
-14087.35418249126
 45
6.349999999999999
 46
6.349999999999999
 79
     2
 49
3.174999999999999
 49
-9.525
 53
90.0
 43
-33391.32234113591
 44
-14088.94168249126
 45
-6.349999999999999
 46
6.349999999999999
 79
     2
 49
3.174999999999999
 49
-9.525
 98
        2
 10
361.1998664594139
 20
313.7132142617884
 10
333.3305789761435
 20
313.0872642596223
1001
ACAD
1010
0.0
1020
0.0
1030
0.0
  0
POLYLINE
  5
5EF6
330
67
100
AcDbEntity
  8
F_01 sichtbar
370
    13
100
AcDb2dPolyline
 66
     1
 10
0.0
 20
0.0
 30
0.0
  0
VERTEX
  5
5EF7
330
5EF6
100
AcDbEntity
  8
F_01 sichtbar
370
    13
100
AcDbVertex
100
AcDb2dVertex
 10
287.1241686733029
 20
323.6942115859893
 30
0.0
  0
VERTEX
  5
5EF8
330
5EF6
100
AcDbEntity
  8
F_01 sichtbar
370
    13
100
AcDbVertex
100
AcDb2dVertex
 10
449.0678212371276
 20
323.6942115859893
 30
0.0
  0
VERTEX
  5
5EF9
330
5EF6
100
AcDbEntity
  8
F_01 sichtbar
370
    13
100
AcDbVertex
100
AcDb2dVertex
 10
449.0678212371276
 20
311.6942115859856
 30
0.0
  0
VERTEX
  5
5EFA
330
5EF6
100
AcDbEntity
  8
F_01 sichtbar
370
    13
100
AcDbVertex
100
AcDb2dVertex
 10
287.1241686733029
 20
311.6942115859865
 30
0.0
  0
SEQEND
  5
5EFB
330
5EF6
100
AcDbEntity
  8
F_01 sichtbar
370
    13
  0
LINE
  5
5EFC
330
67
100
AcDbEntity
  8
F_02 unsichtbar
370
    13
100
AcDbLine
 10
449.0678212371421
 20
325.1942115859892
 30
0.0
 11
287.1241686732992
 21
325.1942115859892
 31
0.0
  0
TEXT
  5
5EFD
330
67
100
AcDbEntity
  8
F_01 sichtbar
370
    13
100
AcDbText
 10
356.339222687704
 20
236.4271974274043
 30
0.0
 40
15.0
  1
RH
 50
90.0
  7
Arial
100
AcDbText
  0
LINE
  5
5EFE
330
67
100
AcDbEntity
  8
F_01 sichtbar
370
    13
100
AcDbLine
 10
361.339222687704
 20
304.194210324531
 30
0.0
 11
361.339222687704
 21
117.6061940587124
 31
0.0
  0
SOLID
  5
5EFF
330
67
100
AcDbEntity
  8
F_01 sichtbar
370
    13
100
AcDbTrace
 10
358.839222687704
 20
296.694210324531
 30
0.0
 11
363.839222687704
 21
296.694210324531
 31
0.0
 12
361.339222687704
 22
311.694210324531
 32
0.0
 13
361.339222687704
 23
311.694210324531
 33
0.0
  0
SOLID
  5
5F00
330
67
100
AcDbEntity
  8
F_01 sichtbar
370
    13
100
AcDbTrace
 10
358.8392224774616
 20
326.6942115859856
 30
0.0
 11
363.8392224774616
 21
326.6942115859856
 31
0.0
 12
361.3392224774616
 22
311.6942115859856
 32
0.0
 13
361.3392224774616
 23
311.6942115859856
 33
0.0
  0
SOLID
  5
5F01
330
67
100
AcDbEntity
  8
F_01 sichtbar
370
    13
100
AcDbTrace
 10
358.8392224774616
 20
491.6942115859892
 30
0.0
 11
363.8392224774616
 21
491.6942115859892
 31
0.0
 12
361.3392224774616
 22
506.6942115859892
 32
0.0
 13
361.3392224774616
 23
506.6942115859892
 33
0.0
  0
TEXT
  5
5F02
330
67
100
AcDbEntity
  8
F_01 sichtbar
370
    13
100
AcDbText
 10
356.3392224774616
 20
403.553680703948
 30
0.0
 40
15.0
  1
D1
 50
90.0
  7
Arial
100
AcDbText
  0
SOLID
  5
5F03
330
67
100
AcDbEntity
  8
F_01 sichtbar
370
    13
100
AcDbTrace
 10
358.8392224774616
 20
521.6942115859892
 30
0.0
 11
363.8392224774616
 21
521.6942115859892
 31
0.0
 12
361.3392224774616
 22
506.6942115859892
 32
0.0
 13
361.3392224774616
 23
506.6942115859892
 33
0.0
  0
SOLID
  5
5F04
330
67
100
AcDbEntity
  8
F_01 sichtbar
370
    13
100
AcDbTrace
 10
358.8392224774616
 20
720.6942115859901
 30
0.0
 11
363.8392224774616
 21
720.6942115859901
 31
0.0
 12
361.3392224774616
 22
735.6942115859901
 32
0.0
 13
361.3392224774616
 23
735.6942115859901
 33
0.0
  0
TEXT
  5
5F05
330
67
100
AcDbEntity
  8
F_01 sichtbar
370
    13
100
AcDbText
 10
356.3392224774616
 20
615.3249338003716
 30
0.0
 40
15.0
  1
D2
 50
90.0
  7
Arial
100
AcDbText
  0
LINE
  5
5F06
330
67
100
AcDbEntity
  8
F_01 sichtbar
370
    13
100
AcDbLine
 10
361.3392224774616
 20
728.1942115859902
 30
0.0
 11
361.3392224774616
 21
514.1942115859892
 31
0.0
  0
LINE
  5
5F07
330
67
100
AcDbEntity
  8
F_01 sichtbar
370
    13
100
AcDbLine
 10
361.3392224774616
 20
499.1942115859892
 30
0.0
 11
361.3392224774616
 21
319.1942115859856
 31
0.0
  0
MTEXT
  5
5F08
330
67
100
AcDbEntity
  8
F_01 sichtbar
370
    13
100
AcDbMText
 10
312.1241686732938
 20
860.6942115859901
 30
0.0
 40
30.0
 41
187.1747820159653
 71
     1
 72
     5
  1
\A1;{\fArial Narrow|b1|i0|c0|p34;CNS}
 73
     1
 44
1.0
  0
POLYLINE
  5
5F09
330
67
100
AcDbEntity
  8
F_31 Ansichtsfenster
370
    13
100
AcDb2dPolyline
 66
     1
 10
0.0
 20
0.0
 30
0.0
  0
VERTEX
  5
5F0A
330
5F09
100
AcDbEntity
  8
F_31 Ansichtsfenster
370
    13
100
AcDbVertex
100
AcDb2dVertex
 10
287.124168673301
 20
311.6942115859856
 30
0.0
  0
VERTEX
  5
5F0B
330
5F09
100
AcDbEntity
  8
F_31 Ansichtsfenster
370
    13
100
AcDbVertex
100
AcDb2dVertex
 10
287.124168673301
 20
735.6942115859901
 30
0.0
  0
SEQEND
  5
5F0C
330
5F09
100
AcDbEntity
  8
F_31 Ansichtsfenster
370
    13
  0
HATCH
  5
5F0D
330
67
100
AcDbEntity
  8
F_29 Bemassung M
370
    13
100
AcDbHatch
 10
0.0
 20
0.0
 30
0.0
210
0.0
220
0.0
230
1.0
  2
SOLID
 70
     1
 71
     0
 91
        1
 92
        1
 93
        8
 72
     1
 10
459.567801908961
 20
311.694211533435
 11
459.567801908961
 21
350.194211533435
 72
     2
 10
462.0678019089609
 20
350.194211533435
 40
2.5
 50
180.0
 51
270.0
 73
     0
 72
     1
 10
462.0678019089609
 20
352.694211533435
 11
471.5678019089609
 21
352.694211533435
 72
     1
 10
471.5678019089609
 20
352.694211533435
 11
471.5678019089609
 21
355.694211533435
 72
     1
 10
471.5678019089609
 20
355.694211533435
 11
462.0678019089609
 21
355.694211533435
 72
     2
 10
462.0678019089609
 20
350.194211533435
 40
5.5
 50
90.0
 51
180.0
 73
     1
 72
     1
 10
456.567801908961
 20
350.194211533435
 11
456.567801908961
 21
311.694211533435
 72
     1
 10
456.567801908961
 20
311.694211533435
 11
459.567801908961
 21
311.694211533435
 97
        0
 75
     0
 76
     1
 98
        1
 10
-36983.55382996163
 20
-14074.35418264884
450
        0
451
        0
460
0.0
461
0.0
452
        1
462
1.0
453
        2
463
0.0
 63
     5
421
      255
463
1.0
 63
     7
421
 16777215
470
LINEAR
1001
ACAD
1010
0.0
1020
0.0
1030
0.0
  0
HATCH
  5
5F0E
330
67
100
AcDbEntity
  8
F_18 Schr-Holz hell
370
    13
100
AcDbHatch
 10
0.0
 20
0.0
 30
0.0
210
0.0
220
0.0
230
1.0
  2
SOLID
 70
     1
 71
     0
 91
        1
 92
        1
 93
        6
 72
     1
 10
456.5678125773847
 20
355.6942115859929
 11
471.5678019089609
 21
355.6942115859929
 72
     1
 10
471.5678019089609
 20
355.6942115859929
 11
471.5678019089609
 21
352.694211533435
 72
     1
 10
471.5678019089609
 20
352.694211533435
 11
481.5678015841622
 21
352.694211533435
 72
     1
 10
481.5678015841622
 20
352.694211533435
 11
481.5685234893972
 21
818.8566788508278
 72
     1
 10
481.5685234893972
 20
818.8566788508278
 11
456.5678212371404
 21
811.4487368336195
 72
     1
 10
456.5678212371404
 20
811.4487368336195
 11
456.5678125773847
 21
355.6942115859929
 97
        0
 75
     0
 76
     1
 98
        1
 10
-36983.55382996163
 20
-14074.35418264884
450
        0
451
        0
460
0.0
461
0.0
452
        1
462
1.0
453
        2
463
0.0
 63
     5
421
      255
463
1.0
 63
     7
421
 16777215
470
LINEAR
1001
ACAD
1010
0.0
1020
0.0
1030
0.0
  0
LINE
  5
5F0F
330
67
100
AcDbEntity
  8
F_01 sichtbar
370
    13
100
AcDbLine
 10
449.0678212371494
 20
322.1501696077394
 30
0.0
 11
456.567798334836
 21
322.1501696077394
 31
0.0
  0
ARC
  5
5F10
330
67
100
AcDbEntity
  8
F_01 sichtbar
370
    13
100
AcDbCircle
 10
452.8178097859927
 20
302.6332425375949
 30
0.0
 40
9.806302779973693
100
AcDbArc
 50
67.51720730066519
 51
112.4827926993348
  0
POLYLINE
  5
5F11
330
67
100
AcDbEntity
  8
F_01 sichtbar
370
    13
100
AcDb2dPolyline
 66
     1
 10
0.0
 20
0.0
 30
0.0
 70
     1
  0
VERTEX
  5
5F12
330
5F11
100
AcDbEntity
  8
F_01 sichtbar
370
    13
100
AcDbVertex
100
AcDb2dVertex
 10
456.5678212371421
 20
811.4488101748721
 30
0.0
  0
VERTEX
  5
5F13
330
5F11
100
AcDbEntity
  8
F_01 sichtbar
370
    13
100
AcDbVertex
100
AcDb2dVertex
 10
481.5685234893972
 20
818.8566788508278
 30
0.0
  0
VERTEX
  5
5F14
330
5F11
100
AcDbEntity
  8
F_01 sichtbar
370
    13
100
AcDbVertex
100
AcDb2dVertex
 10
481.5678015841622
 20
352.694211533435
 30
0.0
  0
VERTEX
  5
5F15
330
5F11
100
AcDbEntity
  8
F_01 sichtbar
370
    13
100
AcDbVertex
100
AcDb2dVertex
 10
471.5678019089609
 20
352.694211533435
 30
0.0
  0
VERTEX
  5
5F16
330
5F11
100
AcDbEntity
  8
F_01 sichtbar
370
    13
100
AcDbVertex
100
AcDb2dVertex
 10
471.5678019089609
 20
352.694211533435
 30
0.0
  0
VERTEX
  5
5F17
330
5F11
100
AcDbEntity
  8
F_01 sichtbar
370
    13
100
AcDbVertex
100
AcDb2dVertex
 10
471.5678019089609
 20
352.694211533435
 30
0.0
  0
VERTEX
  5
5F18
330
5F11
100
AcDbEntity
  8
F_01 sichtbar
370
    13
100
AcDbVertex
100
AcDb2dVertex
 10
471.5678019089609
 20
352.694211533435
 30
0.0
  0
VERTEX
  5
5F19
330
5F11
100
AcDbEntity
  8
F_01 sichtbar
370
    13
100
AcDbVertex
100
AcDb2dVertex
 10
471.5678019089609
 20
352.694211533435
 30
0.0
  0
VERTEX
  5
5F1A
330
5F11
100
AcDbEntity
  8
F_01 sichtbar
370
    13
100
AcDbVertex
100
AcDb2dVertex
 10
471.5677983348432
 20
355.6942115859929
 30
0.0
  0
VERTEX
  5
5F1B
330
5F11
100
AcDbEntity
  8
F_01 sichtbar
370
    13
100
AcDbVertex
100
AcDb2dVertex
 10
456.5678136560308
 20
355.6942115859929
 30
0.0
  0
SEQEND
  5
5F1C
330
5F11
100
AcDbEntity
  8
F_01 sichtbar
370
    13
  0
POLYLINE
  5
5F1D
330
67
100
AcDbEntity
  8
F_01 sichtbar
370
    13
100
AcDb2dPolyline
 66
     1
 10
0.0
 20
0.0
 30
0.0
 70
     1
  0
VERTEX
  5
5F1E
330
5F1D
100
AcDbEntity
  8
F_01 sichtbar
370
    13
100
AcDbVertex
100
AcDb2dVertex
 10
459.567801908961
 20
311.694211533435
 30
0.0
  0
VERTEX
  5
5F1F
330
5F1D
100
AcDbEntity
  8
F_01 sichtbar
370
    13
100
AcDbVertex
100
AcDb2dVertex
 10
459.567801908961
 20
350.194211533435
 30
0.0
 42
-0.4142135623730951
  0
VERTEX
  5
5F20
330
5F1D
100
AcDbEntity
  8
F_01 sichtbar
370
    13
100
AcDbVertex
100
AcDb2dVertex
 10
462.0678019089609
 20
352.694211533435
 30
0.0
  0
VERTEX
  5
5F21
330
5F1D
100
AcDbEntity
  8
F_01 sichtbar
370
    13
100
AcDbVertex
100
AcDb2dVertex
 10
471.5678019089609
 20
352.694211533435
 30
0.0
  0
VERTEX
  5
5F22
330
5F1D
100
AcDbEntity
  8
F_01 sichtbar
370
    13
100
AcDbVertex
100
AcDb2dVertex
 10
471.5678019089609
 20
355.694211533435
 30
0.0
  0
VERTEX
  5
5F23
330
5F1D
100
AcDbEntity
  8
F_01 sichtbar
370
    13
100
AcDbVertex
100
AcDb2dVertex
 10
462.0678019089609
 20
355.694211533435
 30
0.0
 42
0.4142135623730951
  0
VERTEX
  5
5F24
330
5F1D
100
AcDbEntity
  8
F_01 sichtbar
370
    13
100
AcDbVertex
100
AcDb2dVertex
 10
456.567801908961
 20
350.194211533435
 30
0.0
  0
VERTEX
  5
5F25
330
5F1D
100
AcDbEntity
  8
F_01 sichtbar
370
    13
100
AcDbVertex
100
AcDb2dVertex
 10
456.567801908961
 20
311.694211533435
 30
0.0
  0
SEQEND
  5
5F26
330
5F1D
100
AcDbEntity
  8
F_01 sichtbar
370
    13
  0
HATCH
  5
5F27
330
67
100
AcDbEntity
  8
F_01 sichtbar
370
    13
100
AcDbHatch
 10
0.0
 20
0.0
 30
0.0
210
0.0
220
0.0
230
1.0
  2
JIS_WOOD
 70
     0
 71
     0
 91
        1
 92
        1
 93
        6
 72
     1
 10
458.067807440415
 20
355.6942115859929
 11
471.5677983348432
 21
355.694211533435
 72
     1
 10
471.5677983348432
 20
355.694211533435
 11
471.5677983348359
 21
348.6942124711604
 72
     1
 10
471.5677983348359
 20
348.6942124711604
 11
480.0678077315315
 21
348.6942478520086
 72
     1
 10
480.0678077315315
 20
348.6942478520086
 11
480.0678077315315
 21
818.4120071315282
 72
     1
 10
480.0678077315315
 20
818.4120071315282
 11
458.0678077315297
 21
811.8932658087187
 72
     1
 10
458.0678077315297
 20
811.8932658087187
 11
458.067807440415
 21
355.6942115859929
 97
        0
 75
     0
 76
     1
 52
315.0
 41
30.0
 77
     0
 78
     1
 53
0.0
 43
-23252.25311141511
 44
-14164.84650149368
 45
0.0000000000000071
 46
21.2132034
 79
     0
 98
        1
 10
-23252.25311141511
 20
-14164.84650149368
1001
ACAD
1010
0.0
1020
0.0
1030
0.0
  0
LINE
  5
5F28
330
67
100
AcDbEntity
  8
F_01 sichtbar
370
    13
100
AcDbLine
 10
458.0678019089609
 20
296.694211533435
 30
0.0
 11
458.0678019089609
 21
263.3713163515849
 31
0.0
  0
SOLID
  5
5F29
330
67
100
AcDbEntity
  8
F_01 sichtbar
370
    13
100
AcDbTrace
 10
455.567801908961
 20
296.694211533435
 30
0.0
 11
460.567801908961
 21
296.694211533435
 31
0.0
 12
458.0678019089609
 22
311.694211533435
 32
0.0
 13
458.0678019089609
 23
311.694211533435
 33
0.0
  0
LINE
  5
5F2A
330
67
100
AcDbEntity
  8
F_01 sichtbar
370
    13
100
AcDbLine
 10
480.0678077315315
 20
818.4120071315291
 30
0.0
 11
480.0678077315315
 21
352.694211533435
 31
0.0
  0
LINE
  5
5F2B
330
67
100
AcDbEntity
  8
F_01 sichtbar
370
    13
100
AcDbLine
 10
458.0678077315314
 20
355.6942115859929
 30
0.0
 11
458.0678077315297
 21
811.8932658087196
 31
0.0
  0
POLYLINE
  5
5F2C
330
67
100
AcDbEntity
  8
F_01 sichtbar
370
    13
100
AcDb2dPolyline
 66
     1
 10
0.0
 20
0.0
 30
0.0
 70
     1
  0
VERTEX
  5
5F2D
330
5F2C
100
AcDbEntity
  8
F_01 sichtbar
370
    13
100
AcDbVertex
100
AcDb2dVertex
 10
466.567794102415
 20
352.6941997875085
 30
0.0
  0
VERTEX
  5
5F2E
330
5F2C
100
AcDbEntity
  8
F_01 sichtbar
370
    13
100
AcDbVertex
100
AcDb2dVertex
 10
466.567794102415
 20
312.6941997875085
 30
0.0
  0
VERTEX
  5
5F2F
330
5F2C
100
AcDbEntity
  8
F_01 sichtbar
370
    13
100
AcDbVertex
100
AcDb2dVertex
 10
506.5677941024151
 20
312.6941997875085
 30
0.0
  0
VERTEX
  5
5F30
330
5F2C
100
AcDbEntity
  8
F_01 sichtbar
370
    13
100
AcDbVertex
100
AcDb2dVertex
 10
506.5677941024151
 20
317.6941997875085
 30
0.0
  0
VERTEX
  5
5F31
330
5F2C
100
AcDbEntity
  8
F_01 sichtbar
370
    13
100
AcDbVertex
100
AcDb2dVertex
 10
486.567794102415
 20
317.6941997875085
 30
0.0
  0
VERTEX
  5
5F32
330
5F2C
100
AcDbEntity
  8
F_01 sichtbar
370
    13
100
AcDbVertex
100
AcDb2dVertex
 10
486.567794102415
 20
352.6941997875085
 30
0.0
  0
SEQEND
  5
5F33
330
5F2C
100
AcDbEntity
  8
F_01 sichtbar
370
    13
  0
POLYLINE
  5
5F34
330
67
100
AcDbEntity
  8
F_02 unsichtbar
370
    13
100
AcDb2dPolyline
 66
     1
 10
0.0
 20
0.0
 30
0.0
 70
     1
  0
VERTEX
  5
5F35
330
5F34
100
AcDbEntity
  8
F_02 unsichtbar
370
    13
100
AcDbVertex
100
AcDb2dVertex
 10
469.0677941024151
 20
350.1941997875085
 30
0.0
  0
VERTEX
  5
5F36
330
5F34
100
AcDbEntity
  8
F_02 unsichtbar
370
    13
100
AcDbVertex
100
AcDb2dVertex
 10
469.0677941024151
 20
315.1941997875085
 30
0.0
  0
VERTEX
  5
5F37
330
5F34
100
AcDbEntity
  8
F_02 unsichtbar
370
    13
100
AcDbVertex
100
AcDb2dVertex
 10
484.067794102415
 20
315.1941997875085
 30
0.0
  0
VERTEX
  5
5F38
330
5F34
100
AcDbEntity
  8
F_02 unsichtbar
370
    13
100
AcDbVertex
100
AcDb2dVertex
 10
484.067794102415
 20
350.1941997875085
 30
0.0
  0
SEQEND
  5
5F39
330
5F34
100
AcDbEntity
  8
F_02 unsichtbar
370
    13
  0
POLYLINE
  5
5F3A
330
67
100
AcDbEntity
  8
F_02 unsichtbar
370
    13
100
AcDb2dPolyline
 66
     1
 10
0.0
 20
0.0
 30
0.0
  0
VERTEX
  5
5F3B
330
5F3A
100
AcDbEntity
  8
F_02 unsichtbar
370
    13
100
AcDbVertex
100
AcDb2dVertex
 10
484.067794102415
 20
315.1941997875085
 30
0.0
  0
VERTEX
  5
5F3C
330
5F3A
100
AcDbEntity
  8
F_02 unsichtbar
370
    13
100
AcDbVertex
100
AcDb2dVertex
 10
504.067794102415
 20
315.1941997875103
 30
0.0
  0
SEQEND
  5
5F3D
330
5F3A
100
AcDbEntity
  8
F_02 unsichtbar
370
    13
  0
LINE
  5
5F3E
330
67
100
AcDbEntity
  8
F_01 sichtbar
370
    13
100
AcDbLine
 10
491.567794102415
 20
317.6941997875085
 30
0.0
 11
682.9101708290872
 21
317.694199787509
 31
0.0
  0
POLYLINE
  5
5F3F
330
67
100
AcDbEntity
  8
F_01 sichtbar
370
    13
100
AcDb2dPolyline
 66
     1
 10
0.0
 20
0.0
 30
0.0
  0
VERTEX
  5
5F40
330
5F3F
100
AcDbEntity
  8
F_01 sichtbar
370
    13
100
AcDbVertex
100
AcDb2dVertex
 10
506.5677941024151
 20
312.6941997875085
 30
0.0
  0
VERTEX
  5
5F41
330
5F3F
100
AcDbEntity
  8
F_01 sichtbar
370
    13
100
AcDbVertex
100
AcDb2dVertex
 10
682.9101708290872
 20
312.6941997875085
 30
0.0
  0
SEQEND
  5
5F42
330
5F3F
100
AcDbEntity
  8
F_01 sichtbar
370
    13
  0
POLYLINE
  5
5F43
330
67
100
AcDbEntity
  8
F_02 unsichtbar
370
    13
100
AcDb2dPolyline
 66
     1
 10
0.0
 20
0.0
 30
0.0
  0
VERTEX
  5
5F44
330
5F43
100
AcDbEntity
  8
F_02 unsichtbar
370
    13
100
AcDbVertex
100
AcDb2dVertex
 10
498.567794102415
 20
317.6941997875085
 30
0.0
  0
VERTEX
  5
5F45
330
5F43
100
AcDbEntity
  8
F_02 unsichtbar
370
    13
100
AcDbVertex
100
AcDb2dVertex
 10
498.567794102415
 20
312.6941997875085
 30
0.0
  0
SEQEND
  5
5F46
330
5F43
100
AcDbEntity
  8
F_02 unsichtbar
370
    13
  0
POLYLINE
  5
5F47
330
67
100
AcDbEntity
  8
F_31 Ansichtsfenster
370
    13
100
AcDb2dPolyline
 66
     1
 10
0.0
 20
0.0
 30
0.0
  0
VERTEX
  5
5F48
330
5F47
100
AcDbEntity
  8
F_31 Ansichtsfenster
370
    13
100
AcDbVertex
100
AcDb2dVertex
 10
682.9101708290872
 20
312.6941997875081
 30
0.0
  0
VERTEX
  5
5F49
330
5F47
100
AcDbEntity
  8
F_31 Ansichtsfenster
370
    13
100
AcDbVertex
100
AcDb2dVertex
 10
682.9101708290872
 20
323.6941997875049
 30
0.0
  0
SEQEND
  5
5F4A
330
5F47
100
AcDbEntity
  8
F_31 Ansichtsfenster
370
    13
  0
LINE
  5
5F4B
330
67
100
AcDbEntity
  8
F_01 sichtbar
370
    13
100
AcDbLine
 10
487.567794102415
 20
337.6941997875085
 30
0.0
 11
682.9101708290872
 21
337.6941997875085
 31
0.0
  0
LINE
  5
5F4C
330
67
100
AcDbEntity
  8
F_01 sichtbar
370
    13
100
AcDbLine
 10
678.9177941024209
 20
317.6941997875085
 30
0.0
 11
678.9177941024209
 21
337.6941997875085
 31
0.0
  0
LINE
  5
5F4D
330
67
100
AcDbEntity
  8
F_01 sichtbar
370
    13
100
AcDbLine
 10
676.9177941024208
 20
317.6941997875085
 30
0.0
 11
676.9177941024208
 21
337.6941997875085
 31
0.0
  0
LINE
  5
5F4E
330
67
100
AcDbEntity
  8
F_01 sichtbar
370
    13
100
AcDbLine
 10
645.6177941024179
 20
317.6941997875085
 30
0.0
 11
645.6177941024179
 21
337.6941997875085
 31
0.0
  0
LINE
  5
5F4F
330
67
100
AcDbEntity
  8
F_01 sichtbar
370
    13
100
AcDbLine
 10
643.617794102418
 20
317.6941997875085
 30
0.0
 11
643.617794102418
 21
337.6941997875085
 31
0.0
  0
LINE
  5
5F50
330
67
100
AcDbEntity
  8
F_01 sichtbar
370
    13
100
AcDbLine
 10
612.3177941024151
 20
317.6941997875085
 30
0.0
 11
612.3177941024151
 21
337.6941997875085
 31
0.0
  0
LINE
  5
5F51
330
67
100
AcDbEntity
  8
F_01 sichtbar
370
    13
100
AcDbLine
 10
610.317794102415
 20
317.6941997875085
 30
0.0
 11
610.317794102415
 21
337.6941997875085
 31
0.0
  0
LINE
  5
5F52
330
67
100
AcDbEntity
  8
F_01 sichtbar
370
    13
100
AcDbLine
 10
579.0177941024194
 20
317.6941997875085
 30
0.0
 11
579.0177941024194
 21
337.6941997875085
 31
0.0
  0
LINE
  5
5F53
330
67
100
AcDbEntity
  8
F_01 sichtbar
370
    13
100
AcDbLine
 10
577.0177941024194
 20
317.6941997875085
 30
0.0
 11
577.0177941024194
 21
337.6941997875085
 31
0.0
  0
LINE
  5
5F54
330
67
100
AcDbEntity
  8
F_01 sichtbar
370
    13
100
AcDbLine
 10
545.7177941024164
 20
317.6941997875085
 30
0.0
 11
545.7177941024164
 21
337.6941997875085
 31
0.0
  0
LINE
  5
5F55
330
67
100
AcDbEntity
  8
F_01 sichtbar
370
    13
100
AcDbLine
 10
543.7177941024165
 20
317.6941997875085
 30
0.0
 11
543.7177941024165
 21
337.6941997875085
 31
0.0
  0
LINE
  5
5F56
330
67
100
AcDbEntity
  8
F_01 sichtbar
370
    13
100
AcDbLine
 10
512.4177941024209
 20
317.6941997875085
 30
0.0
 11
512.4177941024209
 21
337.6941997875085
 31
0.0
  0
LINE
  5
5F57
330
67
100
AcDbEntity
  8
F_01 sichtbar
370
    13
100
AcDbLine
 10
510.4177941024208
 20
317.6941997875085
 30
0.0
 11
510.4177941024208
 21
337.6941997875085
 31
0.0
  0
LINE
  5
5F58
330
67
100
AcDbEntity
  8
F_01 sichtbar
370
    13
100
AcDbLine
 10
489.5677941024151
 20
337.694199787494
 30
0.0
 11
489.5677941024151
 21
317.694199787494
 31
0.0
  0
LINE
  5
5F59
330
67
100
AcDbEntity
  8
F_02 unsichtbar
370
    13
100
AcDbLine
 10
487.567794102415
 20
327.6872208517973
 30
0.0
 11
682.9101708290872
 21
327.6872208517973
 31
0.0
  0
MTEXT
  5
5F5A
330
67
100
AcDbEntity
  8
F_01 sichtbar
370
    13
100
AcDbMText
 10
488.8087382362791
 20
431.0607452375706
 30
0.0
 40
15.0
 41
267.009647861938
 71
     1
 72
     5
  1
\A1;{\fArial Narrow|b0|i0|c0|p34;Gitterrost mit\PLamellen 20/10/2 mm\PMaschenweite 33.3 x 33.3 mm}
 73
     1
 44
1.0
  0
MTEXT
  5
5F5B
330
67
100
AcDbEntity
  8
F_01 sichtbar
370
    13
100
AcDbMText
 10
428.2110036317171
 20
259.6738538260461
 30
0.0
 40
15.0
 41
252.9031109687348
 71
     1
 72
     5
  1
\A1;{\fArial Narrow|b0|i0|c0|p34;CNS-Winkelprofilrahmen \P44/15/3 mm}
 73
     1
 44
1.0
  0
ENDSEC
  0
SECTION
  2
OBJECTS
  0
DICTIONARY
  5
C
330
0
100
AcDbDictionary
281
     1
  3
ACAD_2007HEADERVARS_RT
350
5F68
  3
ACAD_COLOR
350
5E
  3
ACAD_GROUP
350
D
  3
ACAD_LAYOUT
350
5D
  3
ACAD_MATERIAL
350
10
  3
ACAD_MLEADERSTYLE
350
61
  3
ACAD_MLINESTYLE
350
5A
  3
ACAD_PLOTSETTINGS
350
5C
  3
ACAD_PLOTSTYLENAME
350
E
  3
ACAD_SCALELIST
350
3D
  3
ACAD_TABLESTYLE
350
5F
  3
ACAD_VISUALSTYLE
350
29
  3
ACDB_RECOMPOSE_DATA
350
5F67
  3
AcDbVariableDictionary
350
5F5C
  3
AEC_PROPERTY_SET_DEFS
350
5E6F
  0
DICTIONARY
  5
5D7D
330
2
100
AcDbDictionary
280
     1
281
     1
  3
ACAD_LAYERSTATES
360
5D7E
  0
DICTIONARY
  5
5D70
330
5D6F
100
AcDbDictionary
280
     1
281
     1
  0
DICTIONARY
  5
5D72
330
5D71
100
AcDbDictionary
280
     1
281
     1
  0
DICTIONARY
  5
5D4D
330
5D4C
100
AcDbDictionary
280
     1
281
     1
  3
ACAD_SORTENTS
360
5D4E
  0
DICTIONARY
  5
5D53
330
5D52
100
AcDbDictionary
280
     1
281
     1
  3
ACAD_SORTENTS
360
5D54
  0
DICTIONARY
  5
5F68
102
{ACAD_REACTORS
330
C
102
}
330
C
100
AcDbDictionary
281
     1
  3
DIMJOGANG
350
5F69
  0
DICTIONARY
  5
5E
102
{ACAD_REACTORS
330
C
102
}
330
C
100
AcDbDictionary
281
     1
  0
DICTIONARY
  5
D
102
{ACAD_REACTORS
330
C
102
}
330
C
100
AcDbDictionary
281
     1
  0
DICTIONARY
  5
5D
102
{ACAD_REACTORS
330
C
102
}
330
C
100
AcDbDictionary
281
     1
  3
Layout1
350
66
  3
Layout2
350
6E
  3
Model
350
6A
  0
DICTIONARY
  5
10
102
{ACAD_REACTORS
330
C
102
}
330
C
100
AcDbDictionary
281
     1
  3
ByBlock
350
19
  3
ByLayer
350
11
  3
Global
350
21
  0
DICTIONARY
  5
61
102
{ACAD_REACTORS
330
C
102
}
330
C
100
AcDbDictionary
281
     1
  3
Standard
350
62
  0
DICTIONARY
  5
5A
102
{ACAD_REACTORS
330
C
102
}
330
C
100
AcDbDictionary
281
     1
  3
Standard
350
5B
  0
DICTIONARY
  5
5C
102
{ACAD_REACTORS
330
C
102
}
330
C
100
AcDbDictionary
281
     1
  0
ACDBDICTIONARYWDFLT
  5
E
102
{ACAD_REACTORS
330
C
102
}
330
C
100
AcDbDictionary
281
     1
  3
Normal
350
F
100
AcDbDictionaryWithDefault
340
F
  0
DICTIONARY
  5
3D
102
{ACAD_REACTORS
330
C
102
}
330
C
100
AcDbDictionary
281
     1
  3
A0
350
3E
  3
A1
350
3F
  3
A2
350
40
  3
A3
350
41
  3
A4
350
42
  3
A5
350
43
  3
A6
350
44
  3
A7
350
45
  3
A8
350
46
  3
A9
350
47
  3
B0
350
48
  3
B1
350
49
  3
B2
350
4A
  3
B3
350
4B
  3
B4
350
4C
  3
B5
350
4D
  3
B6
350
4E
  0
DICTIONARY
  5
5F
102
{ACAD_REACTORS
330
C
102
}
330
C
100
AcDbDictionary
281
     1
  3
Standard
350
60
  0
DICTIONARY
  5
29
102
{ACAD_REACTORS
330
C
102
}
330
C
100
AcDbDictionary
281
     1
  3
2dWireframe
350
2F
  3
3D Hidden
350
31
  3
3dWireframe
350
30
  3
Basic
350
2E
  3
Brighten
350
35
  3
ColorChange
350
39
  3
Conceptual
350
32
  3
Dim
350
34
  3
EdgeColorOff
350
3C
  3
Facepattern
350
38
  3
Flat
350
2A
  3
FlatWithEdges
350
2B
  3
Gouraud
350
2C
  3
GouraudWithEdges
350
2D
  3
JitterOff
350
3A
  3
Linepattern
350
37
  3
OverhangOff
350
3B
  3
Realistic
350
33
  3
Thicken
350
36
  0
XRECORD
  5
5F67
102
{ACAD_REACTORS
330
C
102
}
330
C
100
AcDbXrecord
280
     1
 90
        1
330
60
  0
DICTIONARY
  5
5F5C
102
{ACAD_REACTORS
330
C
102
}
330
C
100
AcDbDictionary
281
     1
  3
CANNOSCALE
350
5F60
  3
CMLEADERSTYLE
350
5F5E
  3
CTABLESTYLE
350
5F5D
  3
LAYEREVAL
350
5F62
  3
LAYERNOTIFY
350
5F63
  3
LIGHTINGUNITS
350
5F61
  3
MSLTSCALE
350
5F5F
  3
XCLIPFRAME
350
5F64
  0
DICTIONARY
  5
5E6F
102
{ACAD_REACTORS
330
C
102
}
330
C
100
AcDbDictionary
281
     1
  0
DICTIONARY
  5
5D7E
102
{ACAD_REACTORS
330
5D7D
102
}
330
5D7D
100
AcDbDictionary
281
     1
  0
SORTENTSTABLE
  5
5D4E
102
{ACAD_REACTORS
330
5D4D
102
}
330
5D4D
100
AcDbSortentsTable
330
5D4C
  0
SORTENTSTABLE
  5
5D54
102
{ACAD_REACTORS
330
5D53
102
}
330
5D53
100
AcDbSortentsTable
330
5D52
  0
XRECORD
  5
5F69
102
{ACAD_REACTORS
330
5F68
102
}
330
5F68
100
AcDbXrecord
280
     1
 40
1.570796326794896
  0
LAYOUT
  5
66
102
{ACAD_REACTORS
330
5D
102
}
330
5D
100
AcDbPlotSettings
  1

  2
HP Deskjet 1280 series
  4

  6

 40
0.0
 41
0.0
 42
0.0
 43
0.0
 44
0.0
 45
0.0
 46
0.0
 47
0.0
 48
0.0
 49
0.0
140
0.0
141
0.0
142
1.0
143
1.0
 70
   688
 72
     0
 73
     0
 74
     5
  7

 75
    16
147
1.0
 76
     0
 77
     2
 78
   300
148
0.0
149
0.0
100
AcDbLayout
  1
Layout1
 70
     1
 71
     1
 10
0.0
 20
0.0
 11
420.0
 21
297.0
 12
0.0
 22
0.0
 32
0.0
 14
1.000000000000000E+20
 24
1.000000000000000E+20
 34
1.000000000000000E+20
 15
-1.000000000000000E+20
 25
-1.000000000000000E+20
 35
-1.000000000000000E+20
146
0.0
 13
0.0
 23
0.0
 33
0.0
 16
1.0
 26
0.0
 36
0.0
 17
0.0
 27
1.0
 37
0.0
 76
     0
330
63
  0
LAYOUT
  5
6E
102
{ACAD_REACTORS
330
5D
102
}
330
5D
100
AcDbPlotSettings
  1

  2
HP Deskjet 1280 series
  4

  6

 40
0.0
 41
0.0
 42
0.0
 43
0.0
 44
0.0
 45
0.0
 46
0.0
 47
0.0
 48
0.0
 49
0.0
140
0.0
141
0.0
142
1.0
143
1.0
 70
   688
 72
     0
 73
     0
 74
     5
  7

 75
    16
147
1.0
 76
     0
 77
     2
 78
   300
148
0.0
149
0.0
100
AcDbLayout
  1
Layout2
 70
     1
 71
     2
 10
0.0
 20
0.0
 11
12.0
 21
9.0
 12
0.0
 22
0.0
 32
0.0
 14
0.0
 24
0.0
 34
0.0
 15
0.0
 25
0.0
 35
0.0
146
0.0
 13
0.0
 23
0.0
 33
0.0
 16
1.0
 26
0.0
 36
0.0
 17
0.0
 27
1.0
 37
0.0
 76
     0
330
6B
  0
LAYOUT
  5
6A
102
{ACAD_REACTORS
330
5D
102
}
330
5D
100
AcDbPlotSettings
  1

  2
HP Deskjet 1280 series
  4

  6

 40
0.0
 41
0.0
 42
0.0
 43
0.0
 44
0.0
 45
0.0
 46
0.0
 47
0.0
 48
0.0
 49
0.0
140
0.0
141
0.0
142
1.0
143
1.0
 70
  1712
 72
     0
 73
     0
 74
     0
  7

 75
     0
147
1.0
 76
     0
 77
     2
 78
   300
148
0.0
149
0.0
100
AcDbLayout
  1
Model
 70
     1
 71
     0
 10
0.0
 20
0.0
 11
12.0
 21
9.0
 12
0.0
 22
0.0
 32
0.0
 14
0.0
 24
0.0
 34
0.0
 15
0.0
 25
0.0
 35
0.0
146
0.0
 13
0.0
 23
0.0
 33
0.0
 16
1.0
 26
0.0
 36
0.0
 17
0.0
 27
1.0
 37
0.0
 76
     0
330
67
331
52
  0
MATERIAL
  5
19
102
{ACAD_XDICTIONARY
360
1A
102
}
102
{ACAD_REACTORS
330
10
102
}
330
10
100
AcDbMaterial
  1
ByBlock
 72
     0
 43
0.0208333333333333
 43
0.0
 43
0.0
 43
0.0
 43
0.0
 43
0.0208333333333333
 43
0.0
 43
0.0
 43
0.0
 43
0.0
 43
1.0
 43
0.0
 43
0.0
 43
0.0
 43
0.0
 43
1.0
 77
     0
 47
0.0208333333333333
 47
0.0
 47
0.0
 47
0.0
 47
0.0
 47
0.0208333333333333
 47
0.0
 47
0.0
 47
0.0
 47
0.0
 47
1.0
 47
0.0
 47
0.0
 47
0.0
 47
0.0
 47
1.0
171
     0
 49
0.0208333333333333
 49
0.0
 49
0.0
 49
0.0
 49
0.0
 49
0.0208333333333333
 49
0.0
 49
0.0
 49
0.0
 49
0.0
 49
1.0
 49
0.0
 49
0.0
 49
0.0
 49
0.0
 49
1.0
175
     0
142
0.0208333333333333
142
0.0
142
0.0
142
0.0
142
0.0
142
0.0208333333333333
142
0.0
142
0.0
142
0.0
142
0.0
142
1.0
142
0.0
142
0.0
142
0.0
142
0.0
142
1.0
179
     0
144
0.0208333333333333
144
0.0
144
0.0
144
0.0
144
0.0
144
0.0208333333333333
144
0.0
144
0.0
144
0.0
144
0.0
144
1.0
144
0.0
144
0.0
144
0.0
144
0.0
144
1.0
147
0.0208333333333333
147
0.0
147
0.0
147
0.0
147
0.0
147
0.0208333333333333
147
0.0
147
0.0
147
0.0
147
0.0
147
1.0
147
0.0
147
0.0
147
0.0
147
0.0
147
1.0
  0
MATERIAL
  5
11
102
{ACAD_XDICTIONARY
360
12
102
}
102
{ACAD_REACTORS
330
10
102
}
330
10
100
AcDbMaterial
  1
ByLayer
 72
     0
 43
0.0208333333333333
 43
0.0
 43
0.0
 43
0.0
 43
0.0
 43
0.0208333333333333
 43
0.0
 43
0.0
 43
0.0
 43
0.0
 43
1.0
 43
0.0
 43
0.0
 43
0.0
 43
0.0
 43
1.0
 77
     0
 47
0.0208333333333333
 47
0.0
 47
0.0
 47
0.0
 47
0.0
 47
0.0208333333333333
 47
0.0
 47
0.0
 47
0.0
 47
0.0
 47
1.0
 47
0.0
 47
0.0
 47
0.0
 47
0.0
 47
1.0
171
     0
 49
0.0208333333333333
 49
0.0
 49
0.0
 49
0.0
 49
0.0
 49
0.0208333333333333
 49
0.0
 49
0.0
 49
0.0
 49
0.0
 49
1.0
 49
0.0
 49
0.0
 49
0.0
 49
0.0
 49
1.0
175
     0
142
0.0208333333333333
142
0.0
142
0.0
142
0.0
142
0.0
142
0.0208333333333333
142
0.0
142
0.0
142
0.0
142
0.0
142
1.0
142
0.0
142
0.0
142
0.0
142
0.0
142
1.0
179
     0
144
0.0208333333333333
144
0.0
144
0.0
144
0.0
144
0.0
144
0.0208333333333333
144
0.0
144
0.0
144
0.0
144
0.0
144
1.0
144
0.0
144
0.0
144
0.0
144
0.0
144
1.0
147
0.0208333333333333
147
0.0
147
0.0
147
0.0
147
0.0
147
0.0208333333333333
147
0.0
147
0.0
147
0.0
147
0.0
147
1.0
147
0.0
147
0.0
147
0.0
147
0.0
147
1.0
  0
MATERIAL
  5
21
102
{ACAD_XDICTIONARY
360
22
102
}
102
{ACAD_REACTORS
330
10
102
}
330
10
100
AcDbMaterial
  1
Global
 72
     0
 43
0.0208333333333333
 43
0.0
 43
0.0
 43
0.0
 43
0.0
 43
0.0208333333333333
 43
0.0
 43
0.0
 43
0.0
 43
0.0
 43
1.0
 43
0.0
 43
0.0
 43
0.0
 43
0.0
 43
1.0
 77
     0
 47
0.0208333333333333
 47
0.0
 47
0.0
 47
0.0
 47
0.0
 47
0.0208333333333333
 47
0.0
 47
0.0
 47
0.0
 47
0.0
 47
1.0
 47
0.0
 47
0.0
 47
0.0
 47
0.0
 47
1.0
171
     0
 49
0.0208333333333333
 49
0.0
 49
0.0
 49
0.0
 49
0.0
 49
0.0208333333333333
 49
0.0
 49
0.0
 49
0.0
 49
0.0
 49
1.0
 49
0.0
 49
0.0
 49
0.0
 49
0.0
 49
1.0
175
     0
142
0.0208333333333333
142
0.0
142
0.0
142
0.0
142
0.0
142
0.0208333333333333
142
0.0
142
0.0
142
0.0
142
0.0
142
1.0
142
0.0
142
0.0
142
0.0
142
0.0
142
1.0
179
     0
144
0.0208333333333333
144
0.0
144
0.0
144
0.0
144
0.0
144
0.0208333333333333
144
0.0
144
0.0
144
0.0
144
0.0
144
1.0
144
0.0
144
0.0
144
0.0
144
0.0
144
1.0
147
0.0208333333333333
147
0.0
147
0.0
147
0.0
147
0.0
147
0.0208333333333333
147
0.0
147
0.0
147
0.0
147
0.0
147
1.0
147
0.0
147
0.0
147
0.0
147
0.0
147
1.0
  0
MLEADERSTYLE
  5
62
102
{ACAD_REACTORS
330
61
102
}
330
61
100
AcDbMLeaderStyle
170
     2
171
     1
172
     0
 90
        2
 40
0.0
 41
0.0
173
     1
 91
-1056964608
340
56
 92
       -2
290
     1
 42
0.09
291
     1
 43
0.36
  3
Standard
 44
0.18
300

342
50
174
     1
178
     6
175
     1
176
     0
 93
-1056964608
 45
0.18
292
     0
297
     0
 46
0.18
 94
-1056964608
 47
1.0
 49
1.0
140
1.0
293
     1
141
0.0
294
     1
177
     0
142
1.0
295
     0
296
     0
143
0.125
1001
ACAD_MLEADERVER
1070
     2
  0
MLINESTYLE
  5
5B
102
{ACAD_REACTORS
330
5A
102
}
330
5A
100
AcDbMlineStyle
  2
STANDARD
 70
     0
  3

 62
   256
 51
90.0
 52
90.0
 71
     2
 49
0.5
 62
   256
  6
BYLAYER
 49
-0.5
 62
   256
  6
BYLAYER
  0
ACDBPLACEHOLDER
  5
F
102
{ACAD_REACTORS
330
E
102
}
330
E
  0
SCALE
  5
3E
102
{ACAD_REACTORS
330
3D
102
}
330
3D
100
AcDbScale
 70
     0
300
1:1
140
1.0
141
1.0
290
     1
  0
SCALE
  5
3F
102
{ACAD_REACTORS
330
3D
102
}
330
3D
100
AcDbScale
 70
     0
300
1:2
140
1.0
141
2.0
290
     0
  0
SCALE
  5
40
102
{ACAD_REACTORS
330
3D
102
}
330
3D
100
AcDbScale
 70
     0
300
1:4
140
1.0
141
4.0
290
     0
  0
SCALE
  5
41
102
{ACAD_REACTORS
330
3D
102
}
330
3D
100
AcDbScale
 70
     0
300
1:5
140
1.0
141
5.0
290
     0
  0
SCALE
  5
42
102
{ACAD_REACTORS
330
3D
102
}
330
3D
100
AcDbScale
 70
     0
300
1:8
140
1.0
141
8.0
290
     0
  0
SCALE
  5
43
102
{ACAD_REACTORS
330
3D
102
}
330
3D
100
AcDbScale
 70
     0
300
1:10
140
1.0
141
10.0
290
     0
  0
SCALE
  5
44
102
{ACAD_REACTORS
330
3D
102
}
330
3D
100
AcDbScale
 70
     0
300
1:16
140
1.0
141
16.0
290
     0
  0
SCALE
  5
45
102
{ACAD_REACTORS
330
3D
102
}
330
3D
100
AcDbScale
 70
     0
300
1:20
140
1.0
141
20.0
290
     0
  0
SCALE
  5
46
102
{ACAD_REACTORS
330
3D
102
}
330
3D
100
AcDbScale
 70
     0
300
1:30
140
1.0
141
30.0
290
     0
  0
SCALE
  5
47
102
{ACAD_REACTORS
330
3D
102
}
330
3D
100
AcDbScale
 70
     0
300
1:40
140
1.0
141
40.0
290
     0
  0
SCALE
  5
48
102
{ACAD_REACTORS
330
3D
102
}
330
3D
100
AcDbScale
 70
     0
300
1:50
140
1.0
141
50.0
290
     0
  0
SCALE
  5
49
102
{ACAD_REACTORS
330
3D
102
}
330
3D
100
AcDbScale
 70
     0
300
1:100
140
1.0
141
100.0
290
     0
  0
SCALE
  5
4A
102
{ACAD_REACTORS
330
3D
102
}
330
3D
100
AcDbScale
 70
     0
300
2:1
140
2.0
141
1.0
290
     0
  0
SCALE
  5
4B
102
{ACAD_REACTORS
330
3D
102
}
330
3D
100
AcDbScale
 70
     0
300
4:1
140
4.0
141
1.0
290
     0
  0
SCALE
  5
4C
102
{ACAD_REACTORS
330
3D
102
}
330
3D
100
AcDbScale
 70
     0
300
8:1
140
8.0
141
1.0
290
     0
  0
SCALE
  5
4D
102
{ACAD_REACTORS
330
3D
102
}
330
3D
100
AcDbScale
 70
     0
300
10:1
140
10.0
141
1.0
290
     0
  0
SCALE
  5
4E
102
{ACAD_REACTORS
330
3D
102
}
330
3D
100
AcDbScale
 70
     0
300
100:1
140
100.0
141
1.0
290
     0
  0
TABLESTYLE
  5
60
102
{ACAD_XDICTIONARY
360
5F65
102
}
102
{ACAD_REACTORS
330
5F
102
}
330
5F
100
AcDbTableStyle
  3
Standard
 70
     0
 71
     0
 40
1.5
 41
1.5
280
     0
281
     0
  7
Standard
140
4.5
170
     2
 62
     0
 63
     7
283
     0
274
    -2
284
     1
 64
     0
275
    -2
285
     1
 65
     0
276
    -2
286
     1
 66
     0
277
    -2
287
     1
 67
     0
278
    -2
288
     1
 68
     0
279
    -2
289
     1
 69
     0
  7
Standard
140
6.0
170
     5
 62
     0
 63
     7
283
     0
274
    -2
284
     1
 64
     0
275
    -2
285
     1
 65
     0
276
    -2
286
     1
 66
     0
277
    -2
287
     1
 67
     0
278
    -2
288
     1
 68
     0
279
    -2
289
     1
 69
     0
  7
Standard
140
4.5
170
     5
 62
     0
 63
     7
283
     0
274
    -2
284
     1
 64
     0
275
    -2
285
     1
 65
     0
276
    -2
286
     1
 66
     0
277
    -2
287
     1
 67
     0
278
    -2
288
     1
 68
     0
279
    -2
289
     1
 69
     0
  0
VISUALSTYLE
  5
2F
102
{ACAD_XDICTIONARY
360
5F77
102
}
102
{ACAD_REACTORS
330
29
102
}
330
29
100
AcDbVisualStyle
  2
2dWireframe
 70
     4
 71
     0
 72
     2
 73
     0
 90
        0
 40
-0.6
 41
-30.0
 62
     5
 63
     7
421
 16777215
 74
     1
 91
        4
 64
     7
 65
   257
 75
     1
175
     1
 42
1.0
 92
        0
 66
   257
 43
1.0
 76
     1
 77
     6
 78
     2
 67
     7
 79
     5
170
     0
171
     0
290
     0
174
     0
 93
        1
 44
0.0
173
     0
291
     0
 45
0.0
1001
ACAD
1000
AcDbSavedByObjectVersion
1070
     0
  0
VISUALSTYLE
  5
31
102
{ACAD_XDICTIONARY
360
5F7B
102
}
102
{ACAD_REACTORS
330
29
102
}
330
29
100
AcDbVisualStyle
  2
3D Hidden
 70
     6
 71
     1
 72
     2
 73
     2
 90
        0
 40
-0.6
 41
-30.0
 62
     5
 63
     7
421
 16777215
 74
     2
 91
        2
 64
     7
 65
   257
 75
     2
175
     1
 42
179.0
 92
        0
 66
   257
 43
1.0
 76
     1
 77
     6
 78
     2
 67
     7
 79
     3
170
     0
171
     0
290
     0
174
     0
 93
        1
 44
0.0
173
     0
291
     0
 45
0.0
1001
ACAD
1000
AcDbSavedByObjectVersion
1070
     0
  0
VISUALSTYLE
  5
30
102
{ACAD_XDICTIONARY
360
5F79
102
}
102
{ACAD_REACTORS
330
29
102
}
330
29
100
AcDbVisualStyle
  2
3dWireframe
 70
     5
 71
     0
 72
     2
 73
     0
 90
        0
 40
-0.6
 41
-30.0
 62
     5
 63
     7
421
 16777215
 74
     1
 91
        4
 64
     7
 65
   257
 75
     1
175
     1
 42
1.0
 92
        0
 66
   257
 43
1.0
 76
     1
 77
     6
 78
     2
 67
     7
 79
     5
170
     0
171
     0
290
     0
174
     0
 93
        1
 44
0.0
173
     0
291
     0
 45
0.0
1001
ACAD
1000
AcDbSavedByObjectVersion
1070
     0
  0
VISUALSTYLE
  5
2E
102
{ACAD_XDICTIONARY
360
5F75
102
}
102
{ACAD_REACTORS
330
29
102
}
330
29
100
AcDbVisualStyle
  2
Basic
 70
     7
 71
     1
 72
     0
 73
     1
 90
        0
 40
-0.6
 41
-30.0
 62
     5
 63
     7
421
 16777215
 74
     0
 91
        4
 64
     7
 65
   257
 75
     1
175
     1
 42
1.0
 92
        8
 66
     7
 43
1.0
 76
     1
 77
     6
 78
     2
 67
     7
 79
     5
170
     0
171
     0
290
     0
174
     0
 93
        1
 44
0.0
173
     0
291
     1
 45
0.0
1001
ACAD
1000
AcDbSavedByObjectVersion
1070
     0
  0
VISUALSTYLE
  5
35
102
{ACAD_XDICTIONARY
360
5F83
102
}
102
{ACAD_REACTORS
330
29
102
}
330
29
100
AcDbVisualStyle
  2
Brighten
 70
    12
 71
     2
 72
     2
 73
     0
 90
        0
 40
-0.6
 41
-30.0
 62
     5
 63
     7
421
 16777215
 74
     1
 91
        4
 64
     7
 65
   257
 75
     1
175
     1
 42
1.0
 92
        8
 66
     7
 43
1.0
 76
     1
 77
     6
 78
     2
 67
     7
 79
     5
170
     0
171
     0
290
     0
174
     0
 93
        1
 44
50.0
173
     0
291
     1
 45
0.0
1001
ACAD
1000
AcDbSavedByObjectVersion
1070
     0
  0
VISUALSTYLE
  5
39
102
{ACAD_XDICTIONARY
360
5F8B
102
}
102
{ACAD_REACTORS
330
29
102
}
330
29
100
AcDbVisualStyle
  2
ColorChange
 70
    16
 71
     2
 72
     2
 73
     3
 90
        0
 40
-0.6
 41
-30.0
 62
     5
 63
     8
421
  8421504
 74
     1
 91
        4
 64
     7
 65
   257
 75
     1
175
     1
 42
1.0
 92
        8
 66
     8
424
  8421504
 43
1.0
 76
     1
 77
     6
 78
     2
 67
     7
 79
     5
170
     0
171
     0
290
     0
174
     0
 93
        1
 44
0.0
173
     0
291
     1
 45
0.0
1001
ACAD
1000
AcDbSavedByObjectVersion
1070
     0
  0
VISUALSTYLE
  5
32
102
{ACAD_XDICTIONARY
360
5F7D
102
}
102
{ACAD_REACTORS
330
29
102
}
330
29
100
AcDbVisualStyle
  2
Conceptual
 70
     9
 71
     3
 72
     2
 73
     0
 90
        0
 40
-0.6
 41
-30.0
 62
     5
 63
     7
421
 16777215
 74
     2
 91
        2
 64
     7
 65
   257
 75
     1
175
     1
 42
179.0
 92
        8
 66
     7
 43
1.0
 76
     1
 77
     6
 78
     2
 67
     7
 79
     3
170
     0
171
     0
290
     0
174
     0
 93
        1
 44
0.0
173
     0
291
     0
 45
0.0
1001
ACAD
1000
AcDbSavedByObjectVersion
1070
     0
  0
VISUALSTYLE
  5
34
102
{ACAD_XDICTIONARY
360
5F81
102
}
102
{ACAD_REACTORS
330
29
102
}
330
29
100
AcDbVisualStyle
  2
Dim
 70
    11
 71
     2
 72
     2
 73
     0
 90
        0
 40
-0.6
 41
-30.0
 62
     5
 63
     7
421
 16777215
 74
     1
 91
        4
 64
     7
 65
   257
 75
     1
175
     1
 42
1.0
 92
        8
 66
     7
 43
1.0
 76
     1
 77
     6
 78
     2
 67
     7
 79
     5
170
     0
171
     0
290
     0
174
     0
 93
        1
 44
-50.0
173
     0
291
     1
 45
0.0
1001
ACAD
1000
AcDbSavedByObjectVersion
1070
     0
  0
VISUALSTYLE
  5
3C
102
{ACAD_XDICTIONARY
360
5F91
102
}
102
{ACAD_REACTORS
330
29
102
}
330
29
100
AcDbVisualStyle
  2
EdgeColorOff
 70
    22
 71
     2
 72
     2
 73
     0
 90
        0
 40
-0.6
 41
-30.0
 62
     5
 63
     7
421
 16777215
 74
     1
 91
        4
 64
     7
 65
   257
 75
     1
175
     1
 42
1.0
 92
        8
 66
     7
 43
1.0
 76
     1
 77
     6
 78
     2
 67
     7
 79
     5
170
     0
171
     0
290
     0
174
     0
 93
        1
 44
0.0
173
     0
291
     1
 45
0.0
1001
ACAD
1000
AcDbSavedByObjectVersion
1070
     0
  0
VISUALSTYLE
  5
38
102
{ACAD_XDICTIONARY
360
5F89
102
}
102
{ACAD_REACTORS
330
29
102
}
330
29
100
AcDbVisualStyle
  2
Facepattern
 70
    15
 71
     2
 72
     2
 73
     0
 90
        0
 40
-0.6
 41
-30.0
 62
     5
 63
     7
421
 16777215
 74
     1
 91
        4
 64
     7
 65
   257
 75
     1
175
     1
 42
1.0
 92
        8
 66
     7
 43
1.0
 76
     1
 77
     6
 78
     2
 67
     7
 79
     5
170
     0
171
     0
290
     0
174
     0
 93
        1
 44
0.0
173
     0
291
     1
 45
0.0
1001
ACAD
1000
AcDbSavedByObjectVersion
1070
     0
  0
VISUALSTYLE
  5
2A
102
{ACAD_XDICTIONARY
360
5F6D
102
}
102
{ACAD_REACTORS
330
29
102
}
330
29
100
AcDbVisualStyle
  2
Flat
 70
     0
 71
     2
 72
     1
 73
     1
 90
        2
 40
-0.6
 41
30.0
 62
     5
 63
     7
421
 16777215
 74
     0
 91
        4
 64
     7
 65
   257
 75
     1
175
     1
 42
1.0
 92
        8
 66
     7
 43
1.0
 76
     1
 77
     6
 78
     2
 67
     7
 79
     5
170
     0
171
     0
290
     0
174
     0
 93
       13
 44
0.0
173
     0
291
     1
 45
0.0
1001
ACAD
1000
AcDbSavedByObjectVersion
1070
     0
  0
VISUALSTYLE
  5
2B
102
{ACAD_XDICTIONARY
360
5F6F
102
}
102
{ACAD_REACTORS
330
29
102
}
330
29
100
AcDbVisualStyle
  2
FlatWithEdges
 70
     1
 71
     2
 72
     1
 73
     1
 90
        2
 40
-0.6
 41
30.0
 62
     5
 63
     7
421
 16777215
 74
     1
 91
        4
 64
     7
 65
   257
 75
     1
175
     1
 42
1.0
 92
        0
 66
   257
 43
1.0
 76
     1
 77
     6
 78
     2
 67
     7
 79
     5
170
     0
171
     0
290
     0
174
     0
 93
       13
 44
0.0
173
     0
291
     1
 45
0.0
1001
ACAD
1000
AcDbSavedByObjectVersion
1070
     0
  0
VISUALSTYLE
  5
2C
102
{ACAD_XDICTIONARY
360
5F71
102
}
102
{ACAD_REACTORS
330
29
102
}
330
29
100
AcDbVisualStyle
  2
Gouraud
 70
     2
 71
     2
 72
     2
 73
     1
 90
        2
 40
-0.6
 41
30.0
 62
     5
 63
     7
421
 16777215
 74
     0
 91
        4
 64
     7
 65
   257
 75
     1
175
     1
 42
1.0
 92
        0
 66
     7
 43
1.0
 76
     1
 77
     6
 78
     2
 67
     7
 79
     5
170
     0
171
     0
290
     0
174
     0
 93
       13
 44
0.0
173
     0
291
     1
 45
0.0
1001
ACAD
1000
AcDbSavedByObjectVersion
1070
     0
  0
VISUALSTYLE
  5
2D
102
{ACAD_XDICTIONARY
360
5F73
102
}
102
{ACAD_REACTORS
330
29
102
}
330
29
100
AcDbVisualStyle
  2
GouraudWithEdges
 70
     3
 71
     2
 72
     2
 73
     1
 90
        2
 40
-0.6
 41
30.0
 62
     5
 63
     7
421
 16777215
 74
     1
 91
        4
 64
     7
 65
   257
 75
     1
175
     1
 42
1.0
 92
        0
 66
   257
 43
1.0
 76
     1
 77
     6
 78
     2
 67
     7
 79
     5
170
     0
171
     0
290
     0
174
     0
 93
       13
 44
0.0
173
     0
291
     1
 45
0.0
1001
ACAD
1000
AcDbSavedByObjectVersion
1070
     0
  0
VISUALSTYLE
  5
3A
102
{ACAD_XDICTIONARY
360
5F8D
102
}
102
{ACAD_REACTORS
330
29
102
}
330
29
100
AcDbVisualStyle
  2
JitterOff
 70
    20
 71
     2
 72
     2
 73
     0
 90
        0
 40
-0.6
 41
-30.0
 62
     5
 63
     7
421
 16777215
 74
     1
 91
        4
 64
     7
 65
   257
 75
     1
175
     1
 42
1.0
 92
       10
 66
     7
 43
1.0
 76
     1
 77
     6
 78
     2
 67
     7
 79
     5
170
     0
171
     0
290
     0
174
     0
 93
        1
 44
0.0
173
     0
291
     1
 45
0.0
1001
ACAD
1000
AcDbSavedByObjectVersion
1070
     0
  0
VISUALSTYLE
  5
37
102
{ACAD_XDICTIONARY
360
5F87
102
}
102
{ACAD_REACTORS
330
29
102
}
330
29
100
AcDbVisualStyle
  2
Linepattern
 70
    14
 71
     2
 72
     2
 73
     0
 90
        0
 40
-0.6
 41
-30.0
 62
     5
 63
     7
421
 16777215
 74
     1
 91
        4
 64
     7
 65
   257
 75
     7
175
     7
 42
1.0
 92
        8
 66
     7
 43
1.0
 76
     1
 77
     6
 78
     2
 67
     7
 79
     5
170
     0
171
     0
290
     0
174
     0
 93
        1
 44
0.0
173
     0
291
     1
 45
0.0
1001
ACAD
1000
AcDbSavedByObjectVersion
1070
     0
  0
VISUALSTYLE
  5
3B
102
{ACAD_XDICTIONARY
360
5F8F
102
}
102
{ACAD_REACTORS
330
29
102
}
330
29
100
AcDbVisualStyle
  2
OverhangOff
 70
    21
 71
     2
 72
     2
 73
     0
 90
        0
 40
-0.6
 41
-30.0
 62
     5
 63
     7
421
 16777215
 74
     1
 91
        4
 64
     7
 65
   257
 75
     1
175
     1
 42
1.0
 92
        9
 66
     7
 43
1.0
 76
     1
 77
     6
 78
     2
 67
     7
 79
     5
170
     0
171
     0
290
     0
174
     0
 93
        1
 44
0.0
173
     0
291
     1
 45
0.0
1001
ACAD
1000
AcDbSavedByObjectVersion
1070
     0
  0
VISUALSTYLE
  5
33
102
{ACAD_XDICTIONARY
360
5F7F
102
}
102
{ACAD_REACTORS
330
29
102
}
330
29
100
AcDbVisualStyle
  2
Realistic
 70
     8
 71
     2
 72
     2
 73
     0
 90
        0
 40
-0.6
 41
-30.0
 62
     5
 63
     7
421
 16777215
 74
     1
 91
        0
 64
     7
 65
   257
 75
     1
175
     1
 42
1.0
 92
        8
 66
     8
424
  7895160
 43
1.0
 76
     1
 77
     6
 78
     2
 67
     7
 79
     5
170
     0
171
     0
290
     0
174
     0
 93
       13
 44
0.0
173
     0
291
     0
 45
0.0
1001
ACAD
1000
AcDbSavedByObjectVersion
1070
     0
  0
VISUALSTYLE
  5
36
102
{ACAD_XDICTIONARY
360
5F85
102
}
102
{ACAD_REACTORS
330
29
102
}
330
29
100
AcDbVisualStyle
  2
Thicken
 70
    13
 71
     2
 72
     2
 73
     0
 90
        0
 40
-0.6
 41
-30.0
 62
     5
 63
     7
421
 16777215
 74
     1
 91
        4
 64
     7
 65
   257
 75
     1
175
     1
 42
1.0
 92
       12
 66
     7
 43
1.0
 76
     1
 77
     6
 78
     2
 67
     7
 79
     5
170
     0
171
     0
290
     0
174
     0
 93
        1
 44
0.0
173
     0
291
     1
 45
0.0
1001
ACAD
1000
AcDbSavedByObjectVersion
1070
     0
  0
DICTIONARYVAR
  5
5F60
102
{ACAD_REACTORS
330
5F5C
102
}
330
5F5C
100
DictionaryVariables
280
     0
  1
1:1
  0
DICTIONARYVAR
  5
5F5E
102
{ACAD_REACTORS
330
5F5C
102
}
330
5F5C
100
DictionaryVariables
280
     0
  1
STANDARD
  0
DICTIONARYVAR
  5
5F5D
102
{ACAD_REACTORS
330
5F5C
102
}
330
5F5C
100
DictionaryVariables
280
     0
  1
STANDARD
  0
DICTIONARYVAR
  5
5F62
102
{ACAD_REACTORS
330
5F5C
102
}
330
5F5C
100
DictionaryVariables
280
     0
  1
0
  0
DICTIONARYVAR
  5
5F63
102
{ACAD_REACTORS
330
5F5C
102
}
330
5F5C
100
DictionaryVariables
280
     0
  1
0
  0
DICTIONARYVAR
  5
5F61
102
{ACAD_REACTORS
330
5F5C
102
}
330
5F5C
100
DictionaryVariables
280
     0
  1
2
  0
DICTIONARYVAR
  5
5F5F
102
{ACAD_REACTORS
330
5F5C
102
}
330
5F5C
100
DictionaryVariables
280
     0
  1
1
  0
DICTIONARYVAR
  5
5F64
102
{ACAD_REACTORS
330
5F5C
102
}
330
5F5C
100
DictionaryVariables
280
     0
  1
2
  0
DICTIONARY
  5
1A
330
19
100
AcDbDictionary
280
     1
281
     1
  3
ACAD_XREC_ROUNDTRIP
360
5F6B
  3
BUMPTILE
360
1C
  3
DIFFUSETILE
360
1B
  3
OPACITYTILE
360
1F
  3
REFLECTIONTILE
360
1E
  3
REFRACTIONTILE
360
20
  3
SPECULARTILE
360
1D
  0
DICTIONARY
  5
12
330
11
100
AcDbDictionary
280
     1
281
     1
  3
ACAD_XREC_ROUNDTRIP
360
5F6A
  3
BUMPTILE
360
14
  3
DIFFUSETILE
360
13
  3
OPACITYTILE
360
17
  3
REFLECTIONTILE
360
16
  3
REFRACTIONTILE
360
18
  3
SPECULARTILE
360
15
  0
DICTIONARY
  5
22
330
21
100
AcDbDictionary
280
     1
281
     1
  3
ACAD_XREC_ROUNDTRIP
360
5F6C
  3
BUMPTILE
360
24
  3
DIFFUSETILE
360
23
  3
OPACITYTILE
360
27
  3
REFLECTIONTILE
360
26
  3
REFRACTIONTILE
360
28
  3
SPECULARTILE
360
25
  0
DICTIONARY
  5
5F65
330
60
100
AcDbDictionary
280
     1
281
     1
  3
ACAD_ROUNDTRIP_2008_TABLESTYLE_CELLSTYLEMAP
360
5F66
  3
ACAD_XREC_ROUNDTRIP
360
5F94
  0
DICTIONARY
  5
5F77
330
2F
100
AcDbDictionary
280
     1
281
     1
  3
ACAD_XREC_ROUNDTRIP
360
5F78
  0
DICTIONARY
  5
5F7B
330
31
100
AcDbDictionary
280
     1
281
     1
  3
ACAD_XREC_ROUNDTRIP
360
5F7C
  0
DICTIONARY
  5
5F79
330
30
100
AcDbDictionary
280
     1
281
     1
  3
ACAD_XREC_ROUNDTRIP
360
5F7A
  0
DICTIONARY
  5
5F75
330
2E
100
AcDbDictionary
280
     1
281
     1
  3
ACAD_XREC_ROUNDTRIP
360
5F76
  0
DICTIONARY
  5
5F83
330
35
100
AcDbDictionary
280
     1
281
     1
  3
ACAD_XREC_ROUNDTRIP
360
5F84
  0
DICTIONARY
  5
5F8B
330
39
100
AcDbDictionary
280
     1
281
     1
  3
ACAD_XREC_ROUNDTRIP
360
5F8C
  0
DICTIONARY
  5
5F7D
330
32
100
AcDbDictionary
280
     1
281
     1
  3
ACAD_XREC_ROUNDTRIP
360
5F7E
  0
DICTIONARY
  5
5F81
330
34
100
AcDbDictionary
280
     1
281
     1
  3
ACAD_XREC_ROUNDTRIP
360
5F82
  0
DICTIONARY
  5
5F91
330
3C
100
AcDbDictionary
280
     1
281
     1
  3
ACAD_XREC_ROUNDTRIP
360
5F92
  0
DICTIONARY
  5
5F89
330
38
100
AcDbDictionary
280
     1
281
     1
  3
ACAD_XREC_ROUNDTRIP
360
5F8A
  0
DICTIONARY
  5
5F6D
330
2A
100
AcDbDictionary
280
     1
281
     1
  3
ACAD_XREC_ROUNDTRIP
360
5F6E
  0
DICTIONARY
  5
5F6F
330
2B
100
AcDbDictionary
280
     1
281
     1
  3
ACAD_XREC_ROUNDTRIP
360
5F70
  0
DICTIONARY
  5
5F71
330
2C
100
AcDbDictionary
280
     1
281
     1
  3
ACAD_XREC_ROUNDTRIP
360
5F72
  0
DICTIONARY
  5
5F73
330
2D
100
AcDbDictionary
280
     1
281
     1
  3
ACAD_XREC_ROUNDTRIP
360
5F74
  0
DICTIONARY
  5
5F8D
330
3A
100
AcDbDictionary
280
     1
281
     1
  3
ACAD_XREC_ROUNDTRIP
360
5F8E
  0
DICTIONARY
  5
5F87
330
37
100
AcDbDictionary
280
     1
281
     1
  3
ACAD_XREC_ROUNDTRIP
360
5F88
  0
DICTIONARY
  5
5F8F
330
3B
100
AcDbDictionary
280
     1
281
     1
  3
ACAD_XREC_ROUNDTRIP
360
5F90
  0
DICTIONARY
  5
5F7F
330
33
100
AcDbDictionary
280
     1
281
     1
  3
ACAD_XREC_ROUNDTRIP
360
5F80
  0
DICTIONARY
  5
5F85
330
36
100
AcDbDictionary
280
     1
281
     1
  3
ACAD_XREC_ROUNDTRIP
360
5F86
  0
XRECORD
  5
5F6B
102
{ACAD_REACTORS
330
1A
102
}
330
1A
100
AcDbXrecord
280
     1
102
MATERIAL
148
0.0
149
0.0
149
0.0
 93
        0
 94
      127
282
     0
 72
     0
 77
     0
171
     0
175
     0
179
     0
273
     0
  0
XRECORD
  5
1C
102
{ACAD_REACTORS
330
1A
102
}
330
1A
100
AcDbXrecord
280
     1
270
     1
271
     1
  0
XRECORD
  5
1B
102
{ACAD_REACTORS
330
1A
102
}
330
1A
100
AcDbXrecord
280
     1
270
     1
271
     1
  0
XRECORD
  5
1F
102
{ACAD_REACTORS
330
1A
102
}
330
1A
100
AcDbXrecord
280
     1
270
     1
271
     1
  0
XRECORD
  5
1E
102
{ACAD_REACTORS
330
1A
102
}
330
1A
100
AcDbXrecord
280
     1
270
     1
271
     1
  0
XRECORD
  5
20
102
{ACAD_REACTORS
330
1A
102
}
330
1A
100
AcDbXrecord
280
     1
270
     1
271
     1
  0
XRECORD
  5
1D
102
{ACAD_REACTORS
330
1A
102
}
330
1A
100
AcDbXrecord
280
     1
270
     1
271
     1
  0
XRECORD
  5
5F6A
102
{ACAD_REACTORS
330
12
102
}
330
12
100
AcDbXrecord
280
     1
102
MATERIAL
148
0.0
149
0.0
149
0.0
 93
        0
 94
      127
282
     0
 72
     0
 77
     0
171
     0
175
     0
179
     0
273
     0
  0
XRECORD
  5
14
102
{ACAD_REACTORS
330
12
102
}
330
12
100
AcDbXrecord
280
     1
270
     1
271
     1
  0
XRECORD
  5
13
102
{ACAD_REACTORS
330
12
102
}
330
12
100
AcDbXrecord
280
     1
270
     1
271
     1
  0
XRECORD
  5
17
102
{ACAD_REACTORS
330
12
102
}
330
12
100
AcDbXrecord
280
     1
270
     1
271
     1
  0
XRECORD
  5
16
102
{ACAD_REACTORS
330
12
102
}
330
12
100
AcDbXrecord
280
     1
270
     1
271
     1
  0
XRECORD
  5
18
102
{ACAD_REACTORS
330
12
102
}
330
12
100
AcDbXrecord
280
     1
270
     1
271
     1
  0
XRECORD
  5
15
102
{ACAD_REACTORS
330
12
102
}
330
12
100
AcDbXrecord
280
     1
270
     1
271
     1
  0
XRECORD
  5
5F6C
102
{ACAD_REACTORS
330
22
102
}
330
22
100
AcDbXrecord
280
     1
102
MATERIAL
148
0.0
149
0.0
149
0.0
 93
        0
 94
      127
282
     0
 72
     0
 77
     0
171
     0
175
     0
179
     0
273
     0
  0
XRECORD
  5
24
102
{ACAD_REACTORS
330
22
102
}
330
22
100
AcDbXrecord
280
     1
270
     1
271
     1
  0
XRECORD
  5
23
102
{ACAD_REACTORS
330
22
102
}
330
22
100
AcDbXrecord
280
     1
270
     1
271
     1
  0
XRECORD
  5
27
102
{ACAD_REACTORS
330
22
102
}
330
22
100
AcDbXrecord
280
     1
270
     1
271
     1
  0
XRECORD
  5
26
102
{ACAD_REACTORS
330
22
102
}
330
22
100
AcDbXrecord
280
     1
270
     1
271
     1
  0
XRECORD
  5
28
102
{ACAD_REACTORS
330
22
102
}
330
22
100
AcDbXrecord
280
     1
270
     1
271
     1
  0
XRECORD
  5
25
102
{ACAD_REACTORS
330
22
102
}
330
22
100
AcDbXrecord
280
     1
270
     1
271
     1
  0
CELLSTYLEMAP
  5
5F66
102
{ACAD_REACTORS
330
5F65
102
}
330
5F65
100
AcDbCellStyleMap
 90
        3
300
CELLSTYLE
  1
TABLEFORMAT_BEGIN
 90
        5
170
     1
 91
        0
 92
    32768
 62
   257
 93
        1
300
CONTENTFORMAT
  1
CONTENTFORMAT_BEGIN
 90
        0
 91
        0
 92
      512
 93
        0
300

 40
0.0
140
1.0
 94
        5
 62
     0
340
50
144
6.0
309
CONTENTFORMAT_END
171
     1
301
MARGIN
  1
CELLMARGIN_BEGIN
 40
1.5
 40
1.5
 40
1.5
 40
1.5
 40
4.5
 40
4.5
309
CELLMARGIN_END
 94
        6
 95
        1
302
GRIDFORMAT
  1
GRIDFORMAT_BEGIN
 90
        0
 91
        1
 62
     0
 92
       -2
340
0
 93
        0
 40
1.125
309
GRIDFORMAT_END
 95
        2
302
GRIDFORMAT
  1
GRIDFORMAT_BEGIN
 90
        0
 91
        1
 62
     0
 92
       -2
340
0
 93
        0
 40
1.125
309
GRIDFORMAT_END
 95
        4
302
GRIDFORMAT
  1
GRIDFORMAT_BEGIN
 90
        0
 91
        1
 62
     0
 92
       -2
340
0
 93
        0
 40
1.125
309
GRIDFORMAT_END
 95
        8
302
GRIDFORMAT
  1
GRIDFORMAT_BEGIN
 90
        0
 91
        1
 62
     0
 92
       -2
340
0
 93
        0
 40
1.125
309
GRIDFORMAT_END
 95
       16
302
GRIDFORMAT
  1
GRIDFORMAT_BEGIN
 90
        0
 91
        1
 62
     0
 92
       -2
340
0
 93
        0
 40
1.125
309
GRIDFORMAT_END
 95
       32
302
GRIDFORMAT
  1
GRIDFORMAT_BEGIN
 90
        0
 91
        1
 62
     0
 92
       -2
340
0
 93
        0
 40
1.125
309
GRIDFORMAT_END
309
TABLEFORMAT_END
  1
CELLSTYLE_BEGIN
 90
        1
 91
        1
300
_TITLE
309
CELLSTYLE_END
300
CELLSTYLE
  1
TABLEFORMAT_BEGIN
 90
        5
170
     1
 91
        0
 92
        0
 62
   257
 93
        1
300
CONTENTFORMAT
  1
CONTENTFORMAT_BEGIN
 90
        0
 91
        0
 92
      512
 93
        0
300

 40
0.0
140
1.0
 94
        5
 62
     0
340
50
144
4.5
309
CONTENTFORMAT_END
171
     1
301
MARGIN
  1
CELLMARGIN_BEGIN
 40
1.5
 40
1.5
 40
1.5
 40
1.5
 40
4.5
 40
4.5
309
CELLMARGIN_END
 94
        6
 95
        1
302
GRIDFORMAT
  1
GRIDFORMAT_BEGIN
 90
        0
 91
        1
 62
     0
 92
       -2
340
0
 93
        0
 40
1.125
309
GRIDFORMAT_END
 95
        2
302
GRIDFORMAT
  1
GRIDFORMAT_BEGIN
 90
        0
 91
        1
 62
     0
 92
       -2
340
0
 93
        0
 40
1.125
309
GRIDFORMAT_END
 95
        4
302
GRIDFORMAT
  1
GRIDFORMAT_BEGIN
 90
        0
 91
        1
 62
     0
 92
       -2
340
0
 93
        0
 40
1.125
309
GRIDFORMAT_END
 95
        8
302
GRIDFORMAT
  1
GRIDFORMAT_BEGIN
 90
        0
 91
        1
 62
     0
 92
       -2
340
0
 93
        0
 40
1.125
309
GRIDFORMAT_END
 95
       16
302
GRIDFORMAT
  1
GRIDFORMAT_BEGIN
 90
        0
 91
        1
 62
     0
 92
       -2
340
0
 93
        0
 40
1.125
309
GRIDFORMAT_END
 95
       32
302
GRIDFORMAT
  1
GRIDFORMAT_BEGIN
 90
        0
 91
        1
 62
     0
 92
       -2
340
0
 93
        0
 40
1.125
309
GRIDFORMAT_END
309
TABLEFORMAT_END
  1
CELLSTYLE_BEGIN
 90
        2
 91
        1
300
_HEADER
309
CELLSTYLE_END
300
CELLSTYLE
  1
TABLEFORMAT_BEGIN
 90
        5
170
     1
 91
        0
 92
        0
 62
   257
 93
        1
300
CONTENTFORMAT
  1
CONTENTFORMAT_BEGIN
 90
        0
 91
        0
 92
      512
 93
        0
300

 40
0.0
140
1.0
 94
        2
 62
     0
340
50
144
4.5
309
CONTENTFORMAT_END
171
     1
301
MARGIN
  1
CELLMARGIN_BEGIN
 40
1.5
 40
1.5
 40
1.5
 40
1.5
 40
4.5
 40
4.5
309
CELLMARGIN_END
 94
        6
 95
        1
302
GRIDFORMAT
  1
GRIDFORMAT_BEGIN
 90
        0
 91
        1
 62
     0
 92
       -2
340
0
 93
        0
 40
1.125
309
GRIDFORMAT_END
 95
        2
302
GRIDFORMAT
  1
GRIDFORMAT_BEGIN
 90
        0
 91
        1
 62
     0
 92
       -2
340
0
 93
        0
 40
1.125
309
GRIDFORMAT_END
 95
        4
302
GRIDFORMAT
  1
GRIDFORMAT_BEGIN
 90
        0
 91
        1
 62
     0
 92
       -2
340
0
 93
        0
 40
1.125
309
GRIDFORMAT_END
 95
        8
302
GRIDFORMAT
  1
GRIDFORMAT_BEGIN
 90
        0
 91
        1
 62
     0
 92
       -2
340
0
 93
        0
 40
1.125
309
GRIDFORMAT_END
 95
       16
302
GRIDFORMAT
  1
GRIDFORMAT_BEGIN
 90
        0
 91
        1
 62
     0
 92
       -2
340
0
 93
        0
 40
1.125
309
GRIDFORMAT_END
 95
       32
302
GRIDFORMAT
  1
GRIDFORMAT_BEGIN
 90
        0
 91
        1
 62
     0
 92
       -2
340
0
 93
        0
 40
1.125
309
GRIDFORMAT_END
309
TABLEFORMAT_END
  1
CELLSTYLE_BEGIN
 90
        3
 91
        2
300
_DATA
309
CELLSTYLE_END
  0
XRECORD
  5
5F94
102
{ACAD_REACTORS
330
5F65
102
}
330
5F65
100
AcDbXrecord
280
     1
102
ACAD_ROUNDTRIP_PRE2007_TABLESTYLE
 90
      512
 91
        0
  1

 92
      512
 93
        0
  2

 94
      512
 95
        0
  3

  0
XRECORD
  5
5F78
102
{ACAD_REACTORS
330
5F77
102
}
330
5F77
100
AcDbXrecord
280
     1
102
RTVSPropertyOp0
 70
     1
102
RTVSPropertyOp1
 70
     1
102
RTVSPropertyOp2
 70
     1
102
RTVSPropertyOp3
 70
     1
102
RTVSPropertyOp4
 70
     1
102
RTVSPropertyOp5
 70
     1
102
RTVSPropertyOp6
 70
     1
102
RTVSPropertyOp7
 70
     1
102
RTVSPropertyOp8
 70
     1
102
RTVSPropertyOp9
 70
     1
102
RTVSPropertyOp10
 70
     1
102
RTVSPropertyOp11
 70
     1
102
RTVSPropertyOp12
 70
     1
102
RTVSPropertyOp13
 70
     1
102
RTVSPropertyOp14
 70
     1
102
RTVSPropertyOp15
 70
     1
102
RTVSPropertyOp16
 70
     1
102
RTVSPropertyOp17
 70
     1
102
RTVSPropertyOp18
 70
     1
102
RTVSPropertyOp19
 70
     1
102
RTVSPropertyOp20
 70
     1
102
RTVSPropertyOp21
 70
     1
102
RTVSPropertyOp22
 70
     1
102
RTVSPropertyOp23
 70
     1
102
RTVSPropertyOp24
 70
     1
102
RTVSPropertyOp25
 70
     1
102
RTVSPropertyOp26
 70
     1
102
RTVSPropertyOp27
 70
     1
  0
XRECORD
  5
5F7C
102
{ACAD_REACTORS
330
5F7B
102
}
330
5F7B
100
AcDbXrecord
280
     1
102
RTVSPropertyOp0
 70
     1
102
RTVSPropertyOp1
 70
     1
102
RTVSPropertyOp2
 70
     1
102
RTVSPropertyOp3
 70
     1
102
RTVSPropertyOp4
 70
     1
102
RTVSPropertyOp5
 70
     1
102
RTVSPropertyOp6
 70
     1
102
RTVSPropertyOp7
 70
     1
102
RTVSPropertyOp8
 70
     1
102
RTVSPropertyOp9
 70
     1
102
RTVSPropertyOp10
 70
     1
102
RTVSPropertyOp11
 70
     1
102
RTVSPropertyOp12
 70
     1
102
RTVSPropertyOp13
 70
     1
102
RTVSPropertyOp14
 70
     1
102
RTVSPropertyOp15
 70
     1
102
RTVSPropertyOp16
 70
     1
102
RTVSPropertyOp17
 70
     1
102
RTVSPropertyOp18
 70
     1
102
RTVSPropertyOp19
 70
     1
102
RTVSPropertyOp20
 70
     1
102
RTVSPropertyOp21
 70
     1
102
RTVSPropertyOp22
 70
     1
102
RTVSPropertyOp23
 70
     1
102
RTVSPropertyOp24
 70
     1
102
RTVSPropertyOp25
 70
     1
102
RTVSPropertyOp26
 70
     1
102
RTVSPropertyOp27
 70
     1
  0
XRECORD
  5
5F7A
102
{ACAD_REACTORS
330
5F79
102
}
330
5F79
100
AcDbXrecord
280
     1
102
RTVSPropertyOp0
 70
     1
102
RTVSPropertyOp1
 70
     1
102
RTVSPropertyOp2
 70
     1
102
RTVSPropertyOp3
 70
     1
102
RTVSPropertyOp4
 70
     1
102
RTVSPropertyOp5
 70
     1
102
RTVSPropertyOp6
 70
     1
102
RTVSPropertyOp7
 70
     1
102
RTVSPropertyOp8
 70
     1
102
RTVSPropertyOp9
 70
     1
102
RTVSPropertyOp10
 70
     1
102
RTVSPropertyOp11
 70
     1
102
RTVSPropertyOp12
 70
     1
102
RTVSPropertyOp13
 70
     1
102
RTVSPropertyOp14
 70
     1
102
RTVSPropertyOp15
 70
     1
102
RTVSPropertyOp16
 70
     1
102
RTVSPropertyOp17
 70
     1
102
RTVSPropertyOp18
 70
     1
102
RTVSPropertyOp19
 70
     1
102
RTVSPropertyOp20
 70
     1
102
RTVSPropertyOp21
 70
     1
102
RTVSPropertyOp22
 70
     1
102
RTVSPropertyOp23
 70
     1
102
RTVSPropertyOp24
 70
     1
102
RTVSPropertyOp25
 70
     1
102
RTVSPropertyOp26
 70
     1
102
RTVSPropertyOp27
 70
     1
  0
XRECORD
  5
5F76
102
{ACAD_REACTORS
330
5F75
102
}
330
5F75
100
AcDbXrecord
280
     1
102
RTVSPropertyOp0
 70
     1
102
RTVSPropertyOp1
 70
     1
102
RTVSPropertyOp2
 70
     1
102
RTVSPropertyOp3
 70
     1
102
RTVSPropertyOp4
 70
     1
102
RTVSPropertyOp5
 70
     1
102
RTVSPropertyOp6
 70
     1
102
RTVSPropertyOp7
 70
     1
102
RTVSPropertyOp8
 70
     1
102
RTVSPropertyOp9
 70
     1
102
RTVSPropertyOp10
 70
     1
102
RTVSPropertyOp11
 70
     1
102
RTVSPropertyOp12
 70
     1
102
RTVSPropertyOp13
 70
     1
102
RTVSPropertyOp14
 70
     1
102
RTVSPropertyOp15
 70
     1
102
RTVSPropertyOp16
 70
     1
102
RTVSPropertyOp17
 70
     1
102
RTVSPropertyOp18
 70
     1
102
RTVSPropertyOp19
 70
     1
102
RTVSPropertyOp20
 70
     1
102
RTVSPropertyOp21
 70
     1
102
RTVSPropertyOp22
 70
     1
102
RTVSPropertyOp23
 70
     1
102
RTVSPropertyOp24
 70
     1
102
RTVSPropertyOp25
 70
     1
102
RTVSPropertyOp26
 70
     1
102
RTVSPropertyOp27
 70
     1
  0
XRECORD
  5
5F84
102
{ACAD_REACTORS
330
5F83
102
}
330
5F83
100
AcDbXrecord
280
     1
102
RTVSPropertyOp0
 70
     1
102
RTVSPropertyOp1
 70
     1
102
RTVSPropertyOp2
 70
     1
102
RTVSPropertyOp3
 70
     1
102
RTVSPropertyOp4
 70
     1
102
RTVSPropertyOp5
 70
     1
102
RTVSPropertyOp6
 70
     1
102
RTVSPropertyOp7
 70
     1
102
RTVSPropertyOp8
 70
     1
102
RTVSPropertyOp9
 70
     1
102
RTVSPropertyOp10
 70
     1
102
RTVSPropertyOp11
 70
     1
102
RTVSPropertyOp12
 70
     1
102
RTVSPropertyOp13
 70
     1
102
RTVSPropertyOp14
 70
     1
102
RTVSPropertyOp15
 70
     1
102
RTVSPropertyOp16
 70
     1
102
RTVSPropertyOp17
 70
     1
102
RTVSPropertyOp18
 70
     1
102
RTVSPropertyOp19
 70
     1
102
RTVSPropertyOp20
 70
     1
102
RTVSPropertyOp21
 70
     1
102
RTVSPropertyOp22
 70
     1
102
RTVSPropertyOp23
 70
     1
102
RTVSPropertyOp24
 70
     1
102
RTVSPropertyOp25
 70
     1
102
RTVSPropertyOp26
 70
     1
102
RTVSPropertyOp27
 70
     1
  0
XRECORD
  5
5F8C
102
{ACAD_REACTORS
330
5F8B
102
}
330
5F8B
100
AcDbXrecord
280
     1
102
RTVSPropertyOp0
 70
     1
102
RTVSPropertyOp1
 70
     1
102
RTVSPropertyOp2
 70
     1
102
RTVSPropertyOp3
 70
     1
102
RTVSPropertyOp4
 70
     1
102
RTVSPropertyOp5
 70
     1
102
RTVSPropertyOp6
 70
     1
102
RTVSPropertyOp7
 70
     1
102
RTVSPropertyOp8
 70
     1
102
RTVSPropertyOp9
 70
     1
102
RTVSPropertyOp10
 70
     1
102
RTVSPropertyOp11
 70
     1
102
RTVSPropertyOp12
 70
     1
102
RTVSPropertyOp13
 70
     1
102
RTVSPropertyOp14
 70
     1
102
RTVSPropertyOp15
 70
     1
102
RTVSPropertyOp16
 70
     1
102
RTVSPropertyOp17
 70
     1
102
RTVSPropertyOp18
 70
     1
102
RTVSPropertyOp19
 70
     1
102
RTVSPropertyOp20
 70
     1
102
RTVSPropertyOp21
 70
     1
102
RTVSPropertyOp22
 70
     1
102
RTVSPropertyOp23
 70
     1
102
RTVSPropertyOp24
 70
     1
102
RTVSPropertyOp25
 70
     1
102
RTVSPropertyOp26
 70
     1
102
RTVSPropertyOp27
 70
     1
  0
XRECORD
  5
5F7E
102
{ACAD_REACTORS
330
5F7D
102
}
330
5F7D
100
AcDbXrecord
280
     1
102
RTVSPropertyOp0
 70
     1
102
RTVSPropertyOp1
 70
     1
102
RTVSPropertyOp2
 70
     1
102
RTVSPropertyOp3
 70
     1
102
RTVSPropertyOp4
 70
     1
102
RTVSPropertyOp5
 70
     1
102
RTVSPropertyOp6
 70
     1
102
RTVSPropertyOp7
 70
     1
102
RTVSPropertyOp8
 70
     1
102
RTVSPropertyOp9
 70
     1
102
RTVSPropertyOp10
 70
     1
102
RTVSPropertyOp11
 70
     1
102
RTVSPropertyOp12
 70
     1
102
RTVSPropertyOp13
 70
     1
102
RTVSPropertyOp14
 70
     1
102
RTVSPropertyOp15
 70
     1
102
RTVSPropertyOp16
 70
     1
102
RTVSPropertyOp17
 70
     1
102
RTVSPropertyOp18
 70
     1
102
RTVSPropertyOp19
 70
     1
102
RTVSPropertyOp20
 70
     1
102
RTVSPropertyOp21
 70
     1
102
RTVSPropertyOp22
 70
     1
102
RTVSPropertyOp23
 70
     1
102
RTVSPropertyOp24
 70
     1
102
RTVSPropertyOp25
 70
     1
102
RTVSPropertyOp26
 70
     1
102
RTVSPropertyOp27
 70
     1
  0
XRECORD
  5
5F82
102
{ACAD_REACTORS
330
5F81
102
}
330
5F81
100
AcDbXrecord
280
     1
102
RTVSPropertyOp0
 70
     1
102
RTVSPropertyOp1
 70
     1
102
RTVSPropertyOp2
 70
     1
102
RTVSPropertyOp3
 70
     1
102
RTVSPropertyOp4
 70
     1
102
RTVSPropertyOp5
 70
     1
102
RTVSPropertyOp6
 70
     1
102
RTVSPropertyOp7
 70
     1
102
RTVSPropertyOp8
 70
     1
102
RTVSPropertyOp9
 70
     1
102
RTVSPropertyOp10
 70
     1
102
RTVSPropertyOp11
 70
     1
102
RTVSPropertyOp12
 70
     1
102
RTVSPropertyOp13
 70
     1
102
RTVSPropertyOp14
 70
     1
102
RTVSPropertyOp15
 70
     1
102
RTVSPropertyOp16
 70
     1
102
RTVSPropertyOp17
 70
     1
102
RTVSPropertyOp18
 70
     1
102
RTVSPropertyOp19
 70
     1
102
RTVSPropertyOp20
 70
     1
102
RTVSPropertyOp21
 70
     1
102
RTVSPropertyOp22
 70
     1
102
RTVSPropertyOp23
 70
     1
102
RTVSPropertyOp24
 70
     1
102
RTVSPropertyOp25
 70
     1
102
RTVSPropertyOp26
 70
     1
102
RTVSPropertyOp27
 70
     1
  0
XRECORD
  5
5F92
102
{ACAD_REACTORS
330
5F91
102
}
330
5F91
100
AcDbXrecord
280
     1
102
RTVSPropertyOp0
 70
     0
102
RTVSPropertyOp1
 70
     0
102
RTVSPropertyOp2
 70
     0
102
RTVSPropertyOp3
 70
     0
102
RTVSPropertyOp4
 70
     0
102
RTVSPropertyOp5
 70
     0
102
RTVSPropertyOp6
 70
     0
102
RTVSPropertyOp7
 70
     0
102
RTVSPropertyOp8
 70
     0
102
RTVSPropertyOp9
 70
     0
102
RTVSPropertyOp10
 70
     0
102
RTVSPropertyOp11
 70
     0
102
RTVSPropertyOp12
 70
     0
102
RTVSPropertyOp13
 70
     0
102
RTVSPropertyOp14
 70
     2
102
RTVSPropertyOp15
 70
     0
102
RTVSPropertyOp16
 70
     0
102
RTVSPropertyOp17
 70
     0
102
RTVSPropertyOp18
 70
     0
102
RTVSPropertyOp19
 70
     0
102
RTVSPropertyOp20
 70
     0
102
RTVSPropertyOp21
 70
     0
102
RTVSPropertyOp22
 70
     0
102
RTVSPropertyOp23
 70
     0
102
RTVSPropertyOp24
 70
     0
102
RTVSPropertyOp25
 70
     0
102
RTVSPropertyOp26
 70
     0
102
RTVSPropertyOp27
 70
     0
  0
XRECORD
  5
5F8A
102
{ACAD_REACTORS
330
5F89
102
}
330
5F89
100
AcDbXrecord
280
     1
102
RTVSPropertyOp0
 70
     1
102
RTVSPropertyOp1
 70
     1
102
RTVSPropertyOp2
 70
     1
102
RTVSPropertyOp3
 70
     1
102
RTVSPropertyOp4
 70
     1
102
RTVSPropertyOp5
 70
     1
102
RTVSPropertyOp6
 70
     1
102
RTVSPropertyOp7
 70
     1
102
RTVSPropertyOp8
 70
     1
102
RTVSPropertyOp9
 70
     1
102
RTVSPropertyOp10
 70
     1
102
RTVSPropertyOp11
 70
     1
102
RTVSPropertyOp12
 70
     1
102
RTVSPropertyOp13
 70
     1
102
RTVSPropertyOp14
 70
     1
102
RTVSPropertyOp15
 70
     1
102
RTVSPropertyOp16
 70
     1
102
RTVSPropertyOp17
 70
     1
102
RTVSPropertyOp18
 70
     1
102
RTVSPropertyOp19
 70
     1
102
RTVSPropertyOp20
 70
     1
102
RTVSPropertyOp21
 70
     1
102
RTVSPropertyOp22
 70
     1
102
RTVSPropertyOp23
 70
     1
102
RTVSPropertyOp24
 70
     1
102
RTVSPropertyOp25
 70
     1
102
RTVSPropertyOp26
 70
     1
102
RTVSPropertyOp27
 70
     1
  0
XRECORD
  5
5F6E
102
{ACAD_REACTORS
330
5F6D
102
}
330
5F6D
100
AcDbXrecord
280
     1
102
RTVSPropertyOp0
 70
     1
102
RTVSPropertyOp1
 70
     1
102
RTVSPropertyOp2
 70
     1
102
RTVSPropertyOp3
 70
     1
102
RTVSPropertyOp4
 70
     1
102
RTVSPropertyOp5
 70
     1
102
RTVSPropertyOp6
 70
     1
102
RTVSPropertyOp7
 70
     1
102
RTVSPropertyOp8
 70
     1
102
RTVSPropertyOp9
 70
     1
102
RTVSPropertyOp10
 70
     1
102
RTVSPropertyOp11
 70
     1
102
RTVSPropertyOp12
 70
     1
102
RTVSPropertyOp13
 70
     1
102
RTVSPropertyOp14
 70
     1
102
RTVSPropertyOp15
 70
     1
102
RTVSPropertyOp16
 70
     1
102
RTVSPropertyOp17
 70
     1
102
RTVSPropertyOp18
 70
     1
102
RTVSPropertyOp19
 70
     1
102
RTVSPropertyOp20
 70
     1
102
RTVSPropertyOp21
 70
     1
102
RTVSPropertyOp22
 70
     1
102
RTVSPropertyOp23
 70
     1
102
RTVSPropertyOp24
 70
     1
102
RTVSPropertyOp25
 70
     1
102
RTVSPropertyOp26
 70
     1
102
RTVSPropertyOp27
 70
     1
  0
XRECORD
  5
5F70
102
{ACAD_REACTORS
330
5F6F
102
}
330
5F6F
100
AcDbXrecord
280
     1
102
RTVSPropertyOp0
 70
     1
102
RTVSPropertyOp1
 70
     1
102
RTVSPropertyOp2
 70
     1
102
RTVSPropertyOp3
 70
     1
102
RTVSPropertyOp4
 70
     1
102
RTVSPropertyOp5
 70
     1
102
RTVSPropertyOp6
 70
     1
102
RTVSPropertyOp7
 70
     1
102
RTVSPropertyOp8
 70
     1
102
RTVSPropertyOp9
 70
     1
102
RTVSPropertyOp10
 70
     1
102
RTVSPropertyOp11
 70
     1
102
RTVSPropertyOp12
 70
     1
102
RTVSPropertyOp13
 70
     1
102
RTVSPropertyOp14
 70
     1
102
RTVSPropertyOp15
 70
     1
102
RTVSPropertyOp16
 70
     1
102
RTVSPropertyOp17
 70
     1
102
RTVSPropertyOp18
 70
     1
102
RTVSPropertyOp19
 70
     1
102
RTVSPropertyOp20
 70
     1
102
RTVSPropertyOp21
 70
     1
102
RTVSPropertyOp22
 70
     1
102
RTVSPropertyOp23
 70
     1
102
RTVSPropertyOp24
 70
     1
102
RTVSPropertyOp25
 70
     1
102
RTVSPropertyOp26
 70
     1
102
RTVSPropertyOp27
 70
     1
  0
XRECORD
  5
5F72
102
{ACAD_REACTORS
330
5F71
102
}
330
5F71
100
AcDbXrecord
280
     1
102
RTVSPropertyOp0
 70
     1
102
RTVSPropertyOp1
 70
     1
102
RTVSPropertyOp2
 70
     1
102
RTVSPropertyOp3
 70
     1
102
RTVSPropertyOp4
 70
     1
102
RTVSPropertyOp5
 70
     1
102
RTVSPropertyOp6
 70
     1
102
RTVSPropertyOp7
 70
     1
102
RTVSPropertyOp8
 70
     1
102
RTVSPropertyOp9
 70
     1
102
RTVSPropertyOp10
 70
     1
102
RTVSPropertyOp11
 70
     1
102
RTVSPropertyOp12
 70
     1
102
RTVSPropertyOp13
 70
     1
102
RTVSPropertyOp14
 70
     1
102
RTVSPropertyOp15
 70
     1
102
RTVSPropertyOp16
 70
     1
102
RTVSPropertyOp17
 70
     1
102
RTVSPropertyOp18
 70
     1
102
RTVSPropertyOp19
 70
     1
102
RTVSPropertyOp20
 70
     1
102
RTVSPropertyOp21
 70
     1
102
RTVSPropertyOp22
 70
     1
102
RTVSPropertyOp23
 70
     1
102
RTVSPropertyOp24
 70
     1
102
RTVSPropertyOp25
 70
     1
102
RTVSPropertyOp26
 70
     1
102
RTVSPropertyOp27
 70
     1
  0
XRECORD
  5
5F74
102
{ACAD_REACTORS
330
5F73
102
}
330
5F73
100
AcDbXrecord
280
     1
102
RTVSPropertyOp0
 70
     1
102
RTVSPropertyOp1
 70
     1
102
RTVSPropertyOp2
 70
     1
102
RTVSPropertyOp3
 70
     1
102
RTVSPropertyOp4
 70
     1
102
RTVSPropertyOp5
 70
     1
102
RTVSPropertyOp6
 70
     1
102
RTVSPropertyOp7
 70
     1
102
RTVSPropertyOp8
 70
     1
102
RTVSPropertyOp9
 70
     1
102
RTVSPropertyOp10
 70
     1
102
RTVSPropertyOp11
 70
     1
102
RTVSPropertyOp12
 70
     1
102
RTVSPropertyOp13
 70
     1
102
RTVSPropertyOp14
 70
     1
102
RTVSPropertyOp15
 70
     1
102
RTVSPropertyOp16
 70
     1
102
RTVSPropertyOp17
 70
     1
102
RTVSPropertyOp18
 70
     1
102
RTVSPropertyOp19
 70
     1
102
RTVSPropertyOp20
 70
     1
102
RTVSPropertyOp21
 70
     1
102
RTVSPropertyOp22
 70
     1
102
RTVSPropertyOp23
 70
     1
102
RTVSPropertyOp24
 70
     1
102
RTVSPropertyOp25
 70
     1
102
RTVSPropertyOp26
 70
     1
102
RTVSPropertyOp27
 70
     1
  0
XRECORD
  5
5F8E
102
{ACAD_REACTORS
330
5F8D
102
}
330
5F8D
100
AcDbXrecord
280
     1
102
RTVSPropertyOp0
 70
     0
102
RTVSPropertyOp1
 70
     0
102
RTVSPropertyOp2
 70
     0
102
RTVSPropertyOp3
 70
     0
102
RTVSPropertyOp4
 70
     0
102
RTVSPropertyOp5
 70
     0
102
RTVSPropertyOp6
 70
     0
102
RTVSPropertyOp7
 70
     0
102
RTVSPropertyOp8
 70
     0
102
RTVSPropertyOp9
 70
     0
102
RTVSPropertyOp10
 70
     0
102
RTVSPropertyOp11
 70
     0
102
RTVSPropertyOp12
 70
     0
102
RTVSPropertyOp13
 70
     0
102
RTVSPropertyOp14
 70
     2
102
RTVSPropertyOp15
 70
     0
102
RTVSPropertyOp16
 70
     0
102
RTVSPropertyOp17
 70
     0
102
RTVSPropertyOp18
 70
     0
102
RTVSPropertyOp19
 70
     0
102
RTVSPropertyOp20
 70
     0
102
RTVSPropertyOp21
 70
     0
102
RTVSPropertyOp22
 70
     0
102
RTVSPropertyOp23
 70
     0
102
RTVSPropertyOp24
 70
     0
102
RTVSPropertyOp25
 70
     0
102
RTVSPropertyOp26
 70
     0
102
RTVSPropertyOp27
 70
     0
  0
XRECORD
  5
5F88
102
{ACAD_REACTORS
330
5F87
102
}
330
5F87
100
AcDbXrecord
280
     1
102
RTVSPropertyOp0
 70
     1
102
RTVSPropertyOp1
 70
     1
102
RTVSPropertyOp2
 70
     1
102
RTVSPropertyOp3
 70
     1
102
RTVSPropertyOp4
 70
     1
102
RTVSPropertyOp5
 70
     1
102
RTVSPropertyOp6
 70
     1
102
RTVSPropertyOp7
 70
     1
102
RTVSPropertyOp8
 70
     1
102
RTVSPropertyOp9
 70
     1
102
RTVSPropertyOp10
 70
     1
102
RTVSPropertyOp11
 70
     1
102
RTVSPropertyOp12
 70
     1
102
RTVSPropertyOp13
 70
     1
102
RTVSPropertyOp14
 70
     1
102
RTVSPropertyOp15
 70
     1
102
RTVSPropertyOp16
 70
     1
102
RTVSPropertyOp17
 70
     1
102
RTVSPropertyOp18
 70
     1
102
RTVSPropertyOp19
 70
     1
102
RTVSPropertyOp20
 70
     1
102
RTVSPropertyOp21
 70
     1
102
RTVSPropertyOp22
 70
     1
102
RTVSPropertyOp23
 70
     1
102
RTVSPropertyOp24
 70
     1
102
RTVSPropertyOp25
 70
     1
102
RTVSPropertyOp26
 70
     1
102
RTVSPropertyOp27
 70
     1
  0
XRECORD
  5
5F90
102
{ACAD_REACTORS
330
5F8F
102
}
330
5F8F
100
AcDbXrecord
280
     1
102
RTVSPropertyOp0
 70
     0
102
RTVSPropertyOp1
 70
     0
102
RTVSPropertyOp2
 70
     0
102
RTVSPropertyOp3
 70
     0
102
RTVSPropertyOp4
 70
     0
102
RTVSPropertyOp5
 70
     0
102
RTVSPropertyOp6
 70
     0
102
RTVSPropertyOp7
 70
     0
102
RTVSPropertyOp8
 70
     0
102
RTVSPropertyOp9
 70
     0
102
RTVSPropertyOp10
 70
     0
102
RTVSPropertyOp11
 70
     0
102
RTVSPropertyOp12
 70
     0
102
RTVSPropertyOp13
 70
     0
102
RTVSPropertyOp14
 70
     2
102
RTVSPropertyOp15
 70
     0
102
RTVSPropertyOp16
 70
     0
102
RTVSPropertyOp17
 70
     0
102
RTVSPropertyOp18
 70
     0
102
RTVSPropertyOp19
 70
     0
102
RTVSPropertyOp20
 70
     0
102
RTVSPropertyOp21
 70
     0
102
RTVSPropertyOp22
 70
     0
102
RTVSPropertyOp23
 70
     0
102
RTVSPropertyOp24
 70
     0
102
RTVSPropertyOp25
 70
     0
102
RTVSPropertyOp26
 70
     0
102
RTVSPropertyOp27
 70
     0
  0
XRECORD
  5
5F80
102
{ACAD_REACTORS
330
5F7F
102
}
330
5F7F
100
AcDbXrecord
280
     1
102
RTVSPropertyOp0
 70
     1
102
RTVSPropertyOp1
 70
     1
102
RTVSPropertyOp2
 70
     1
102
RTVSPropertyOp3
 70
     1
102
RTVSPropertyOp4
 70
     1
102
RTVSPropertyOp5
 70
     1
102
RTVSPropertyOp6
 70
     1
102
RTVSPropertyOp7
 70
     1
102
RTVSPropertyOp8
 70
     1
102
RTVSPropertyOp9
 70
     1
102
RTVSPropertyOp10
 70
     1
102
RTVSPropertyOp11
 70
     1
102
RTVSPropertyOp12
 70
     1
102
RTVSPropertyOp13
 70
     1
102
RTVSPropertyOp14
 70
     1
102
RTVSPropertyOp15
 70
     1
102
RTVSPropertyOp16
 70
     1
102
RTVSPropertyOp17
 70
     1
102
RTVSPropertyOp18
 70
     1
102
RTVSPropertyOp19
 70
     1
102
RTVSPropertyOp20
 70
     1
102
RTVSPropertyOp21
 70
     1
102
RTVSPropertyOp22
 70
     1
102
RTVSPropertyOp23
 70
     1
102
RTVSPropertyOp24
 70
     1
102
RTVSPropertyOp25
 70
     1
102
RTVSPropertyOp26
 70
     1
102
RTVSPropertyOp27
 70
     1
  0
XRECORD
  5
5F86
102
{ACAD_REACTORS
330
5F85
102
}
330
5F85
100
AcDbXrecord
280
     1
102
RTVSPropertyOp0
 70
     1
102
RTVSPropertyOp1
 70
     1
102
RTVSPropertyOp2
 70
     1
102
RTVSPropertyOp3
 70
     1
102
RTVSPropertyOp4
 70
     1
102
RTVSPropertyOp5
 70
     1
102
RTVSPropertyOp6
 70
     1
102
RTVSPropertyOp7
 70
     1
102
RTVSPropertyOp8
 70
     1
102
RTVSPropertyOp9
 70
     1
102
RTVSPropertyOp10
 70
     1
102
RTVSPropertyOp11
 70
     1
102
RTVSPropertyOp12
 70
     1
102
RTVSPropertyOp13
 70
     1
102
RTVSPropertyOp14
 70
     1
102
RTVSPropertyOp15
 70
     1
102
RTVSPropertyOp16
 70
     1
102
RTVSPropertyOp17
 70
     1
102
RTVSPropertyOp18
 70
     1
102
RTVSPropertyOp19
 70
     1
102
RTVSPropertyOp20
 70
     1
102
RTVSPropertyOp21
 70
     1
102
RTVSPropertyOp22
 70
     1
102
RTVSPropertyOp23
 70
     1
102
RTVSPropertyOp24
 70
     1
102
RTVSPropertyOp25
 70
     1
102
RTVSPropertyOp26
 70
     1
102
RTVSPropertyOp27
 70
     1
  0
ENDSEC
  0
EOF
