  0
SECTION
  2
HEADER
  9
$ACADVER
  1
AC1018
  9
$ACADMAINTVER
 70
   104
  9
$DWGCODEPAGE
  3
ANSI_1252
  9
$LASTSAVEDBY
  1
admin
  9
$INSBASE
 10
0.0
 20
0.0
 30
0.0
  9
$EXTMIN
 10
217.0236354077833
 20
107.6671770706725
 30
-0.0015258207003583
  9
$EXTMAX
 10
615.3865449352688
 20
739.2969699326658
 30
0.0000000349246037
  9
$LIMMIN
 10
0.0
 20
0.0
  9
$LIMMAX
 10
420.0
 20
297.0
  9
$ORTHOMODE
 70
     0
  9
$REGENMODE
 70
     1
  9
$FILLMODE
 70
     1
  9
$QTEXTMODE
 70
     0
  9
$MIRRTEXT
 70
     0
  9
$LTSCALE
 40
1.0
  9
$ATTMODE
 70
     1
  9
$TEXTSIZE
 40
2.5
  9
$TRACEWID
 40
1.0
  9
$TEXTSTYLE
  7
Standard
  9
$CLAYER
  8
0
  9
$CELTYPE
  6
ByLayer
  9
$CECOLOR
 62
   256
  9
$CELTSCALE
 40
1.0
  9
$DISPSILH
 70
     0
  9
$DIMSCALE
 40
1.0
  9
$DIMASZ
 40
2.5
  9
$DIMEXO
 40
0.625
  9
$DIMDLI
 40
3.75
  9
$DIMRND
 40
0.0
  9
$DIMDLE
 40
0.0
  9
$DIMEXE
 40
1.25
  9
$DIMTP
 40
0.0
  9
$DIMTM
 40
0.0
  9
$DIMTXT
 40
2.5
  9
$DIMCEN
 40
2.5
  9
$DIMTSZ
 40
0.0
  9
$DIMTOL
 70
     0
  9
$DIMLIM
 70
     0
  9
$DIMTIH
 70
     0
  9
$DIMTOH
 70
     0
  9
$DIMSE1
 70
     0
  9
$DIMSE2
 70
     0
  9
$DIMTAD
 70
     1
  9
$DIMZIN
 70
     8
  9
$DIMBLK
  1

  9
$DIMASO
 70
     1
  9
$DIMSHO
 70
     1
  9
$DIMPOST
  1

  9
$DIMAPOST
  1

  9
$DIMALT
 70
     0
  9
$DIMALTD
 70
     3
  9
$DIMALTF
 40
0.03937007874016
  9
$DIMLFAC
 40
1.0
  9
$DIMTOFL
 70
     1
  9
$DIMTVP
 40
0.0
  9
$DIMTIX
 70
     0
  9
$DIMSOXD
 70
     0
  9
$DIMSAH
 70
     0
  9
$DIMBLK1
  1

  9
$DIMBLK2
  1

  9
$DIMSTYLE
  2
ISO-25
  9
$DIMCLRD
 70
     0
  9
$DIMCLRE
 70
     0
  9
$DIMCLRT
 70
     0
  9
$DIMTFAC
 40
1.0
  9
$DIMGAP
 40
0.625
  9
$DIMJUST
 70
     0
  9
$DIMSD1
 70
     0
  9
$DIMSD2
 70
     0
  9
$DIMTOLJ
 70
     0
  9
$DIMTZIN
 70
     8
  9
$DIMALTZ
 70
     0
  9
$DIMALTTZ
 70
     0
  9
$DIMUPT
 70
     0
  9
$DIMDEC
 70
     2
  9
$DIMTDEC
 70
     2
  9
$DIMALTU
 70
     2
  9
$DIMALTTD
 70
     3
  9
$DIMTXSTY
  7
Standard
  9
$DIMAUNIT
 70
     0
  9
$DIMADEC
 70
     0
  9
$DIMALTRND
 40
0.0
  9
$DIMAZIN
 70
     0
  9
$DIMDSEP
 70
    44
  9
$DIMATFIT
 70
     3
  9
$DIMFRAC
 70
     0
  9
$DIMLDRBLK
  1

  9
$DIMLUNIT
 70
     2
  9
$DIMLWD
 70
    -2
  9
$DIMLWE
 70
    -2
  9
$DIMTMOVE
 70
     0
  9
$LUNITS
 70
     2
  9
$LUPREC
 70
     4
  9
$SKETCHINC
 40
1.0
  9
$FILLETRAD
 40
0.0
  9
$AUNITS
 70
     0
  9
$AUPREC
 70
     0
  9
$MENU
  1
.
  9
$ELEVATION
 40
0.0
  9
$PELEVATION
 40
0.0
  9
$THICKNESS
 40
0.0
  9
$LIMCHECK
 70
     0
  9
$CHAMFERA
 40
0.0
  9
$CHAMFERB
 40
0.0
  9
$CHAMFERC
 40
0.0
  9
$CHAMFERD
 40
0.0
  9
$SKPOLY
 70
     0
  9
$TDCREATE
 40
2457869.280614120
  9
$TDUCREATE
 40
2457869.197280787
  9
$TDUPDATE
 40
2457869.346932986
  9
$TDUUPDATE
 40
2457869.263599653
  9
$TDINDWG
 40
0.0663193287
  9
$TDUSRTIMER
 40
0.0663191435
  9
$USRTIMER
 70
     1
  9
$ANGBASE
 50
0.0
  9
$ANGDIR
 70
     0
  9
$PDMODE
 70
     0
  9
$PDSIZE
 40
0.0
  9
$PLINEWID
 40
0.0
  9
$SPLFRAME
 70
     0
  9
$SPLINETYPE
 70
     6
  9
$SPLINESEGS
 70
     8
  9
$HANDSEED
  5
7712
  9
$SURFTAB1
 70
     6
  9
$SURFTAB2
 70
     6
  9
$SURFTYPE
 70
     6
  9
$SURFU
 70
     6
  9
$SURFV
 70
     6
  9
$UCSBASE
  2

  9
$UCSNAME
  2

  9
$UCSORG
 10
0.0
 20
0.0
 30
0.0
  9
$UCSXDIR
 10
1.0
 20
0.0
 30
0.0
  9
$UCSYDIR
 10
0.0
 20
1.0
 30
0.0
  9
$UCSORTHOREF
  2

  9
$UCSORTHOVIEW
 70
     0
  9
$UCSORGTOP
 10
0.0
 20
0.0
 30
0.0
  9
$UCSORGBOTTOM
 10
0.0
 20
0.0
 30
0.0
  9
$UCSORGLEFT
 10
0.0
 20
0.0
 30
0.0
  9
$UCSORGRIGHT
 10
0.0
 20
0.0
 30
0.0
  9
$UCSORGFRONT
 10
0.0
 20
0.0
 30
0.0
  9
$UCSORGBACK
 10
0.0
 20
0.0
 30
0.0
  9
$PUCSBASE
  2

  9
$PUCSNAME
  2

  9
$PUCSORG
 10
0.0
 20
0.0
 30
0.0
  9
$PUCSXDIR
 10
1.0
 20
0.0
 30
0.0
  9
$PUCSYDIR
 10
0.0
 20
1.0
 30
0.0
  9
$PUCSORTHOREF
  2

  9
$PUCSORTHOVIEW
 70
     0
  9
$PUCSORGTOP
 10
0.0
 20
0.0
 30
0.0
  9
$PUCSORGBOTTOM
 10
0.0
 20
0.0
 30
0.0
  9
$PUCSORGLEFT
 10
0.0
 20
0.0
 30
0.0
  9
$PUCSORGRIGHT
 10
0.0
 20
0.0
 30
0.0
  9
$PUCSORGFRONT
 10
0.0
 20
0.0
 30
0.0
  9
$PUCSORGBACK
 10
0.0
 20
0.0
 30
0.0
  9
$USERI1
 70
     0
  9
$USERI2
 70
     0
  9
$USERI3
 70
     0
  9
$USERI4
 70
     0
  9
$USERI5
 70
     0
  9
$USERR1
 40
0.0
  9
$USERR2
 40
0.0
  9
$USERR3
 40
0.0
  9
$USERR4
 40
0.0
  9
$USERR5
 40
0.0
  9
$WORLDVIEW
 70
     1
  9
$SHADEDGE
 70
     3
  9
$SHADEDIF
 70
    70
  9
$TILEMODE
 70
     1
  9
$MAXACTVP
 70
    64
  9
$PINSBASE
 10
0.0
 20
0.0
 30
0.0
  9
$PLIMCHECK
 70
     0
  9
$PEXTMIN
 10
1.000000000000000E+20
 20
1.000000000000000E+20
 30
1.000000000000000E+20
  9
$PEXTMAX
 10
-1.000000000000000E+20
 20
-1.000000000000000E+20
 30
-1.000000000000000E+20
  9
$PLIMMIN
 10
0.0
 20
0.0
  9
$PLIMMAX
 10
420.0
 20
297.0
  9
$UNITMODE
 70
     0
  9
$VISRETAIN
 70
     1
  9
$PLINEGEN
 70
     0
  9
$PSLTSCALE
 70
     1
  9
$TREEDEPTH
 70
  3020
  9
$CMLSTYLE
  2
Standard
  9
$CMLJUST
 70
     0
  9
$CMLSCALE
 40
20.0
  9
$PROXYGRAPHICS
 70
     1
  9
$MEASUREMENT
 70
     1
  9
$CELWEIGHT
370
    -1
  9
$ENDCAPS
280
     0
  9
$JOINSTYLE
280
     0
  9
$LWDISPLAY
290
     0
  9
$INSUNITS
 70
     4
  9
$HYPERLINKBASE
  1

  9
$STYLESHEET
  1

  9
$XEDIT
290
     1
  9
$CEPSNTYPE
380
     0
  9
$PSTYLEMODE
290
     1
  9
$FINGERPRINTGUID
  2
{9DFB5F12-FE38-410F-B4C1-738DA96BFA2A}
  9
$VERSIONGUID
  2
{A8B34C29-C981-4A72-AD27-32EDEBA02E9A}
  9
$EXTNAMES
290
     1
  9
$PSVPSCALE
 40
0.0
  9
$OLESTARTUP
290
     0
  9
$SORTENTS
280
   127
  9
$INDEXCTL
280
     0
  9
$HIDETEXT
280
     1
  9
$XCLIPFRAME
290
     0
  9
$HALOGAP
280
     0
  9
$OBSCOLOR
 70
   257
  9
$OBSLTYPE
280
     0
  9
$INTERSECTIONDISPLAY
280
     0
  9
$INTERSECTIONCOLOR
 70
   257
  9
$DIMASSOC
280
     2
  9
$PROJECTNAME
  1

  0
ENDSEC
  0
SECTION
  2
CLASSES
  0
CLASS
  1
ACDBDICTIONARYWDFLT
  2
AcDbDictionaryWithDefault
  3
ObjectDBX Classes
 90
        0
 91
        1
280
     0
281
     0
  0
CLASS
  1
MATERIAL
  2
AcDbMaterial
  3
ObjectDBX Classes
 90
     1153
 91
        3
280
     0
281
     0
  0
CLASS
  1
VISUALSTYLE
  2
AcDbVisualStyle
  3
ObjectDBX Classes
 90
     4095
 91
       19
280
     0
281
     0
  0
CLASS
  1
SCALE
  2
AcDbScale
  3
ObjectDBX Classes
 90
     1153
 91
       17
280
     0
281
     0
  0
CLASS
  1
TABLESTYLE
  2
AcDbTableStyle
  3
ObjectDBX Classes
 90
     4095
 91
        1
280
     0
281
     0
  0
CLASS
  1
MLEADERSTYLE
  2
AcDbMLeaderStyle
  3
ACDB_MLEADERSTYLE_CLASS
 90
     4095
 91
        1
280
     0
281
     0
  0
CLASS
  1
SORTENTSTABLE
  2
AcDbSortentsTable
  3
ObjectDBX Classes
 90
        0
 91
      118
280
     0
281
     0
  0
CLASS
  1
AEC_REFEDIT_STATUS_TRACKER
  2
AecDbRefEditStatusTracker
  3
AecArchBase60|Product Desc: Autodesk Architectural Desktop 2007 |Company: Autodesk,Inc. |WEB Address: www.autodesk.com
 90
      129
 91
        1
280
     0
281
     0
  0
CLASS
  1
NPOCOLLECTION
  2
AcDbImpNonPersistentObjectsCollection
  3
ObjectDBX Classes
 90
     1153
 91
        1
280
     0
281
     0
  0
CLASS
  1
DICTIONARYVAR
  2
AcDbDictionaryVar
  3
ObjectDBX Classes
 90
        0
 91
      128
280
     0
281
     0
  0
CLASS
  1
CELLSTYLEMAP
  2
AcDbCellStyleMap
  3
ObjectDBX Classes
 90
     1152
 91
       15
280
     0
281
     0
  0
CLASS
  1
DIMASSOC
  2
AcDbDimAssoc
  3
"AcDbDimAssoc|Product Desc:     AcDim ARX App For Dimension|Company:          Autodesk, Inc.|WEB Address:      www.autodesk.com"
 90
        0
 91
        2
280
     0
281
     0
  0
ENDSEC
  0
SECTION
  2
TABLES
  0
TABLE
  2
VPORT
  5
8
330
0
100
AcDbSymbolTable
 70
     1
  0
VPORT
  5
52
330
8
100
AcDbSymbolTableRecord
100
AcDbViewportTableRecord
  2
*Active
 70
     0
 10
0.0
 20
0.0
 11
1.0
 21
1.0
 12
416.2050901715262
 22
423.4820735016692
 13
0.0
 23
0.0
 14
10.0
 24
10.0
 15
10.0
 25
10.0
 16
0.0
 26
0.0
 36
1.0
 17
0.0
 27
0.0
 37
0.0
 40
635.7357286769143
 41
1.888286334056399
 42
50.0
 43
0.0
 44
0.0
 50
0.0
 51
0.0
 71
     0
 72
  1000
 73
     1
 74
     3
 75
     0
 76
     0
 77
     0
 78
     0
281
     0
 65
     1
110
0.0
120
0.0
130
0.0
111
1.0
121
0.0
131
0.0
112
0.0
122
1.0
132
0.0
 79
     0
146
0.0
  0
ENDTAB
  0
TABLE
  2
LTYPE
  5
5
330
0
100
AcDbSymbolTable
 70
     2
  0
LTYPE
  5
56
330
5
100
AcDbSymbolTableRecord
100
AcDbLinetypeTableRecord
  2
ByBlock
 70
     0
  3

 72
    65
 73
     0
 40
0.0
  0
LTYPE
  5
57
330
5
100
AcDbSymbolTableRecord
100
AcDbLinetypeTableRecord
  2
ByLayer
 70
     0
  3

 72
    65
 73
     0
 40
0.0
  0
LTYPE
  5
58
330
5
100
AcDbSymbolTableRecord
100
AcDbLinetypeTableRecord
  2
Continuous
 70
     0
  3
Solid line
 72
    65
 73
     0
 40
0.0
  0
LTYPE
  5
7631
330
5
100
AcDbSymbolTableRecord
100
AcDbLinetypeTableRecord
  2
JIS_02_0.7
 70
     0
  3
HIDDEN0.75 _ _ _ _ _ _ _ _ _ _ _ _ _ _ _ _ _
 72
    65
 73
     2
 40
1.35
 49
0.75
 74
     0
 49
-0.6
 74
     0
  0
ENDTAB
  0
TABLE
  2
LAYER
  5
2
102
{ACAD_XDICTIONARY
360
7641
102
}
330
0
100
AcDbSymbolTable
 70
     6
  0
LAYER
  5
4F
330
2
100
AcDbSymbolTableRecord
100
AcDbLayerTableRecord
  2
0
 70
     0
 62
     7
  6
Continuous
370
    -3
390
F
  0
LAYER
  5
7632
330
2
100
AcDbSymbolTableRecord
100
AcDbLayerTableRecord
  2
F_01 sichtbar
 70
     0
 62
     7
  6
Continuous
370
    -3
390
F
1001
AcAecLayerStandard
1000

1000

  0
LAYER
  5
7633
330
2
100
AcDbSymbolTableRecord
100
AcDbLayerTableRecord
  2
F_31 Ansichtsfenster
 70
     0
 62
    12
  6
Continuous
290
     0
370
    40
390
F
1001
AcAecLayerStandard
1000

1000

  0
LAYER
  5
7634
330
2
100
AcDbSymbolTableRecord
100
AcDbLayerTableRecord
  2
F_02 unsichtbar
 70
     0
 62
     8
  6
JIS_02_0.7
370
    -3
390
F
1001
AcAecLayerStandard
1000

1000

  0
LAYER
  5
7635
330
2
100
AcDbSymbolTableRecord
100
AcDbLayerTableRecord
  2
F_15 Schr-Mauer hell
 70
     0
 62
   254
  6
Continuous
370
    -3
390
F
1001
AcAecLayerStandard
1000

1000

  0
LAYER
  5
7636
330
2
100
AcDbSymbolTableRecord
100
AcDbLayerTableRecord
  2
F_18 Schr-Holz hell
 70
     0
 62
    41
  6
Continuous
370
    -3
390
F
1001
AcAecLayerStandard
1000

1000

  0
ENDTAB
  0
TABLE
  2
STYLE
  5
3
330
0
100
AcDbSymbolTable
 70
     3
  0
STYLE
  5
50
330
3
100
AcDbSymbolTableRecord
100
AcDbTextStyleTableRecord
  2
Standard
 70
     0
 40
0.0
 41
1.0
 50
0.0
 71
     0
 42
2.5
  3
txt
  4

  0
STYLE
  5
55
330
3
100
AcDbSymbolTableRecord
100
AcDbTextStyleTableRecord
  2
Annotative
 70
     0
 40
0.0
 41
1.0
 50
0.0
 71
     0
 42
0.2
  3
txt
  4

1001
AcadAnnotative
1000
AnnotativeData
1002
{
1070
     1
1070
     1
1002
}
  0
STYLE
  5
7637
330
3
100
AcDbSymbolTableRecord
100
AcDbTextStyleTableRecord
  2
Arial
 70
     0
 40
0.0
 41
1.0
 50
0.0
 71
     0
 42
3.0
  3
ARIALN.TTF
  4

1001
AcadAnnotative
1000
AnnotativeData
1002
{
1070
     1
1070
     1
1002
}
1001
ACAD
1000
Arial Narrow
1071
       34
  0
ENDTAB
  0
TABLE
  2
VIEW
  5
6
330
0
100
AcDbSymbolTable
 70
     0
  0
ENDTAB
  0
TABLE
  2
UCS
  5
7
330
0
100
AcDbSymbolTable
 70
     0
  0
ENDTAB
  0
TABLE
  2
APPID
  5
9
330
0
100
AcDbSymbolTable
 70
     8
  0
APPID
  5
51
330
9
100
AcDbSymbolTableRecord
100
AcDbRegAppTableRecord
  2
ACAD
 70
     0
  0
APPID
  5
59
330
9
100
AcDbSymbolTableRecord
100
AcDbRegAppTableRecord
  2
AcadAnnotative
 70
     0
  0
APPID
  5
763D
330
9
100
AcDbSymbolTableRecord
100
AcDbRegAppTableRecord
  2
AcAecLayerStandard
 70
     0
  0
APPID
  5
763E
330
9
100
AcDbSymbolTableRecord
100
AcDbRegAppTableRecord
  2
ACAD_PSEXT
 70
     0
  0
APPID
  5
763F
330
9
100
AcDbSymbolTableRecord
100
AcDbRegAppTableRecord
  2
ACAD_DSTYLE_DIMJAG
 70
     0
  0
APPID
  5
7640
330
9
100
AcDbSymbolTableRecord
100
AcDbRegAppTableRecord
  2
ACAD_DSTYLE_DIMTALN
 70
     0
  0
APPID
  5
770F
330
9
100
AcDbSymbolTableRecord
100
AcDbRegAppTableRecord
  2
ACAD_DSTYLE_DIMJOGGED_JOGANGLE_SYMBOL
 70
     0
  0
APPID
  5
7711
330
9
100
AcDbSymbolTableRecord
100
AcDbRegAppTableRecord
  2
ACAD_MLEADERVER
 70
     0
  0
ENDTAB
  0
TABLE
  2
DIMSTYLE
  5
A
330
0
100
AcDbSymbolTable
 70
     7
100
AcDbDimStyleTable
 71
     0
  0
DIMSTYLE
105
53
330
A
100
AcDbSymbolTableRecord
100
AcDbDimStyleTableRecord
  2
ISO-25
 70
     0
 41
2.5
 42
0.625
 43
3.75
 44
1.25
 73
     0
 74
     0
 77
     1
 78
     8
140
2.5
141
2.5
143
0.03937007874016
147
0.625
171
     3
172
     1
271
     2
272
     2
274
     3
278
    44
283
     0
284
     8
340
50
1001
ACAD_DSTYLE_DIMJOGGED_JOGANGLE_SYMBOL
1070
   384
1040
1.570796326794896
  0
DIMSTYLE
105
54
330
A
100
AcDbSymbolTableRecord
100
AcDbDimStyleTableRecord
  2
Annotative
 70
     0
340
50
1001
AcadAnnotative
1000
AnnotativeData
1002
{
1070
     1
1070
     1
1002
}
  0
DIMSTYLE
105
7638
330
A
100
AcDbSymbolTableRecord
100
AcDbDimStyleTableRecord
  2
MST 1-1
 70
     0
 41
2.0
 42
2.0
 43
2.0
 44
1.0
 46
2.0
 73
     0
 74
     0
 77
     3
 78
     8
 79
     2
140
3.0
141
2.5
143
0.03937007874016
147
1.0
171
     3
176
   256
177
   256
178
     3
179
     1
271
     1
272
     1
274
     3
279
     2
284
     8
340
7637
342
762B
1001
ACAD_DSTYLE_DIMJAG
1070
   388
1040
1.5
1001
ACAD_DSTYLE_DIMTALN
1070
   392
1070
     0
  0
DIMSTYLE
105
7639
330
A
100
AcDbSymbolTableRecord
100
AcDbDimStyleTableRecord
  2
MST 1-2
 70
     0
 40
2.0
 41
2.0
 42
2.0
 43
2.0
 44
1.0
 46
2.0
 73
     0
 74
     0
 77
     3
 78
     8
 79
     2
140
3.0
141
1.0
143
0.03937007874016
147
1.0
171
     3
176
   256
177
   256
178
     3
179
     1
271
     1
272
     1
274
     3
279
     2
284
     8
340
7637
342
762B
  0
DIMSTYLE
105
763A
330
A
100
AcDbSymbolTableRecord
100
AcDbDimStyleTableRecord
  2
MST 1-5
 70
     0
 40
5.0
 41
1.5
 42
2.0
 43
2.0
 44
1.0
 46
2.0
 73
     0
 74
     0
 77
     3
 78
     8
 79
     2
140
3.0
141
1.0
143
0.03937007874016
147
1.0
171
     3
176
   256
177
   256
178
     3
179
     1
271
     1
272
     1
274
     3
279
     2
284
     8
340
7637
342
762B
  0
DIMSTYLE
105
763B
330
A
100
AcDbSymbolTableRecord
100
AcDbDimStyleTableRecord
  2
MST 1-10
 70
     0
 40
10.0
 41
2.0
 42
2.0
 43
2.0
 44
2.0
 46
2.0
 73
     0
 74
     0
 77
     3
 78
     8
 79
     2
140
3.0
141
1.0
143
0.03937007874016
147
1.0
171
     3
176
   256
177
   256
178
     3
179
     1
271
     1
272
     1
274
     3
279
     2
284
     8
340
7637
342
762B
1001
ACAD_DSTYLE_DIMJAG
1070
   388
1040
1.5
1001
ACAD_DSTYLE_DIMTALN
1070
   392
1070
     0
  0
DIMSTYLE
105
763C
330
A
100
AcDbSymbolTableRecord
100
AcDbDimStyleTableRecord
  2
MST 1-20
 70
     0
 40
20.0
 41
2.0
 42
2.0
 43
2.0
 44
1.0
 46
2.0
 73
     0
 74
     0
 77
     3
 78
     8
 79
     2
140
3.0
141
1.0
143
0.03937007874016
147
1.0
171
     3
176
   256
177
   256
178
     3
179
     1
271
     1
272
     1
274
     3
279
     2
284
     8
340
7637
342
762B
  0
ENDTAB
  0
TABLE
  2
BLOCK_RECORD
  5
1
330
0
100
AcDbSymbolTable
 70
     3
  0
BLOCK_RECORD
  5
67
330
1
100
AcDbSymbolTableRecord
100
AcDbBlockTableRecord
  2
*Model_Space
340
6A
  0
BLOCK_RECORD
  5
63
330
1
100
AcDbSymbolTableRecord
100
AcDbBlockTableRecord
  2
*Paper_Space
340
66
  0
BLOCK_RECORD
  5
6B
330
1
100
AcDbSymbolTableRecord
100
AcDbBlockTableRecord
  2
*Paper_Space0
340
6E
  0
BLOCK_RECORD
  5
762B
102
{ACAD_XDICTIONARY
360
762C
102
}
330
1
100
AcDbSymbolTableRecord
100
AcDbBlockTableRecord
  2
_ArchTick
340
0
310
2800000020000000200000000100080000000000000400000000000000000000000000000000000000000000000080000080000000808000800000008000800080800000C0C0C000C0DCC000F0CAA6000020400000206000002080000020A0000020C0000020E00000400000004020000040400000406000004080000040A0
310
000040C0000040E00000600000006020000060400000606000006080000060A0000060C0000060E00000800000008020000080400000806000008080000080A0000080C0000080E00000A0000000A0200000A0400000A0600000A0800000A0A00000A0C00000A0E00000C0000000C0200000C0400000C0600000C0800000C0
310
A00000C0C00000C0E00000E0000000E0200000E0400000E0600000E0800000E0A00000E0C00000E0E00040000000400020004000400040006000400080004000A0004000C0004000E00040200000402020004020400040206000402080004020A0004020C0004020E000404000004040200040404000404060004040800040
310
40A0004040C0004040E00040600000406020004060400040606000406080004060A0004060C0004060E00040800000408020004080400040806000408080004080A0004080C0004080E00040A0000040A0200040A0400040A0600040A0800040A0A00040A0C00040A0E00040C0000040C0200040C0400040C0600040C08000
310
40C0A00040C0C00040C0E00040E0000040E0200040E0400040E0600040E0800040E0A00040E0C00040E0E00080000000800020008000400080006000800080008000A0008000C0008000E00080200000802020008020400080206000802080008020A0008020C0008020E00080400000804020008040400080406000804080
310
008040A0008040C0008040E00080600000806020008060400080606000806080008060A0008060C0008060E00080800000808020008080400080806000808080008080A0008080C0008080E00080A0000080A0200080A0400080A0600080A0800080A0A00080A0C00080A0E00080C0000080C0200080C0400080C0600080C0
310
800080C0A00080C0C00080C0E00080E0000080E0200080E0400080E0600080E0800080E0A00080E0C00080E0E000C0000000C0002000C0004000C0006000C0008000C000A000C000C000C000E000C0200000C0202000C0204000C0206000C0208000C020A000C020C000C020E000C0400000C0402000C0404000C0406000C0
310
408000C040A000C040C000C040E000C0600000C0602000C0604000C0606000C0608000C060A000C060C000C060E000C0800000C0802000C0804000C0806000C0808000C080A000C080C000C080E000C0A00000C0A02000C0A04000C0A06000C0A08000C0A0A000C0A0C000C0A0E000C0C00000C0C02000C0C04000C0C06000
310
C0C08000C0C0A000F0FBFF00A4A0A000808080000000FF0000FF000000FFFF00FF000000FF00FF00FFFF0000FFFFFF00FFFFFF00FFFFFFFFFFFFFFFFFFFFFFFFFFFFFFFFFFFFFFFFFFFFFFFFFFFFFFFFFFFF00FF00FFFFFFFFFFFFFFFFFFFFFFFFFFFFFFFFFFFFFFFFFFFFFFFFFFFFFFFF00FFFFFF00FFFFFFFFFFFFFFFFFF
310
FFFFFFFFFFFFFFFFFFFFFFFFFFFFFFFFFF00FFFFFFFFFF00FFFFFFFFFFFFFFFFFFFFFFFFFFFFFFFFFFFFFFFFFFFFFFFFFFFF00FFFFFFFFFF00FFFFFFFFFFFFFFFFFFFFFFFFFFFFFFFFFFFFFFFFFFFFFFFFFFFF00FFFFFFFFFF00FFFFFFFFFFFFFFFFFFFFFFFFFFFFFFFFFFFFFFFFFFFFFFFFFFFF00FFFFFFFFFF00FFFFFFFF
310
FFFFFFFFFFFFFFFFFFFFFFFFFFFFFFFFFFFFFFFFFFFF00FFFFFFFFFF00FFFFFFFFFFFFFFFFFFFFFFFFFFFFFFFFFFFFFFFFFFFFFFFFFFFF00FFFFFFFFFF00FFFFFFFFFFFFFFFFFFFFFFFFFFFFFFFFFFFFFFFFFFFFFFFFFFFF00FFFFFFFFFF00FFFFFFFFFFFFFFFFFFFFFFFFFFFFFFFFFFFFFFFFFFFFFFFFFFFF00FFFFFFFFFF
310
00FFFFFFFFFFFFFFFFFFFFFFFFFFFFFFFFFFFFFFFFFFFFFFFFFFFF00FFFFFFFFFF00FFFFFFFFFFFFFFFFFFFFFFFFFFFFFFFFFFFFFFFFFFFFFFFFFFFF00FFFFFFFFFF00FFFFFFFFFFFFFFFFFFFFFFFFFFFFFFFFFFFFFFFFFFFFFFFFFFFF00FFFFFFFFFF00FFFFFFFFFFFFFFFFFFFFFFFFFFFFFFFFFFFFFFFFFFFFFFFFFFFF00
310
FFFFFFFFFF00FFFFFFFFFFFFFFFFFFFFFFFFFFFFFFFFFFFFFFFFFFFFFFFFFFFF00FFFFFFFFFF00FFFFFFFFFFFFFFFFFFFFFFFFFFFFFFFFFFFFFFFFFFFFFFFFFFFF00FFFFFFFFFF00FFFFFFFFFFFFFFFFFFFFFFFFFFFFFFFFFFFFFFFFFFFFFFFFFFFF00FFFFFFFFFF00FFFFFFFFFFFFFFFFFFFFFFFFFFFFFFFFFFFFFFFFFFFF
310
FFFFFFFF00FFFFFFFFFF00FFFFFFFFFFFFFFFFFFFFFFFFFFFFFFFFFFFFFFFFFFFFFFFFFFFF00FFFFFFFFFF00FFFFFFFFFFFFFFFFFFFFFFFFFFFFFFFFFFFFFFFFFFFFFFFFFFFF00FFFFFFFFFF00FFFFFFFFFFFFFFFFFFFFFFFFFFFFFFFFFFFFFFFFFFFFFFFFFFFF00FFFFFFFFFF00FFFFFFFFFFFFFFFFFFFFFFFFFFFFFFFFFF
310
FFFFFFFFFFFFFFFFFF00FFFFFFFFFF00FFFFFFFFFFFFFFFFFFFFFFFFFFFFFFFFFFFFFFFFFFFFFFFFFFFF00FFFFFFFFFF00FFFFFFFFFFFFFFFFFFFFFFFFFFFFFFFFFFFFFFFFFFFFFFFFFFFF00FFFFFFFFFF00FFFFFFFFFFFFFFFFFFFFFFFFFFFFFFFFFFFFFFFFFFFFFFFFFFFF00FFFFFFFFFF00FFFFFFFFFFFFFFFFFFFFFFFF
310
FFFFFFFFFFFFFFFFFFFFFFFFFFFF00FFFFFFFFFF00FFFFFFFFFFFFFFFFFFFFFFFFFFFFFFFFFFFFFFFFFFFFFFFFFFFF00FFFFFFFFFF00FFFFFFFFFFFFFFFFFFFFFFFFFFFFFFFFFFFFFFFFFFFFFFFFFFFF00FFFFFFFFFF00FFFFFFFFFFFFFFFFFFFFFFFFFFFFFFFFFFFFFFFFFFFFFFFFFFFF00FFFFFF00FFFFFFFFFFFFFFFFFF
310
FFFFFFFFFFFFFFFFFFFFFFFFFFFFFFFFFFFFFF00FF00FFFFFFFFFFFFFFFFFFFFFFFFFFFFFFFFFFFFFFFFFFFFFFFFFFFFFFFFFFFF00FFFFFF
  0
ENDTAB
  0
ENDSEC
  0
SECTION
  2
BLOCKS
  0
BLOCK
  5
68
330
67
100
AcDbEntity
  8
0
100
AcDbBlockBegin
  2
*Model_Space
 70
     0
 10
0.0
 20
0.0
 30
0.0
  3
*Model_Space
  1

  0
ENDBLK
  5
69
330
67
100
AcDbEntity
  8
0
100
AcDbBlockEnd
  0
BLOCK
  5
64
330
63
100
AcDbEntity
 67
     1
  8
0
100
AcDbBlockBegin
  2
*Paper_Space
 70
     0
 10
0.0
 20
0.0
 30
0.0
  3
*Paper_Space
  1

  0
ENDBLK
  5
65
330
63
100
AcDbEntity
 67
     1
  8
0
100
AcDbBlockEnd
  0
BLOCK
  5
6C
330
6B
100
AcDbEntity
 67
     1
  8
0
100
AcDbBlockBegin
  2
*Paper_Space0
 70
     0
 10
0.0
 20
0.0
 30
0.0
  3
*Paper_Space0
  1

  0
ENDBLK
  5
6D
330
6B
100
AcDbEntity
 67
     1
  8
0
100
AcDbBlockEnd
  0
BLOCK
  5
762E
330
762B
100
AcDbEntity
  8
0
100
AcDbBlockBegin
  2
_ArchTick
 70
     0
 10
0.0
 20
0.0
 30
0.0
  3
_ArchTick
  1

  0
LWPOLYLINE
  5
762F
330
762B
100
AcDbEntity
  8
0
  6
ByBlock
 62
     7
100
AcDbPolyline
 90
        2
 70
     0
 43
0.15
 10
-0.5
 20
-0.5
 10
0.5
 20
0.5
  0
ENDBLK
  5
7630
330
762B
100
AcDbEntity
  8
0
100
AcDbBlockEnd
  0
ENDSEC
  0
SECTION
  2
ENTITIES
  0
HATCH
  5
768F
330
67
100
AcDbEntity
  8
F_18 Schr-Holz hell
370
    13
100
AcDbHatch
 10
0.0
 20
0.0
 30
0.0
210
0.0
220
0.0
230
1.0
  2
SOLID
 70
     1
 71
     0
 91
        1
 92
        1
 93
        5
 72
     1
 10
341.031647847949
 20
302.0457555788525
 11
341.031647847949
 21
294.0457555788526
 72
     2
 10
343.031647847949
 20
294.0457555788526
 40
2.0
 50
180.0
 51
270.0
 73
     1
 72
     1
 10
343.031647847949
 20
292.0457555788526
 11
396.031647847949
 21
292.0457555788526
 72
     1
 10
396.031647847949
 20
292.0457555788526
 11
396.031647847949
 21
302.0457555788525
 72
     1
 10
396.031647847949
 20
302.0457555788525
 11
341.031647847949
 21
302.0457555788525
 97
        0
 75
     0
 76
     1
 98
        1
 10
-33460.44599621795
 20
-14094.00263975985
450
        0
451
        0
460
0.0
461
0.0
452
        1
462
1.0
453
        2
463
0.0
 63
     5
421
      255
463
1.0
 63
     7
421
 16777215
470
LINEAR
1001
ACAD
1010
0.0
1020
0.0
1030
0.0
  0
HATCH
  5
7690
330
67
100
AcDbEntity
  8
F_18 Schr-Holz hell
370
    13
100
AcDbHatch
 10
0.0
 20
0.0
 30
0.0
210
0.0
220
0.0
230
1.0
  2
SOLID
 70
     1
 71
     0
 91
        1
 92
        1
 93
       10
 72
     1
 10
396.0316559082403
 20
302.0457555788525
 11
396.0316526494771
 21
333.0457555788525
 72
     1
 10
396.0316526494771
 20
333.0457555788525
 11
401.031652649477
 21
333.0457561044604
 72
     1
 10
401.031652649477
 20
333.0457561044604
 11
401.0316518085073
 21
341.0457561044605
 72
     1
 10
401.0316518085073
 20
341.0457561044605
 11
405.0316518085073
 21
341.0457565249453
 72
     1
 10
405.0316518085073
 20
341.0457565249453
 11
405.031652649477
 21
333.0457565249453
 72
     1
 10
405.031652649477
 20
333.0457565249453
 11
409.031652649477
 21
333.0457569454302
 72
     1
 10
409.031652649477
 20
333.0457569454302
 11
409.0326695932945
 21
630.0457544751006
 72
     1
 10
409.0326695932945
 20
630.0457544751006
 11
384.0316254218324
 21
630.0457544751006
 72
     1
 10
384.0316254218324
 20
630.0457544751006
 11
384.0316559082403
 21
302.0457543173979
 72
     1
 10
384.0316559082403
 20
302.0457543173979
 11
396.0316559082403
 21
302.0457555788525
 97
        0
 75
     0
 76
     1
 98
        1
 10
-33460.44599621795
 20
-14094.00263975985
450
        0
451
        0
460
0.0
461
0.0
452
        1
462
1.0
453
        2
463
0.0
 63
     5
421
      255
463
1.0
 63
     7
421
 16777215
470
LINEAR
1001
ACAD
1010
0.0
1020
0.0
1030
0.0
  0
HATCH
  5
7691
330
67
100
AcDbEntity
  8
F_18 Schr-Holz hell
370
    13
100
AcDbHatch
 10
0.0
 20
0.0
 30
0.0
210
0.0
220
0.0
230
1.0
  2
SOLID
 70
     1
 71
     0
 91
        1
 92
        1
 93
        7
 72
     1
 10
615.3740107976901
 20
334.5455426793087
 11
417.5159088459313
 21
334.5455425312102
 72
     1
 10
417.5159088459313
 20
334.5455425312102
 11
417.515904378275
 21
329.0457905834119
 72
     1
 10
417.515904378275
 20
329.0457905834119
 11
400.1159043782663
 21
329.0457905834119
 72
     1
 10
400.1159043782663
 20
329.0457905834119
 11
398.5159043782751
 21
297.5457905834119
 72
     1
 10
398.5159043782751
 20
297.5457905834119
 11
398.5159043782751
 21
292.5457905834118
 72
     1
 10
398.5159043782751
 20
292.5457905834118
 11
615.3740107976901
 21
292.5457907411164
 72
     1
 10
615.3740107976901
 20
292.5457907411182
 11
615.3740107976901
 21
334.5455426793105
 97
        0
 75
     0
 76
     1
 98
        1
 10
-31324.78925543656
 20
-14184.4949942918
450
        0
451
        0
460
0.0
461
0.0
452
        1
462
1.0
453
        2
463
0.0
 63
     5
421
      255
463
1.0
 63
     7
421
 16777215
470
LINEAR
1001
ACAD
1010
0.0
1020
0.0
1030
0.0
  0
HATCH
  5
7692
330
67
100
AcDbEntity
  8
F_18 Schr-Holz hell
370
    13
100
AcDbHatch
 10
0.0
 20
0.0
 30
0.0
210
0.0
220
0.0
230
1.0
  2
SOLID
 70
     1
 71
     0
 91
        1
 92
        7
 72
     1
 73
     1
 93
       65
 10
404.1316608145116
 20
335.795756588017
 42
-0.4142135623735426
 10
404.3816607882308
 20
336.0457566142977
 42
0.0
 10
405.0316523341153
 20
336.0457566826263
 42
0.0
 10
405.0316522500197
 20
336.8457566826255
 42
0.0
 10
404.381660704128
 20
336.845756614297
 42
-0.4142135623741744
 10
404.1316606778472
 20
337.0957565880199
 42
0.0
 10
404.1316604991497
 20
338.7957565880206
 42
-0.4142135623721543
 10
404.381660472869
 20
339.0457566142977
 42
0.0
 10
405.0316520187461
 20
339.0457566826262
 42
0.0
 10
405.0316519346506
 20
339.8457566826255
 42
0.0
 10
404.3816603887735
 20
339.845756614297
 42
-0.414213562367906
 10
404.1316603624927
 20
340.0957565880126
 42
0.0
 10
404.1316603414652
 20
340.2957565880206
 42
0.4142135623680808
 10
403.8816603151844
 20
340.5457565617362
 42
0.0
 10
403.0316603151859
 20
340.5457564723838
 42
0.0
 10
402.1816603151874
 20
340.5457563830314
 42
0.4142135623674539
 10
401.9316603414681
 20
340.2957563567579
 42
0.0
 10
401.9316603624884
 20
340.0957563567463
 42
-0.4142135623676283
 10
401.6816603887691
 20
339.8457563304692
 42
0.0
 10
401.0316519346506
 20
339.8457562621406
 42
0.0
 10
401.0316520187461
 20
339.0457562621414
 42
0.0
 10
401.6816604728647
 20
339.0457563304699
 42
-0.414213562373848
 10
401.9316604991454
 20
338.7957563567543
 42
0.0
 10
401.9316606778501
 20
337.0957563567499
 42
-0.4142135623732691
 10
401.681660704131
 20
336.8457563304692
 42
0.0
 10
401.0316522500197
 20
336.8457562621407
 42
0.0
 10
401.0316523341153
 20
336.0457562621414
 42
0.0
 10
401.6816607882264
 20
336.0457563304699
 42
-0.4142135623737132
 10
401.9316608145072
 20
335.7957563567506
 42
0.0
 10
401.9316610358564
 20
333.6900939240477
 42
-0.2679491924300823
 10
401.8066610586156
 20
333.4735875599617
 42
0.0
 10
401.0656354267029
 20
333.045756108033
 42
0.0
 10
397.5316611035942
 20
333.0457557365371
 42
0.0
 10
397.5316612087099
 20
332.0457558942144
 42
0.0
 10
400.531627150236
 20
329.0457905834119
 42
0.0
 10
401.7215524803886
 20
329.0457905834119
 42
0.3381944148685474
 10
401.2640847049024
 20
329.4447039137121
 42
0.0
 10
399.0898087987789
 20
331.6189793627164
 42
-0.6681786379188949
 10
399.2665854492061
 20
332.0457560765935
 42
0.0
 10
402.3941589944643
 20
332.0457564053686
 42
-0.3394542588692277
 10
402.4907515848808
 20
331.9716383200357
 42
0.0
 10
402.5314165908985
 20
331.8198745152913
 42
0.3394542588728134
 10
402.6280091813223
 20
331.7457564299512
 42
0.5062003636121873
 10
402.7711363585604
 20
331.8198745404879
 42
0.0
 10
402.8118013326802
 20
331.9716383537889
 42
-0.3394542588510407
 10
402.9083939075117
 20
332.0457564594253
 42
0.0
 10
403.0316612087172
 20
332.0457564723838
 42
0.0
 10
403.1549285099226
 20
332.0457564853423
 42
-0.3394542588693955
 10
403.2515211003392
 20
331.9716384000058
 42
0.0
 10
403.2921861063568
 20
331.819874595265
 42
0.339454258871975
 10
403.3887786967807
 20
331.7457565099248
 42
0.5062003636077593
 10
403.5319058740188
 20
331.8198746204616
 42
0.0
 10
403.5725708481386
 20
331.9716384337626
 42
-0.3394542588528795
 10
403.6691634229701
 20
332.045756539399
 42
0.0
 10
406.796736968221
 20
332.0457568681741
 42
-0.668178637919139
 10
406.9735137083825
 20
331.6189801914625
 42
0.0
 10
404.4003246413321
 20
329.0457905834119
 42
0.0
 10
405.5316953722922
 20
329.0457905834119
 42
0.0
 10
408.5316612087098
 20
332.0457570505496
 42
0.0
 10
408.5316611035941
 20
333.0457568928723
 42
0.0
 10
405.031652649477
 20
333.0457565249453
 42
0.0
 10
405.0316526492443
 20
333.0479470717218
 42
-0.0980945955796495
 10
404.9396738019622
 20
333.0792503220109
 42
0.0
 10
404.25666105862
 20
333.4735878175088
 42
-0.2679491924307705
 10
404.1316610358608
 20
333.690094155314
 42
0.0
 97
        0
 75
     0
 76
     1
 47
0.0913082291598871
 98
        1
 10
402.7536154574245
 20
334.5026631514884
450
        0
451
        0
460
0.0
461
0.0
452
        1
462
1.0
453
        2
463
0.0
 63
     5
421
      255
463
1.0
 63
     7
421
 16777215
470
LINEAR
1001
ACAD
1010
0.0
1020
0.0
1030
0.0
  0
LWPOLYLINE
  5
7693
330
67
100
AcDbEntity
  8
F_01 sichtbar
370
    13
100
AcDbPolyline
 90
        7
 70
     0
 43
0.0
 10
615.3740107976901
 20
292.5457905834118
 10
398.5159043782751
 20
292.5457905834118
 10
398.5159043782751
 20
297.5457905834119
 10
400.1159043782663
 20
329.0457905834119
 10
417.515904378275
 20
329.0457905834119
 10
417.5159088459313
 20
334.5455425312102
 10
615.3740107976901
 20
334.5455426793087
  0
HATCH
  5
7694
330
67
100
AcDbEntity
  8
F_15 Schr-Mauer hell
370
    13
100
AcDbHatch
 10
0.0
 20
0.0
 30
0.0
210
0.0
220
0.0
230
1.0
  2
SOLID
 70
     1
 71
     0
 91
        1
 92
        1
 93
        4
 72
     1
 10
217.0880135912503
 20
507.0457544751007
 11
217.0880135912575
 21
317.0457543173998
 72
     1
 10
217.0880135912575
 20
317.0457543174016
 11
379.0316661550805
 21
317.0457543174034
 72
     1
 10
379.0316661550805
 20
317.0457543174016
 11
379.0316661550805
 21
507.0457544751007
 72
     1
 10
379.0316661550805
 20
507.0457544751007
 11
217.0880135912503
 21
507.0457544751007
 97
        0
 75
     0
 76
     1
 98
        1
 10
167.9426717163278
 20
468.6342556351847
450
        0
451
        0
460
0.0
461
0.0
452
        1
462
1.0
453
        2
463
0.0
 63
     5
421
      255
463
1.0
 63
     7
421
 16777215
470
LINEAR
1001
ACAD
1010
0.0
1020
0.0
1030
0.0
  0
HATCH
  5
7695
330
67
100
AcDbEntity
  8
F_01 sichtbar
370
    13
100
AcDbHatch
 10
0.0
 20
0.0
 30
0.0
210
0.0
220
0.0
230
1.0
  2
BATT_INSULATION
 70
     0
 71
     0
 91
        1
 92
        1
 93
        4
 72
     1
 10
615.3740107976901
 20
297.5568949472909
 11
615.3740107976901
 21
329.5457907411164
 72
     1
 10
615.3740107976901
 20
329.5457907411146
 11
456.516468409447
 21
329.5457907411164
 72
     1
 10
456.516468409447
 20
329.5457907411182
 11
456.516468409447
 21
297.5568949472909
 72
     1
 10
456.516468409447
 20
297.5568949472909
 11
615.3740107976901
 21
297.5568949472909
 97
        0
 75
     0
 76
     2
 52
180.0
 41
32.77964320184142
 77
     0
 78
   528
 53
0.000000000000007
 43
12279.05280539101
 44
1587.373930772512
 45
10.95203936981043
 46
-36.87709860207159
 79
     2
 49
0.0
 49
-10.95203936981043
 53
345.9236
 43
12273.57676931628
 44
1583.27647537228
 45
10.95202660980681
 46
0.000004046117522
 79
     2
 49
2.663936043727233
 49
-1058.697838380723
 53
345.9236
 43
12273.57676931628
 44
1546.399376770205
 45
10.95202660980681
 46
0.000004046117522
 79
     2
 49
2.663936043727233
 49
-1058.697838380723
 53
345.9236
 43
12273.57676931628
 44
1509.522278168137
 45
10.95202660980681
 46
0.000004046117522
 79
     2
 49
2.663936043727233
 49
-1058.697838380723
 53
345.9236
 43
12273.57676931628
 44
1472.645179566061
 45
10.95202660980681
 46
0.000004046117522
 79
     2
 49
2.663936043727233
 49
-1058.697838380723
 53
345.9236
 43
12273.57676931628
 44
1435.768080963993
 45
10.95202660980681
 46
0.000004046117522
 79
     2
 49
2.663936043727233
 49
-1058.697838380723
 53
345.9236
 43
12273.57676931628
 44
1398.890982361925
 45
10.95202660980681
 46
0.000004046117522
 79
     2
 49
2.663936043727233
 49
-1058.697838380723
 53
345.9236
 43
12273.57676931628
 44
1362.01388375985
 45
10.95202660980681
 46
0.000004046117522
 79
     2
 49
2.663936043727233
 49
-1058.697838380723
 53
334.9544
 43
12274.85245469076
 44
1552.459349408935
 45
10.9520365279484
 46
-0.0000117218229823
 79
     2
 49
4.636287175181994
 49
-2957.102061108975
 53
334.9544
 43
12274.85245469076
 44
1515.582250806859
 45
10.9520365279484
 46
-0.0000117218229823
 79
     2
 49
4.636287175181994
 49
-2957.102061108975
 53
334.9544
 43
12274.85245469076
 44
1478.705152204791
 45
10.9520365279484
 46
-0.0000117218229823
 79
     2
 49
4.636287175181994
 49
-2957.102061108975
 53
334.9544
 43
12274.85245469076
 44
1441.828053602716
 45
10.9520365279484
 46
-0.0000117218229823
 79
     2
 49
4.636287175181994
 49
-2957.102061108975
 53
334.9544
 43
12274.85245469076
 44
1404.950955000644
 45
10.9520365279484
 46
-0.0000117218229823
 79
     2
 49
4.636287175181994
 49
-2957.102061108975
 53
334.9544
 43
12274.85245469076
 44
1368.073856398572
 45
10.9520365279484
 46
-0.0000117218229823
 79
     2
 49
4.636287175181994
 49
-2957.102061108975
 53
334.9544
 43
12274.85245469076
 44
1331.196757796504
 45
10.9520365279484
 46
-0.0000117218229823
 79
     2
 49
4.636287175181994
 49
-2957.102061108975
 53
334.9544
 43
12274.85245469076
 44
1294.319659194429
 45
10.9520365279484
 46
-0.0000117218229823
 79
     2
 49
4.636287175181994
 49
-2957.102061108975
 53
334.9544
 43
12274.85245469076
 44
1257.443543981659
 45
10.9520365279484
 46
-0.0000117218229823
 79
     2
 49
4.636287175181994
 49
-2957.102061108975
 53
334.9544
 43
12274.85245469076
 44
1220.566445379583
 45
10.9520365279484
 46
-0.0000117218229823
 79
     2
 49
4.636287175181994
 49
-2957.102061108975
 53
334.9544
 43
12274.85245469076
 44
1183.689346777511
 45
10.9520365279484
 46
-0.0000117218229823
 79
     2
 49
4.636287175181994
 49
-2957.102061108975
 53
334.9544
 43
12274.85245469076
 44
1146.81224817544
 45
10.9520365279484
 46
-0.0000117218229823
 79
     2
 49
4.636287175181994
 49
-2957.102061108975
 53
334.9544
 43
12274.85245469076
 44
1109.935149573368
 45
10.9520365279484
 46
-0.0000117218229823
 79
     2
 49
4.636287175181994
 49
-2957.102061108975
 53
334.9544
 43
12274.85245469076
 44
1073.0580509713
 45
10.9520365279484
 46
-0.0000117218229823
 79
     2
 49
4.636287175181994
 49
-2957.102061108975
 53
334.9544
 43
12274.85245469076
 44
1036.180952369228
 45
10.9520365279484
 46
-0.0000117218229823
 79
     2
 49
4.636287175181994
 49
-2957.102061108975
 53
334.9544
 43
12274.85245469076
 44
999.3038537671527
 45
10.9520365279484
 46
-0.0000117218229823
 79
     2
 49
4.636287175181994
 49
-2957.102061108975
 53
334.9544
 43
12274.85245469076
 44
962.4267551650845
 45
10.9520365279484
 46
-0.0000117218229823
 79
     2
 49
4.636287175181994
 49
-2957.102061108975
 53
334.9544
 43
12274.85245469076
 44
925.5496565630128
 45
10.9520365279484
 46
-0.0000117218229823
 79
     2
 49
4.636287175181994
 49
-2957.102061108975
 53
334.9544
 43
12274.85245469076
 44
888.6725579609411
 45
10.9520365279484
 46
-0.0000117218229823
 79
     2
 49
4.636287175181994
 49
-2957.102061108975
 53
334.9544
 43
12274.85245469076
 44
851.7954593588656
 45
10.9520365279484
 46
-0.0000117218229823
 79
     2
 49
4.636287175181994
 49
-2957.102061108975
 53
334.9544
 43
12274.85245469076
 44
814.9183607567975
 45
10.9520365279484
 46
-0.0000117218229823
 79
     2
 49
4.636287175181994
 49
-2957.102061108975
 53
334.9544
 43
12274.85245469076
 44
778.0412621547257
 45
10.9520365279484
 46
-0.0000117218229823
 79
     2
 49
4.636287175181994
 49
-2957.102061108975
 53
334.9544
 43
12274.85245469076
 44
741.1641635526539
 45
10.9520365279484
 46
-0.0000117218229823
 79
     2
 49
4.636287175181994
 49
-2957.102061108975
 53
334.9544
 43
12274.85245469076
 44
704.2870649505784
 45
10.9520365279484
 46
-0.0000117218229823
 79
     2
 49
4.636287175181994
 49
-2957.102061108975
 53
334.9544
 43
12274.85245469076
 44
667.4099663485103
 45
10.9520365279484
 46
-0.0000117218229823
 79
     2
 49
4.636287175181994
 49
-2957.102061108975
 53
334.9544
 43
12274.85245469076
 44
630.5328677464422
 45
10.9520365279484
 46
-0.0000117218229823
 79
     2
 49
4.636287175181994
 49
-2957.102061108975
 53
334.9544
 43
12274.85245469076
 44
593.6557691443668
 45
10.9520365279484
 46
-0.0000117218229823
 79
     2
 49
4.636287175181994
 49
-2957.102061108975
 53
334.9544
 43
12274.85245469076
 44
556.7786705422986
 45
10.9520365279484
 46
-0.0000117218229823
 79
     2
 49
4.636287175181994
 49
-2957.102061108975
 53
334.9544
 43
12274.85245469076
 44
519.9015719402232
 45
10.9520365279484
 46
-0.0000117218229823
 79
     2
 49
4.636287175181994
 49
-2957.102061108975
 53
334.9544
 43
12274.85245469076
 44
483.0244733381477
 45
10.9520365279484
 46
-0.0000117218229823
 79
     2
 49
4.636287175181994
 49
-2957.102061108975
 53
334.9544
 43
12274.85245469076
 44
446.1473747360797
 45
10.9520365279484
 46
-0.0000117218229823
 79
     2
 49
4.636287175181994
 49
-2957.102061108975
 53
334.9544
 43
12274.85245469076
 44
409.2702761340115
 45
10.9520365279484
 46
-0.0000117218229823
 79
     2
 49
4.636287175181994
 49
-2957.102061108975
 53
334.9544
 43
12274.85245469076
 44
372.3931775319361
 45
10.9520365279484
 46
-0.0000117218229823
 79
     2
 49
4.636287175181994
 49
-2957.102061108975
 53
334.9544
 43
12274.85245469076
 44
335.5160789298643
 45
10.9520365279484
 46
-0.0000117218229823
 79
     2
 49
4.636287175181994
 49
-2957.102061108975
 53
307.5647
 43
12276.16072303059
 44
1582.628487385467
 45
10.95203172566192
 46
-0.0000024731155069
 79
     2
 49
4.503300162712156
 49
-1809.889024393901
 53
307.5647
 43
12276.16072303059
 44
1545.751323224107
 45
10.95203172566192
 46
-0.0000024731155069
 79
     2
 49
4.503300162712156
 49
-1809.889024393901
 53
307.5647
 43
12276.16072303059
 44
1508.874224622035
 45
10.95203172566192
 46
-0.0000024731155069
 79
     2
 49
4.503300162712156
 49
-1809.889024393901
 53
307.5647
 43
12276.16072303059
 44
1471.997126019967
 45
10.95203172566192
 46
-0.0000024731155069
 79
     2
 49
4.503300162712156
 49
-1809.889024393901
 53
307.5647
 43
12276.16072303059
 44
1435.120027417892
 45
10.95203172566192
 46
-0.0000024731155069
 79
     2
 49
4.503300162712156
 49
-1809.889024393901
 53
307.5647
 43
12276.16072303059
 44
1398.242928815816
 45
10.95203172566192
 46
-0.0000024731155069
 79
     2
 49
4.503300162712156
 49
-1809.889024393901
 53
307.5647
 43
12276.16072303059
 44
1361.365830213748
 45
10.95203172566192
 46
-0.0000024731155069
 79
     2
 49
4.503300162712156
 49
-1809.889024393901
 53
307.5647
 43
12276.16072303059
 44
1324.48873161168
 45
10.95203172566192
 46
-0.0000024731155069
 79
     2
 49
4.503300162712156
 49
-1809.889024393901
 53
307.5647
 43
12276.16072303059
 44
1287.611633009605
 45
10.95203172566192
 46
-0.0000024731155069
 79
     2
 49
4.503300162712156
 49
-1809.889024393901
 53
307.5647
 43
12276.16072303059
 44
1250.733551018238
 45
10.95203172566192
 46
-0.0000024731155069
 79
     2
 49
4.503300162712156
 49
-1809.889024393901
 53
307.5647
 43
12276.16072303059
 44
1213.85645241617
 45
10.95203172566192
 46
-0.0000024731155069
 79
     2
 49
4.503300162712156
 49
-1809.889024393901
 53
307.5647
 43
12276.16072303059
 44
1176.979353814095
 45
10.95203172566192
 46
-0.0000024731155069
 79
     2
 49
4.503300162712156
 49
-1809.889024393901
 53
307.5647
 43
12276.16072303059
 44
1140.102255212019
 45
10.95203172566192
 46
-0.0000024731155069
 79
     2
 49
4.503300162712156
 49
-1809.889024393901
 53
307.5647
 43
12276.16072303059
 44
1103.225156609951
 45
10.95203172566192
 46
-0.0000024731155069
 79
     2
 49
4.503300162712156
 49
-1809.889024393901
 53
307.5647
 43
12276.16072303059
 44
1066.348058007883
 45
10.95203172566192
 46
-0.0000024731155069
 79
     2
 49
4.503300162712156
 49
-1809.889024393901
 53
307.5647
 43
12276.16072303059
 44
1029.470959405808
 45
10.95203172566192
 46
-0.0000024731155069
 79
     2
 49
4.503300162712156
 49
-1809.889024393901
 53
307.5647
 43
12276.16072303059
 44
992.5938608037359
 45
10.95203172566192
 46
-0.0000024731155069
 79
     2
 49
4.503300162712156
 49
-1809.889024393901
 53
307.5647
 43
12276.16072303059
 44
955.716762201664
 45
10.95203172566192
 46
-0.0000024731155069
 79
     2
 49
4.503300162712156
 49
-1809.889024393901
 53
307.5647
 43
12276.16072303059
 44
918.8396635995959
 45
10.95203172566192
 46
-0.0000024731155069
 79
     2
 49
4.503300162712156
 49
-1809.889024393901
 53
307.5647
 43
12276.16072303059
 44
881.9625649975206
 45
10.95203172566192
 46
-0.0000024731155069
 79
     2
 49
4.503300162712156
 49
-1809.889024393901
 53
307.5647
 43
12276.16072303059
 44
845.0854663954524
 45
10.95203172566192
 46
-0.0000024731155069
 79
     2
 49
4.503300162712156
 49
-1809.889024393901
 53
307.5647
 43
12276.16072303059
 44
808.208367793377
 45
10.95203172566192
 46
-0.0000024731155069
 79
     2
 49
4.503300162712156
 49
-1809.889024393901
 53
307.5647
 43
12276.16072303059
 44
771.3312691913088
 45
10.95203172566192
 46
-0.0000024731155069
 79
     2
 49
4.503300162712156
 49
-1809.889024393901
 53
307.5647
 43
12276.16072303059
 44
734.454170589237
 45
10.95203172566192
 46
-0.0000024731155069
 79
     2
 49
4.503300162712156
 49
-1809.889024393901
 53
307.5647
 43
12276.16072303059
 44
697.5770719871652
 45
10.95203172566192
 46
-0.0000024731155069
 79
     2
 49
4.503300162712156
 49
-1809.889024393901
 53
307.5647
 43
12276.16072303059
 44
660.6999733850898
 45
10.95203172566192
 46
-0.0000024731155069
 79
     2
 49
4.503300162712156
 49
-1809.889024393901
 53
307.5647
 43
12276.16072303059
 44
623.8228747830216
 45
10.95203172566192
 46
-0.0000024731155069
 79
     2
 49
4.503300162712156
 49
-1809.889024393901
 53
307.5647
 43
12276.16072303059
 44
586.9457761809535
 45
10.95203172566192
 46
-0.0000024731155069
 79
     2
 49
4.503300162712156
 49
-1809.889024393901
 53
307.5647
 43
12276.16072303059
 44
550.0686775788781
 45
10.95203172566192
 46
-0.0000024731155069
 79
     2
 49
4.503300162712156
 49
-1809.889024393901
 53
307.5647
 43
12276.16072303059
 44
513.1915789768063
 45
10.95203172566192
 46
-0.0000024731155069
 79
     2
 49
4.503300162712156
 49
-1809.889024393901
 53
307.5647
 43
12276.16072303059
 44
476.3144803747345
 45
10.95203172566192
 46
-0.0000024731155069
 79
     2
 49
4.503300162712156
 49
-1809.889024393901
 53
307.5647
 43
12276.16072303059
 44
439.4373817726591
 45
10.95203172566192
 46
-0.0000024731155069
 79
     2
 49
4.503300162712156
 49
-1809.889024393901
 53
307.5647
 43
12276.16072303059
 44
402.5602831705946
 45
10.95203172566192
 46
-0.0000024731155069
 79
     2
 49
4.503300162712156
 49
-1809.889024393901
 53
307.5647
 43
12276.16072303059
 44
365.6831845685228
 45
10.95203172566192
 46
-0.0000024731155069
 79
     2
 49
4.503300162712156
 49
-1809.889024393901
 53
307.5647
 43
12276.16072303059
 44
328.8060859664474
 45
10.95203172566192
 46
-0.0000024731155069
 79
     2
 49
4.503300162712156
 49
-1809.889024393901
 53
307.5647
 43
12276.16072303059
 44
291.9289873643793
 45
10.95203172566192
 46
-0.0000024731155069
 79
     2
 49
4.503300162712156
 49
-1809.889024393901
 53
307.5647
 43
12276.16072303059
 44
255.0518887623075
 45
10.95203172566192
 46
-0.0000024731155069
 79
     2
 49
4.503300162712156
 49
-1809.889024393901
 53
307.5647
 43
12276.16072303059
 44
218.1747901602348
 45
10.95203172566192
 46
-0.0000024731155069
 79
     2
 49
4.503300162712156
 49
-1809.889024393901
 53
307.5647
 43
12276.16072303059
 44
181.297691558163
 45
10.95203172566192
 46
-0.0000024731155069
 79
     2
 49
4.503300162712156
 49
-1809.889024393901
 53
292.9384
 43
12269.10980538805
 44
1571.044653172583
 45
10.95204222721493
 46
-0.0000045639384487
 79
     2
 49
8.386475035331912
 49
-1593.356600854789
 53
292.9384
 43
12269.10980538805
 44
1534.16765290944
 45
10.95204222721493
 46
-0.0000045639384487
 79
     2
 49
8.386475035331912
 49
-1593.356600854789
 53
292.9384
 43
12269.10980538805
 44
1497.290554307365
 45
10.95204222721493
 46
-0.0000045639384487
 79
     2
 49
8.386475035331912
 49
-1593.356600854789
 53
292.9384
 43
12269.10980538805
 44
1460.413455705297
 45
10.95204222721493
 46
-0.0000045639384487
 79
     2
 49
8.386475035331912
 49
-1593.356600854789
 53
292.9384
 43
12269.10980538805
 44
1423.536357103228
 45
10.95204222721493
 46
-0.0000045639384487
 79
     2
 49
8.386475035331912
 49
-1593.356600854789
 53
292.9384
 43
12269.10980538805
 44
1386.659258501153
 45
10.95204222721493
 46
-0.0000045639384487
 79
     2
 49
8.386475035331912
 49
-1593.356600854789
 53
292.9384
 43
12269.10980538805
 44
1349.782159899081
 45
10.95204222721493
 46
-0.0000045639384487
 79
     2
 49
8.386475035331912
 49
-1593.356600854789
 53
292.9384
 43
12269.10980538805
 44
1312.905061297009
 45
10.95204222721493
 46
-0.0000045639384487
 79
     2
 49
8.386475035331912
 49
-1593.356600854789
 53
292.9384
 43
12269.10980538805
 44
1276.027962694941
 45
10.95204222721493
 46
-0.0000045639384487
 79
     2
 49
8.386475035331912
 49
-1593.356600854789
 53
292.9384
 43
12269.10980538805
 44
1239.149225110708
 45
10.95204222721493
 46
-0.0000045639384487
 79
     2
 49
8.386475035331912
 49
-1593.356600854789
 53
292.9384
 43
12269.10980538805
 44
1202.272126508636
 45
10.95204222721493
 46
-0.0000045639384487
 79
     2
 49
8.386475035331912
 49
-1593.356600854789
 53
292.9384
 43
12269.10980538805
 44
1165.395027906561
 45
10.95204222721493
 46
-0.0000045639384487
 79
     2
 49
8.386475035331912
 49
-1593.356600854789
 53
292.9384
 43
12269.10980538805
 44
1128.517929304493
 45
10.95204222721493
 46
-0.0000045639384487
 79
     2
 49
8.386475035331912
 49
-1593.356600854789
 53
292.9384
 43
12269.10980538805
 44
1091.640830702425
 45
10.95204222721493
 46
-0.0000045639384487
 79
     2
 49
8.386475035331912
 49
-1593.356600854789
 53
292.9384
 43
12269.10980538805
 44
1054.763732100349
 45
10.95204222721493
 46
-0.0000045639384487
 79
     2
 49
8.386475035331912
 49
-1593.356600854789
 53
292.9384
 43
12269.10980538805
 44
1017.886633498277
 45
10.95204222721493
 46
-0.0000045639384487
 79
     2
 49
8.386475035331912
 49
-1593.356600854789
 53
292.9384
 43
12269.10980538805
 44
981.0095348962059
 45
10.95204222721493
 46
-0.0000045639384487
 79
     2
 49
8.386475035331912
 49
-1593.356600854789
 53
292.9384
 43
12269.10980538805
 44
944.132436294134
 45
10.95204222721493
 46
-0.0000045639384487
 79
     2
 49
8.386475035331912
 49
-1593.356600854789
 53
292.9384
 43
12269.10980538805
 44
907.2553376920659
 45
10.95204222721493
 46
-0.0000045639384487
 79
     2
 49
8.386475035331912
 49
-1593.356600854789
 53
292.9384
 43
12269.10980538805
 44
870.3782390899942
 45
10.95204222721493
 46
-0.0000045639384487
 79
     2
 49
8.386475035331912
 49
-1593.356600854789
 53
292.9384
 43
12269.10980538805
 44
833.5011404879187
 45
10.95204222721493
 46
-0.0000045639384487
 79
     2
 49
8.386475035331912
 49
-1593.356600854789
 53
292.9384
 43
12269.10980538805
 44
796.6240418858506
 45
10.95204222721493
 46
-0.0000045639384487
 79
     2
 49
8.386475035331912
 49
-1593.356600854789
 53
292.9384
 43
12269.10980538805
 44
759.7469432837788
 45
10.95204222721493
 46
-0.0000045639384487
 79
     2
 49
8.386475035331912
 49
-1593.356600854789
 53
292.9384
 43
12269.10980538805
 44
722.869844681707
 45
10.95204222721493
 46
-0.0000045639384487
 79
     2
 49
8.386475035331912
 49
-1593.356600854789
 53
292.9384
 43
12269.10980538805
 44
685.9927460796316
 45
10.95204222721493
 46
-0.0000045639384487
 79
     2
 49
8.386475035331912
 49
-1593.356600854789
 53
292.9384
 43
12269.10980538805
 44
649.1156474775634
 45
10.95204222721493
 46
-0.0000045639384487
 79
     2
 49
8.386475035331912
 49
-1593.356600854789
 53
292.9384
 43
12269.10980538805
 44
612.238548875488
 45
10.95204222721493
 46
-0.0000045639384487
 79
     2
 49
8.386475035331912
 49
-1593.356600854789
 53
292.9384
 43
12269.10980538805
 44
575.3614502734198
 45
10.95204222721493
 46
-0.0000045639384487
 79
     2
 49
8.386475035331912
 49
-1593.356600854789
 53
292.9384
 43
12269.10980538805
 44
538.4843516713444
 45
10.95204222721493
 46
-0.0000045639384487
 79
     2
 49
8.386475035331912
 49
-1593.356600854789
 53
292.9384
 43
12269.10980538805
 44
501.6072530692763
 45
10.95204222721493
 46
-0.0000045639384487
 79
     2
 49
8.386475035331912
 49
-1593.356600854789
 53
292.9384
 43
12269.10980538805
 44
464.7301544672082
 45
10.95204222721493
 46
-0.0000045639384487
 79
     2
 49
8.386475035331912
 49
-1593.356600854789
 53
292.9384
 43
12269.10980538805
 44
427.8530558651327
 45
10.95204222721493
 46
-0.0000045639384487
 79
     2
 49
8.386475035331912
 49
-1593.356600854789
 53
292.9384
 43
12269.10980538805
 44
390.975957263061
 45
10.95204222721493
 46
-0.0000045639384487
 79
     2
 49
8.386475035331912
 49
-1593.356600854789
 53
292.9384
 43
12269.10980538805
 44
354.0988586609892
 45
10.95204222721493
 46
-0.0000045639384487
 79
     2
 49
8.386475035331912
 49
-1593.356600854789
 53
292.9384
 43
12269.10980538805
 44
317.2217600589174
 45
10.95204222721493
 46
-0.0000045639384487
 79
     2
 49
8.386475035331912
 49
-1593.356600854789
 53
292.9384
 43
12269.10980538805
 44
280.3446614568457
 45
10.95204222721493
 46
-0.0000045639384487
 79
     2
 49
8.386475035331912
 49
-1593.356600854789
 53
292.9384
 43
12269.10980538805
 44
243.4675628547766
 45
10.95204222721493
 46
-0.0000045639384487
 79
     2
 49
8.386475035331912
 49
-1593.356600854789
 53
292.9384
 43
12269.10980538805
 44
206.5904642527048
 45
10.95204222721493
 46
-0.0000045639384487
 79
     2
 49
8.386475035331912
 49
-1593.356600854789
 53
292.9384
 43
12269.10980538805
 44
169.7133656506293
 45
10.95204222721493
 46
-0.0000045639384487
 79
     2
 49
8.386475035331912
 49
-1593.356600854789
 53
292.9384
 43
12269.10980538805
 44
132.8362670485612
 45
10.95204222721493
 46
-0.0000045639384487
 79
     2
 49
8.386475035331912
 49
-1593.356600854789
 53
285.109
 43
12273.9045657483
 44
1555.972835465524
 45
0.0000000992044029
 46
-36.87707611878427
 79
     2
 49
3.638966530766021
 49
-416.5337124354709
 53
285.109
 43
12284.85660511811
 44
1555.972835465524
 45
0.0000000992044029
 46
-36.87707611878427
 79
     2
 49
3.638966530766021
 49
-416.5337124354709
 53
285.109
 43
12295.80864448792
 44
1555.972835465524
 45
0.0000000992044029
 46
-36.87707611878427
 79
     2
 49
3.638966530766021
 49
-416.5337124354709
 53
285.109
 43
12306.76074941701
 44
1555.972835465524
 45
0.0000000992044029
 46
-36.87707611878427
 79
     2
 49
3.638966530766021
 49
-416.5337124354709
 53
285.109
 43
12317.71275600718
 44
1555.972835465524
 45
0.0000000992044029
 46
-36.87707611878427
 79
     2
 49
3.638966530766021
 49
-416.5337124354709
 53
285.109
 43
12328.66476259735
 44
1555.972835465524
 45
0.0000000992044029
 46
-36.87707611878427
 79
     2
 49
3.638966530766021
 49
-416.5337124354709
 53
285.109
 43
12339.61676918751
 44
1555.972835465524
 45
0.0000000992044029
 46
-36.87707611878427
 79
     2
 49
3.638966530766021
 49
-416.5337124354709
 53
285.109
 43
12350.56877577768
 44
1555.972835465524
 45
0.0000000992044029
 46
-36.87707611878427
 79
     2
 49
3.638966530766021
 49
-416.5337124354709
 53
285.109
 43
12361.52078236785
 44
1555.972835465524
 45
0.0000000992044029
 46
-36.87707611878427
 79
     2
 49
3.638966530766021
 49
-416.5337124354709
 53
285.109
 43
12372.47278895801
 44
1555.972835465524
 45
0.0000000992044029
 46
-36.87707611878427
 79
     2
 49
3.638966530766021
 49
-416.5337124354709
 53
276.7473999999999
 43
12272.3779522051
 44
1563.321179200648
 45
0.0000035818718473
 46
-36.87716375543
 79
     2
 49
7.399774995313284
 49
-4560.119085052519
 53
276.7473999999999
 43
12283.32999157491
 44
1563.321179200648
 45
0.0000035818718473
 46
-36.87716375543
 79
     2
 49
7.399774995313284
 49
-4560.119085052519
 53
276.7473999999999
 43
12294.28203094472
 44
1563.321179200648
 45
0.0000035818718473
 46
-36.87716375543
 79
     2
 49
7.399774995313284
 49
-4560.119085052519
 53
276.7473999999999
 43
12305.23420143311
 44
1563.321179200648
 45
0.0000035818718473
 46
-36.87716375543
 79
     2
 49
7.399774995313284
 49
-4560.119085052519
 53
276.7473999999999
 43
12316.18620802327
 44
1563.321179200648
 45
0.0000035818718473
 46
-36.87716375543
 79
     2
 49
7.399774995313284
 49
-4560.119085052519
 53
276.7473999999999
 43
12327.13821461344
 44
1563.321179200648
 45
0.0000035818718473
 46
-36.87716375543
 79
     2
 49
7.399774995313284
 49
-4560.119085052519
 53
276.7473999999999
 43
12338.09022120361
 44
1563.321179200648
 45
0.0000035818718473
 46
-36.87716375543
 79
     2
 49
7.399774995313284
 49
-4560.119085052519
 53
276.7473999999999
 43
12349.04222779377
 44
1563.321179200648
 45
0.0000035818718473
 46
-36.87716375543
 79
     2
 49
7.399774995313284
 49
-4560.119085052519
 53
276.7473999999999
 43
12359.99423438394
 44
1563.321179200648
 45
0.0000035818718473
 46
-36.87716375543
 79
     2
 49
7.399774995313284
 49
-4560.119085052519
 53
276.7473999999999
 43
12370.94624097411
 44
1563.321179200648
 45
0.0000035818718473
 46
-36.87716375543
 79
     2
 49
7.399774995313284
 49
-4560.119085052519
 53
276.7473999999999
 43
12381.89824756428
 44
1563.321179200648
 45
0.0000035818718473
 46
-36.87716375543
 79
     2
 49
7.399774995313284
 49
-4560.119085052519
 53
276.7473999999999
 43
12392.85025415444
 44
1563.321179200648
 45
0.0000035818718473
 46
-36.87716375543
 79
     2
 49
7.399774995313284
 49
-4560.119085052519
 53
276.7473999999999
 43
12403.80226074461
 44
1563.321179200648
 45
0.0000035818718473
 46
-36.87716375543
 79
     2
 49
7.399774995313284
 49
-4560.119085052519
 53
276.7473999999999
 43
12414.75426733477
 44
1563.321179200648
 45
0.0000035818718473
 46
-36.87716375543
 79
     2
 49
7.399774995313284
 49
-4560.119085052519
 53
276.7473999999999
 43
12425.70660172138
 44
1563.321179200648
 45
0.0000035818718473
 46
-36.87716375543
 79
     2
 49
7.399774995313284
 49
-4560.119085052519
 53
276.7473999999999
 43
12436.65860831155
 44
1563.321179200648
 45
0.0000035818718473
 46
-36.87716375543
 79
     2
 49
7.399774995313284
 49
-4560.119085052519
 53
276.7473999999999
 43
12447.6106149017
 44
1563.321179200648
 45
0.0000035818718473
 46
-36.87716375543
 79
     2
 49
7.399774995313284
 49
-4560.119085052519
 53
276.7473999999999
 43
12458.56262149188
 44
1563.321179200648
 45
0.0000035818718473
 46
-36.87716375543
 79
     2
 49
7.399774995313284
 49
-4560.119085052519
 53
276.7473999999999
 43
12469.51462808204
 44
1563.321179200648
 45
0.0000035818718473
 46
-36.87716375543
 79
     2
 49
7.399774995313284
 49
-4560.119085052519
 53
276.7473999999999
 43
12480.46663467221
 44
1563.321179200648
 45
0.0000035818718473
 46
-36.87716375543
 79
     2
 49
7.399774995313284
 49
-4560.119085052519
 53
276.7473999999999
 43
12491.41864126238
 44
1563.321179200648
 45
0.0000035818718473
 46
-36.87716375543
 79
     2
 49
7.399774995313284
 49
-4560.119085052519
 53
276.7473999999999
 43
12502.37064785255
 44
1563.321179200648
 45
0.0000035818718473
 46
-36.87716375543
 79
     2
 49
7.399774995313284
 49
-4560.119085052519
 53
276.7473999999999
 43
12513.32265444272
 44
1563.321179200648
 45
0.0000035818718473
 46
-36.87716375543
 79
     2
 49
7.399774995313284
 49
-4560.119085052519
 53
276.7473999999999
 43
12524.27466103288
 44
1563.321179200648
 45
0.0000035818718473
 46
-36.87716375543
 79
     2
 49
7.399774995313284
 49
-4560.119085052519
 53
276.7473999999999
 43
12535.22699541948
 44
1563.321179200648
 45
0.0000035818718473
 46
-36.87716375543
 79
     2
 49
7.399774995313284
 49
-4560.119085052519
 53
276.7473999999999
 43
12546.17900200964
 44
1563.321179200648
 45
0.0000035818718473
 46
-36.87716375543
 79
     2
 49
7.399774995313284
 49
-4560.119085052519
 53
276.7473999999999
 43
12557.13100859982
 44
1563.321179200648
 45
0.0000035818718473
 46
-36.87716375543
 79
     2
 49
7.399774995313284
 49
-4560.119085052519
 53
276.7473999999999
 43
12568.08301518998
 44
1563.321179200648
 45
0.0000035818718473
 46
-36.87716375543
 79
     2
 49
7.399774995313284
 49
-4560.119085052519
 53
276.7473999999999
 43
12579.03502178015
 44
1563.321179200648
 45
0.0000035818718473
 46
-36.87716375543
 79
     2
 49
7.399774995313284
 49
-4560.119085052519
 53
276.7473999999999
 43
12589.98702837032
 44
1563.321179200648
 45
0.0000035818718473
 46
-36.87716375543
 79
     2
 49
7.399774995313284
 49
-4560.119085052519
 53
276.7473999999999
 43
12600.93870716405
 44
1563.321179200648
 45
0.0000035818718473
 46
-36.87716375543
 79
     2
 49
7.399774995313284
 49
-4560.119085052519
 53
276.7473999999999
 43
12611.89038595779
 44
1563.321179200648
 45
0.0000035818718473
 46
-36.87716375543
 79
     2
 49
7.399774995313284
 49
-4560.119085052519
 53
276.7473999999999
 43
12622.84206475152
 44
1563.321179200648
 45
0.0000035818718473
 46
-36.87716375543
 79
     2
 49
7.399774995313284
 49
-4560.119085052519
 53
276.7473999999999
 43
12633.79374354525
 44
1563.321179200648
 45
0.0000035818718473
 46
-36.87716375543
 79
     2
 49
7.399774995313284
 49
-4560.119085052519
 53
276.7473999999999
 43
12644.74870030331
 44
1563.321179200648
 45
0.0000035818718473
 46
-36.87716375543
 79
     2
 49
7.399774995313284
 49
-4560.119085052519
 53
276.7473999999999
 43
12655.70037909705
 44
1563.321179200648
 45
0.0000035818718473
 46
-36.87716375543
 79
     2
 49
7.399774995313284
 49
-4560.119085052519
 53
276.7473999999999
 43
12666.65205789078
 44
1563.321179200648
 45
0.0000035818718473
 46
-36.87716375543
 79
     2
 49
7.399774995313284
 49
-4560.119085052519
 53
276.7473999999999
 43
12677.60373668452
 44
1563.321179200648
 45
0.0000035818718473
 46
-36.87716375543
 79
     2
 49
7.399774995313284
 49
-4560.119085052519
 53
276.7473999999999
 43
12688.55541547825
 44
1563.321179200648
 45
0.0000035818718473
 46
-36.87716375543
 79
     2
 49
7.399774995313284
 49
-4560.119085052519
 53
276.7473999999999
 43
12699.50709427199
 44
1563.321179200648
 45
0.0000035818718473
 46
-36.87716375543
 79
     2
 49
7.399774995313284
 49
-4560.119085052519
 53
276.7473999999999
 43
12710.45877306572
 44
1563.321179200648
 45
0.0000035818718473
 46
-36.87716375543
 79
     2
 49
7.399774995313284
 49
-4560.119085052519
 53
276.7473999999999
 43
12721.41045185946
 44
1563.321179200648
 45
0.0000035818718473
 46
-36.87716375543
 79
     2
 49
7.399774995313284
 49
-4560.119085052519
 53
276.7473999999999
 43
12732.36213065319
 44
1563.321179200648
 45
0.0000035818718473
 46
-36.87716375543
 79
     2
 49
7.399774995313284
 49
-4560.119085052519
 53
276.7473999999999
 43
12743.31708741125
 44
1563.321179200648
 45
0.0000035818718473
 46
-36.87716375543
 79
     2
 49
7.399774995313284
 49
-4560.119085052519
 53
276.7473999999999
 43
12754.26876620499
 44
1563.321179200648
 45
0.0000035818718473
 46
-36.87716375543
 79
     2
 49
7.399774995313284
 49
-4560.119085052519
 53
276.7473999999999
 43
12765.22044499872
 44
1563.321179200648
 45
0.0000035818718473
 46
-36.87716375543
 79
     2
 49
7.399774995313284
 49
-4560.119085052519
 53
276.7473999999999
 43
12776.17212379245
 44
1563.321179200648
 45
0.0000035818718473
 46
-36.87716375543
 79
     2
 49
7.399774995313284
 49
-4560.119085052519
 53
276.7473999999999
 43
12787.12380258619
 44
1563.321179200648
 45
0.0000035818718473
 46
-36.87716375543
 79
     2
 49
7.399774995313284
 49
-4560.119085052519
 53
276.7473999999999
 43
12798.07548137993
 44
1563.321179200648
 45
0.0000035818718473
 46
-36.87716375543
 79
     2
 49
7.399774995313284
 49
-4560.119085052519
 53
276.1416
 43
12268.24733527882
 44
1579.058915359361
 45
-0.0000356891682921
 46
-36.87700042616381
 79
     2
 49
8.060547042976009
 49
-2551.147945737283
 53
276.1416
 43
12279.19936317576
 44
1579.058915359361
 45
-0.0000356891682921
 46
-36.87700042616381
 79
     2
 49
8.060547042976009
 49
-2551.147945737283
 53
276.1416
 43
12290.15140254557
 44
1579.058915359361
 45
-0.0000356891682921
 46
-36.87700042616381
 79
     2
 49
8.060547042976009
 49
-2551.147945737283
 53
276.1416
 43
12301.10331079681
 44
1579.058915359361
 45
-0.0000356891682921
 46
-36.87700042616381
 79
     2
 49
8.060547042976009
 49
-2551.147945737283
 53
276.1416
 43
12312.05564518341
 44
1579.058915359361
 45
-0.0000356891682921
 46
-36.87700042616381
 79
     2
 49
8.060547042976009
 49
-2551.147945737283
 53
276.1416
 43
12323.00765177357
 44
1579.058915359361
 45
-0.0000356891682921
 46
-36.87700042616381
 79
     2
 49
8.060547042976009
 49
-2551.147945737283
 53
276.1416
 43
12333.95965836374
 44
1579.058915359361
 45
-0.0000356891682921
 46
-36.87700042616381
 79
     2
 49
8.060547042976009
 49
-2551.147945737283
 53
276.1416
 43
12344.91166495391
 44
1579.058915359361
 45
-0.0000356891682921
 46
-36.87700042616381
 79
     2
 49
8.060547042976009
 49
-2551.147945737283
 53
276.1416
 43
12355.86367154407
 44
1579.058915359361
 45
-0.0000356891682921
 46
-36.87700042616381
 79
     2
 49
8.060547042976009
 49
-2551.147945737283
 53
276.1416
 43
12366.81567813425
 44
1579.058915359361
 45
-0.0000356891682921
 46
-36.87700042616381
 79
     2
 49
8.060547042976009
 49
-2551.147945737283
 53
276.1416
 43
12377.76768472441
 44
1579.058915359361
 45
-0.0000356891682921
 46
-36.87700042616381
 79
     2
 49
8.060547042976009
 49
-2551.147945737283
 53
276.1416
 43
12388.71969131458
 44
1579.058915359361
 45
-0.0000356891682921
 46
-36.87700042616381
 79
     2
 49
8.060547042976009
 49
-2551.147945737283
 53
276.1416
 43
12399.67169790475
 44
1579.058915359361
 45
-0.0000356891682921
 46
-36.87700042616381
 79
     2
 49
8.060547042976009
 49
-2551.147945737283
 53
276.1416
 43
12410.62370449491
 44
1579.058915359361
 45
-0.0000356891682921
 46
-36.87700042616381
 79
     2
 49
8.060547042976009
 49
-2551.147945737283
 53
276.1416
 43
12421.57571108508
 44
1579.058915359361
 45
-0.0000356891682921
 46
-36.87700042616381
 79
     2
 49
8.060547042976009
 49
-2551.147945737283
 53
276.1416
 43
12432.52804547168
 44
1579.058915359361
 45
-0.0000356891682921
 46
-36.87700042616381
 79
     2
 49
8.060547042976009
 49
-2551.147945737283
 53
276.1416
 43
12443.48005206185
 44
1579.058915359361
 45
-0.0000356891682921
 46
-36.87700042616381
 79
     2
 49
8.060547042976009
 49
-2551.147945737283
 53
276.1416
 43
12454.43205865201
 44
1579.058915359361
 45
-0.0000356891682921
 46
-36.87700042616381
 79
     2
 49
8.060547042976009
 49
-2551.147945737283
 53
276.1416
 43
12465.38406524218
 44
1579.058915359361
 45
-0.0000356891682921
 46
-36.87700042616381
 79
     2
 49
8.060547042976009
 49
-2551.147945737283
 53
276.1416
 43
12476.33607183235
 44
1579.058915359361
 45
-0.0000356891682921
 46
-36.87700042616381
 79
     2
 49
8.060547042976009
 49
-2551.147945737283
 53
276.1416
 43
12487.28807842251
 44
1579.058915359361
 45
-0.0000356891682921
 46
-36.87700042616381
 79
     2
 49
8.060547042976009
 49
-2551.147945737283
 53
276.1416
 43
12498.24008501268
 44
1579.058915359361
 45
-0.0000356891682921
 46
-36.87700042616381
 79
     2
 49
8.060547042976009
 49
-2551.147945737283
 53
276.1416
 43
12509.19209160284
 44
1579.058915359361
 45
-0.0000356891682921
 46
-36.87700042616381
 79
     2
 49
8.060547042976009
 49
-2551.147945737283
 53
276.1416
 43
12520.14409819302
 44
1579.058915359361
 45
-0.0000356891682921
 46
-36.87700042616381
 79
     2
 49
8.060547042976009
 49
-2551.147945737283
 53
276.1416
 43
12531.09610478319
 44
1579.058915359361
 45
-0.0000356891682921
 46
-36.87700042616381
 79
     2
 49
8.060547042976009
 49
-2551.147945737283
 53
83.85800000000008
 43
12278.04374963432
 44
1571.044653172583
 45
10.9520277214346
 46
-0.0000684758235829
 79
     2
 49
8.060547042975898
 49
-2551.147945737254
 53
83.85800000000008
 43
12278.04374963432
 44
1534.16765290944
 45
10.9520277214346
 46
-0.0000684758235829
 79
     2
 49
8.060547042975898
 49
-2551.147945737254
 53
83.85800000000008
 43
12278.04374963432
 44
1497.290554307365
 45
10.9520277214346
 46
-0.0000684758235829
 79
     2
 49
8.060547042975898
 49
-2551.147945737254
 53
83.85800000000008
 43
12278.04374963432
 44
1460.413455705297
 45
10.9520277214346
 46
-0.0000684758235829
 79
     2
 49
8.060547042975898
 49
-2551.147945737254
 53
83.85800000000008
 43
12278.04374963432
 44
1423.536357103228
 45
10.9520277214346
 46
-0.0000684758235829
 79
     2
 49
8.060547042975898
 49
-2551.147945737254
 53
83.85800000000008
 43
12278.04374963432
 44
1386.659258501153
 45
10.9520277214346
 46
-0.0000684758235829
 79
     2
 49
8.060547042975898
 49
-2551.147945737254
 53
83.85800000000008
 43
12278.04374963432
 44
1349.782159899081
 45
10.9520277214346
 46
-0.0000684758235829
 79
     2
 49
8.060547042975898
 49
-2551.147945737254
 53
83.85800000000008
 43
12278.04374963432
 44
1312.905061297009
 45
10.9520277214346
 46
-0.0000684758235829
 79
     2
 49
8.060547042975898
 49
-2551.147945737254
 53
83.85800000000008
 43
12278.04374963432
 44
1276.027962694941
 45
10.9520277214346
 46
-0.0000684758235829
 79
     2
 49
8.060547042975898
 49
-2551.147945737254
 53
83.85800000000008
 43
12278.04374963432
 44
1239.149225110708
 45
10.9520277214346
 46
-0.0000684758235829
 79
     2
 49
8.060547042975898
 49
-2551.147945737254
 53
83.85800000000008
 43
12278.04374963432
 44
1202.272126508636
 45
10.9520277214346
 46
-0.0000684758235829
 79
     2
 49
8.060547042975898
 49
-2551.147945737254
 53
83.85800000000008
 43
12278.04374963432
 44
1165.395027906561
 45
10.9520277214346
 46
-0.0000684758235829
 79
     2
 49
8.060547042975898
 49
-2551.147945737254
 53
83.85800000000008
 43
12278.04374963432
 44
1128.517929304493
 45
10.9520277214346
 46
-0.0000684758235829
 79
     2
 49
8.060547042975898
 49
-2551.147945737254
 53
83.85800000000008
 43
12278.04374963432
 44
1091.640830702425
 45
10.9520277214346
 46
-0.0000684758235829
 79
     2
 49
8.060547042975898
 49
-2551.147945737254
 53
83.85800000000008
 43
12278.04374963432
 44
1054.763732100349
 45
10.9520277214346
 46
-0.0000684758235829
 79
     2
 49
8.060547042975898
 49
-2551.147945737254
 53
83.85800000000008
 43
12278.04374963432
 44
1017.886633498277
 45
10.9520277214346
 46
-0.0000684758235829
 79
     2
 49
8.060547042975898
 49
-2551.147945737254
 53
83.85800000000008
 43
12278.04374963432
 44
981.0095348962059
 45
10.9520277214346
 46
-0.0000684758235829
 79
     2
 49
8.060547042975898
 49
-2551.147945737254
 53
83.85800000000008
 43
12278.04374963432
 44
944.132436294134
 45
10.9520277214346
 46
-0.0000684758235829
 79
     2
 49
8.060547042975898
 49
-2551.147945737254
 53
83.85800000000008
 43
12278.04374963432
 44
907.2553376920659
 45
10.9520277214346
 46
-0.0000684758235829
 79
     2
 49
8.060547042975898
 49
-2551.147945737254
 53
83.85800000000008
 43
12278.04374963432
 44
870.3782390899942
 45
10.9520277214346
 46
-0.0000684758235829
 79
     2
 49
8.060547042975898
 49
-2551.147945737254
 53
83.85800000000008
 43
12278.04374963432
 44
833.5011404879187
 45
10.9520277214346
 46
-0.0000684758235829
 79
     2
 49
8.060547042975898
 49
-2551.147945737254
 53
83.85800000000008
 43
12278.04374963432
 44
796.6240418858506
 45
10.9520277214346
 46
-0.0000684758235829
 79
     2
 49
8.060547042975898
 49
-2551.147945737254
 53
83.85800000000008
 43
12278.04374963432
 44
759.7469432837788
 45
10.9520277214346
 46
-0.0000684758235829
 79
     2
 49
8.060547042975898
 49
-2551.147945737254
 53
83.85800000000008
 43
12278.04374963432
 44
722.869844681707
 45
10.9520277214346
 46
-0.0000684758235829
 79
     2
 49
8.060547042975898
 49
-2551.147945737254
 53
83.85800000000008
 43
12278.04374963432
 44
685.9927460796316
 45
10.9520277214346
 46
-0.0000684758235829
 79
     2
 49
8.060547042975898
 49
-2551.147945737254
 53
83.85800000000008
 43
12278.04374963432
 44
649.1156474775634
 45
10.9520277214346
 46
-0.0000684758235829
 79
     2
 49
8.060547042975898
 49
-2551.147945737254
 53
83.85800000000008
 43
12278.04374963432
 44
612.238548875488
 45
10.9520277214346
 46
-0.0000684758235829
 79
     2
 49
8.060547042975898
 49
-2551.147945737254
 53
83.85800000000008
 43
12278.04374963432
 44
575.3614502734198
 45
10.9520277214346
 46
-0.0000684758235829
 79
     2
 49
8.060547042975898
 49
-2551.147945737254
 53
83.85800000000008
 43
12278.04374963432
 44
538.4843516713444
 45
10.9520277214346
 46
-0.0000684758235829
 79
     2
 49
8.060547042975898
 49
-2551.147945737254
 53
83.85800000000008
 43
12278.04374963432
 44
501.6072530692763
 45
10.9520277214346
 46
-0.0000684758235829
 79
     2
 49
8.060547042975898
 49
-2551.147945737254
 53
83.85800000000008
 43
12278.04374963432
 44
464.7301544672082
 45
10.9520277214346
 46
-0.0000684758235829
 79
     2
 49
8.060547042975898
 49
-2551.147945737254
 53
83.85800000000008
 43
12278.04374963432
 44
427.8530558651327
 45
10.9520277214346
 46
-0.0000684758235829
 79
     2
 49
8.060547042975898
 49
-2551.147945737254
 53
83.85800000000008
 43
12278.04374963432
 44
390.975957263061
 45
10.9520277214346
 46
-0.0000684758235829
 79
     2
 49
8.060547042975898
 49
-2551.147945737254
 53
83.85800000000008
 43
12278.04374963432
 44
354.0988586609892
 45
10.9520277214346
 46
-0.0000684758235829
 79
     2
 49
8.060547042975898
 49
-2551.147945737254
 53
83.85800000000008
 43
12278.04374963432
 44
317.2217600589174
 45
10.9520277214346
 46
-0.0000684758235829
 79
     2
 49
8.060547042975898
 49
-2551.147945737254
 53
83.85800000000008
 43
12278.04374963432
 44
280.3446614568457
 45
10.9520277214346
 46
-0.0000684758235829
 79
     2
 49
8.060547042975898
 49
-2551.147945737254
 53
83.85800000000008
 43
12278.04374963432
 44
243.4675628547766
 45
10.9520277214346
 46
-0.0000684758235829
 79
     2
 49
8.060547042975898
 49
-2551.147945737254
 53
83.85800000000008
 43
12278.04374963432
 44
206.5904642527048
 45
10.9520277214346
 46
-0.0000684758235829
 79
     2
 49
8.060547042975898
 49
-2551.147945737254
 53
83.85800000000008
 43
12278.04374963432
 44
169.7133656506293
 45
10.9520277214346
 46
-0.0000684758235829
 79
     2
 49
8.060547042975898
 49
-2551.147945737254
 53
83.85800000000008
 43
12278.04374963432
 44
132.8362670485612
 45
10.9520277214346
 46
-0.0000684758235829
 79
     2
 49
8.060547042975898
 49
-2551.147945737254
 53
83.85800000000008
 43
12278.04374963432
 44
95.95916844648945
 45
10.9520277214346
 46
-0.0000684758235829
 79
     2
 49
8.060547042975898
 49
-2551.147945737254
 53
83.85800000000008
 43
12278.04374963432
 44
59.08206984441767
 45
10.9520277214346
 46
-0.0000684758235829
 79
     2
 49
8.060547042975898
 49
-2551.147945737254
 53
83.85800000000008
 43
12278.04374963432
 44
22.20497124234589
 45
10.9520277214346
 46
-0.0000684758235829
 79
     2
 49
8.060547042975898
 49
-2551.147945737254
 53
83.85800000000008
 43
12278.04374963432
 44
-14.67212735972589
 45
10.9520277214346
 46
-0.0000684758235829
 79
     2
 49
8.060547042975898
 49
-2551.147945737254
 53
83.85800000000008
 43
12278.04374963432
 44
-51.54922596179767
 45
10.9520277214346
 46
-0.0000684758235829
 79
     2
 49
8.060547042975898
 49
-2551.147945737254
 53
83.85800000000008
 43
12278.04374963432
 44
-88.42632456386946
 45
10.9520277214346
 46
-0.0000684758235829
 79
     2
 49
8.060547042975898
 49
-2551.147945737254
 53
83.85800000000008
 43
12278.04374963432
 44
-125.3034231659412
 45
10.9520277214346
 46
-0.0000684758235829
 79
     2
 49
8.060547042975898
 49
-2551.147945737254
 53
83.85800000000008
 43
12278.04374963432
 44
-162.1805217680166
 45
10.9520277214346
 46
-0.0000684758235829
 79
     2
 49
8.060547042975898
 49
-2551.147945737254
 53
83.85800000000008
 43
12278.04374963432
 44
-199.0576203700811
 45
10.9520277214346
 46
-0.0000684758235829
 79
     2
 49
8.060547042975898
 49
-2551.147945737254
 53
83.85800000000008
 43
12278.04374963432
 44
-235.934718972153
 45
10.9520277214346
 46
-0.0000684758235829
 79
     2
 49
8.060547042975898
 49
-2551.147945737254
 53
83.85800000000008
 43
12278.04374963432
 44
-272.8118175742284
 45
10.9520277214346
 46
-0.0000684758235829
 79
     2
 49
8.060547042975898
 49
-2551.147945737254
 53
83.85800000000008
 43
12278.04374963432
 44
-309.6889161763002
 45
10.9520277214346
 46
-0.0000684758235829
 79
     2
 49
8.060547042975898
 49
-2551.147945737254
 53
83.85800000000008
 43
12278.04374963432
 44
-346.5660147783719
 45
10.9520277214346
 46
-0.0000684758235829
 79
     2
 49
8.060547042975898
 49
-2551.147945737254
 53
83.85800000000008
 43
12278.04374963432
 44
-383.4431133804437
 45
10.9520277214346
 46
-0.0000684758235829
 79
     2
 49
8.060547042975898
 49
-2551.147945737254
 53
83.85800000000008
 43
12278.04374963432
 44
-420.3202119825118
 45
10.9520277214346
 46
-0.0000684758235829
 79
     2
 49
8.060547042975898
 49
-2551.147945737254
 53
83.85800000000008
 43
12278.04374963432
 44
-457.1973105845836
 45
10.9520277214346
 46
-0.0000684758235829
 79
     2
 49
8.060547042975898
 49
-2551.147945737254
 53
83.85800000000008
 43
12278.04374963432
 44
-494.074409186659
 45
10.9520277214346
 46
-0.0000684758235829
 79
     2
 49
8.060547042975898
 49
-2551.147945737254
 53
83.85800000000008
 43
12278.04374963432
 44
-530.9515077887271
 45
10.9520277214346
 46
-0.0000684758235829
 79
     2
 49
8.060547042975898
 49
-2551.147945737254
 53
83.85800000000008
 43
12278.04374963432
 44
-567.8286063907989
 45
10.9520277214346
 46
-0.0000684758235829
 79
     2
 49
8.060547042975898
 49
-2551.147945737254
 53
83.85800000000008
 43
12278.04374963432
 44
-604.7057049928707
 45
10.9520277214346
 46
-0.0000684758235829
 79
     2
 49
8.060547042975898
 49
-2551.147945737254
 53
83.85800000000008
 43
12278.04374963432
 44
-641.5828035949425
 45
10.9520277214346
 46
-0.0000684758235829
 79
     2
 49
8.060547042975898
 49
-2551.147945737254
 53
83.85800000000008
 43
12278.04374963432
 44
-678.4599021970143
 45
10.9520277214346
 46
-0.0000684758235829
 79
     2
 49
8.060547042975898
 49
-2551.147945737254
 53
83.85800000000008
 43
12278.04374963432
 44
-715.3370007990861
 45
10.9520277214346
 46
-0.0000684758235829
 79
     2
 49
8.060547042975898
 49
-2551.147945737254
 53
83.85800000000008
 43
12278.04374963432
 44
-752.2140994011579
 45
10.9520277214346
 46
-0.0000684758235829
 79
     2
 49
8.060547042975898
 49
-2551.147945737254
 53
83.85800000000008
 43
12278.04374963432
 44
-789.0911980032297
 45
10.9520277214346
 46
-0.0000684758235829
 79
     2
 49
8.060547042975898
 49
-2551.147945737254
 53
83.85800000000008
 43
12278.04374963432
 44
-825.968296605305
 45
10.9520277214346
 46
-0.0000684758235829
 79
     2
 49
8.060547042975898
 49
-2551.147945737254
 53
83.85800000000008
 43
12278.04374963432
 44
-862.8453952073732
 45
10.9520277214346
 46
-0.0000684758235829
 79
     2
 49
8.060547042975898
 49
-2551.147945737254
 53
83.85800000000008
 43
12278.04374963432
 44
-899.7224938094413
 45
10.9520277214346
 46
-0.0000684758235829
 79
     2
 49
8.060547042975898
 49
-2551.147945737254
 53
83.85800000000008
 43
12278.04374963432
 44
-936.5995924115168
 45
10.9520277214346
 46
-0.0000684758235829
 79
     2
 49
8.060547042975898
 49
-2551.147945737254
 53
83.25300000000003
 43
12273.9045657483
 44
1555.972835465524
 45
10.95204383447483
 46
0.0000798601498432
 79
     2
 49
7.399774995313283
 49
-4560.119085052519
 53
83.25300000000003
 43
12273.9045657483
 44
1519.095900761666
 45
10.95204383447483
 46
0.0000798601498432
 79
     2
 49
7.399774995313283
 49
-4560.119085052519
 53
83.25300000000003
 43
12273.9045657483
 44
1482.218802159594
 45
10.95204383447483
 46
0.0000798601498432
 79
     2
 49
7.399774995313283
 49
-4560.119085052519
 53
83.25300000000003
 43
12273.9045657483
 44
1445.341703557522
 45
10.95204383447483
 46
0.0000798601498432
 79
     2
 49
7.399774995313283
 49
-4560.119085052519
 53
83.25300000000003
 43
12273.9045657483
 44
1408.464604955454
 45
10.95204383447483
 46
0.0000798601498432
 79
     2
 49
7.399774995313283
 49
-4560.119085052519
 53
83.25300000000003
 43
12273.9045657483
 44
1371.587506353382
 45
10.95204383447483
 46
0.0000798601498432
 79
     2
 49
7.399774995313283
 49
-4560.119085052519
 53
83.25300000000003
 43
12273.9045657483
 44
1334.710407751307
 45
10.95204383447483
 46
0.0000798601498432
 79
     2
 49
7.399774995313283
 49
-4560.119085052519
 53
83.25300000000003
 43
12273.9045657483
 44
1297.833309149238
 45
10.95204383447483
 46
0.0000798601498432
 79
     2
 49
7.399774995313283
 49
-4560.119085052519
 53
83.25300000000003
 43
12273.9045657483
 44
1260.956210547163
 45
10.95204383447483
 46
0.0000798601498432
 79
     2
 49
7.399774995313283
 49
-4560.119085052519
 53
83.25300000000003
 43
12273.9045657483
 44
1224.080423130821
 45
10.95204383447483
 46
0.0000798601498432
 79
     2
 49
7.399774995313283
 49
-4560.119085052519
 53
83.25300000000003
 43
12273.9045657483
 44
1187.203324528753
 45
10.95204383447483
 46
0.0000798601498432
 79
     2
 49
7.399774995313283
 49
-4560.119085052519
 53
83.25300000000003
 43
12273.9045657483
 44
1150.326225926677
 45
10.95204383447483
 46
0.0000798601498432
 79
     2
 49
7.399774995313283
 49
-4560.119085052519
 53
83.25300000000003
 43
12273.9045657483
 44
1113.449127324609
 45
10.95204383447483
 46
0.0000798601498432
 79
     2
 49
7.399774995313283
 49
-4560.119085052519
 53
83.25300000000003
 43
12273.9045657483
 44
1076.572028722534
 45
10.95204383447483
 46
0.0000798601498432
 79
     2
 49
7.399774995313283
 49
-4560.119085052519
 53
83.25300000000003
 43
12273.9045657483
 44
1039.694930120458
 45
10.95204383447483
 46
0.0000798601498432
 79
     2
 49
7.399774995313283
 49
-4560.119085052519
 53
83.25300000000003
 43
12273.9045657483
 44
1002.81783151839
 45
10.95204383447483
 46
0.0000798601498432
 79
     2
 49
7.399774995313283
 49
-4560.119085052519
 53
83.25300000000003
 43
12273.9045657483
 44
965.9407329163222
 45
10.95204383447483
 46
0.0000798601498432
 79
     2
 49
7.399774995313283
 49
-4560.119085052519
 53
83.25300000000003
 43
12273.9045657483
 44
929.0636343142468
 45
10.95204383447483
 46
0.0000798601498432
 79
     2
 49
7.399774995313283
 49
-4560.119085052519
 53
83.25300000000003
 43
12273.9045657483
 44
892.1865357121751
 45
10.95204383447483
 46
0.0000798601498432
 79
     2
 49
7.399774995313283
 49
-4560.119085052519
 53
83.25300000000003
 43
12273.9045657483
 44
855.3094371101034
 45
10.95204383447483
 46
0.0000798601498432
 79
     2
 49
7.399774995313283
 49
-4560.119085052519
 53
83.25300000000003
 43
12273.9045657483
 44
818.4323385080352
 45
10.95204383447483
 46
0.0000798601498432
 79
     2
 49
7.399774995313283
 49
-4560.119085052519
 53
83.25300000000003
 43
12273.9045657483
 44
781.555239905967
 45
10.95204383447483
 46
0.0000798601498432
 79
     2
 49
7.399774995313283
 49
-4560.119085052519
 53
83.25300000000003
 43
12273.9045657483
 44
744.6781413038916
 45
10.95204383447483
 46
0.0000798601498432
 79
     2
 49
7.399774995313283
 49
-4560.119085052519
 53
83.25300000000003
 43
12273.9045657483
 44
707.8010427018162
 45
10.95204383447483
 46
0.0000798601498432
 79
     2
 49
7.399774995313283
 49
-4560.119085052519
 53
83.25300000000003
 43
12273.9045657483
 44
670.923944099748
 45
10.95204383447483
 46
0.0000798601498432
 79
     2
 49
7.399774995313283
 49
-4560.119085052519
 53
83.25300000000003
 43
12273.9045657483
 44
634.0468454976762
 45
10.95204383447483
 46
0.0000798601498432
 79
     2
 49
7.399774995313283
 49
-4560.119085052519
 53
83.25300000000003
 43
12273.9045657483
 44
597.1697468956044
 45
10.95204383447483
 46
0.0000798601498432
 79
     2
 49
7.399774995313283
 49
-4560.119085052519
 53
83.25300000000003
 43
12273.9045657483
 44
560.2926482935327
 45
10.95204383447483
 46
0.0000798601498432
 79
     2
 49
7.399774995313283
 49
-4560.119085052519
 53
83.25300000000003
 43
12273.9045657483
 44
523.4155496914609
 45
10.95204383447483
 46
0.0000798601498432
 79
     2
 49
7.399774995313283
 49
-4560.119085052519
 53
83.25300000000003
 43
12273.9045657483
 44
486.5384510893891
 45
10.95204383447483
 46
0.0000798601498432
 79
     2
 49
7.399774995313283
 49
-4560.119085052519
 53
83.25300000000003
 43
12273.9045657483
 44
449.6613524873173
 45
10.95204383447483
 46
0.0000798601498432
 79
     2
 49
7.399774995313283
 49
-4560.119085052519
 53
83.25300000000003
 43
12273.9045657483
 44
412.7842538852455
 45
10.95204383447483
 46
0.0000798601498432
 79
     2
 49
7.399774995313283
 49
-4560.119085052519
 53
83.25300000000003
 43
12273.9045657483
 44
375.9071552831738
 45
10.95204383447483
 46
0.0000798601498432
 79
     2
 49
7.399774995313283
 49
-4560.119085052519
 53
83.25300000000003
 43
12273.9045657483
 44
339.0300566811057
 45
10.95204383447483
 46
0.0000798601498432
 79
     2
 49
7.399774995313283
 49
-4560.119085052519
 53
83.25300000000003
 43
12273.9045657483
 44
302.1529580790339
 45
10.95204383447483
 46
0.0000798601498432
 79
     2
 49
7.399774995313283
 49
-4560.119085052519
 53
83.25300000000003
 43
12273.9045657483
 44
265.2758594769621
 45
10.95204383447483
 46
0.0000798601498432
 79
     2
 49
7.399774995313283
 49
-4560.119085052519
 53
83.25300000000003
 43
12273.9045657483
 44
228.3987608748857
 45
10.95204383447483
 46
0.0000798601498432
 79
     2
 49
7.399774995313283
 49
-4560.119085052519
 53
83.25300000000003
 43
12273.9045657483
 44
191.5216622728176
 45
10.95204383447483
 46
0.0000798601498432
 79
     2
 49
7.399774995313283
 49
-4560.119085052519
 53
83.25300000000003
 43
12273.9045657483
 44
154.6445636707422
 45
10.95204383447483
 46
0.0000798601498432
 79
     2
 49
7.399774995313283
 49
-4560.119085052519
 53
83.25300000000003
 43
12273.9045657483
 44
117.767465068674
 45
10.95204383447483
 46
0.0000798601498432
 79
     2
 49
7.399774995313283
 49
-4560.119085052519
 53
83.25300000000003
 43
12273.9045657483
 44
80.89036646660224
 45
10.95204383447483
 46
0.0000798601498432
 79
     2
 49
7.399774995313283
 49
-4560.119085052519
 53
83.25300000000003
 43
12273.9045657483
 44
44.01326786453046
 45
10.95204383447483
 46
0.0000798601498432
 79
     2
 49
7.399774995313283
 49
-4560.119085052519
 53
83.25300000000003
 43
12273.9045657483
 44
7.136169262458679
 45
10.95204383447483
 46
0.0000798601498432
 79
     2
 49
7.399774995313283
 49
-4560.119085052519
 53
83.25300000000003
 43
12273.9045657483
 44
-29.74092933961311
 45
10.95204383447483
 46
0.0000798601498432
 79
     2
 49
7.399774995313283
 49
-4560.119085052519
 53
83.25300000000003
 43
12273.9045657483
 44
-66.61802794168488
 45
10.95204383447483
 46
0.0000798601498432
 79
     2
 49
7.399774995313283
 49
-4560.119085052519
 53
83.25300000000003
 43
12273.9045657483
 44
-103.4951265437566
 45
10.95204383447483
 46
0.0000798601498432
 79
     2
 49
7.399774995313283
 49
-4560.119085052519
 53
83.25300000000003
 43
12273.9045657483
 44
-140.3722251458248
 45
10.95204383447483
 46
0.0000798601498432
 79
     2
 49
7.399774995313283
 49
-4560.119085052519
 53
83.25300000000003
 43
12273.9045657483
 44
-177.2493237479002
 45
10.95204383447483
 46
0.0000798601498432
 79
     2
 49
7.399774995313283
 49
-4560.119085052519
 53
83.25300000000003
 43
12273.9045657483
 44
-214.126422349972
 45
10.95204383447483
 46
0.0000798601498432
 79
     2
 49
7.399774995313283
 49
-4560.119085052519
 53
83.25300000000003
 43
12273.9045657483
 44
-251.0035209520438
 45
10.95204383447483
 46
0.0000798601498432
 79
     2
 49
7.399774995313283
 49
-4560.119085052519
 53
83.25300000000003
 43
12273.9045657483
 44
-287.8806195541156
 45
10.95204383447483
 46
0.0000798601498432
 79
     2
 49
7.399774995313283
 49
-4560.119085052519
 53
83.25300000000003
 43
12273.9045657483
 44
-324.7577181561837
 45
10.95204383447483
 46
0.0000798601498432
 79
     2
 49
7.399774995313283
 49
-4560.119085052519
 53
83.25300000000003
 43
12273.9045657483
 44
-361.6348167582555
 45
10.95204383447483
 46
0.0000798601498432
 79
     2
 49
7.399774995313283
 49
-4560.119085052519
 53
83.25300000000003
 43
12273.9045657483
 44
-398.5119153603273
 45
10.95204383447483
 46
0.0000798601498432
 79
     2
 49
7.399774995313283
 49
-4560.119085052519
 53
83.25300000000003
 43
12273.9045657483
 44
-435.3890139624026
 45
10.95204383447483
 46
0.0000798601498432
 79
     2
 49
7.399774995313283
 49
-4560.119085052519
 53
83.25300000000003
 43
12273.9045657483
 44
-472.2661125644708
 45
10.95204383447483
 46
0.0000798601498432
 79
     2
 49
7.399774995313283
 49
-4560.119085052519
 53
83.25300000000003
 43
12273.9045657483
 44
-509.1432111665462
 45
10.95204383447483
 46
0.0000798601498432
 79
     2
 49
7.399774995313283
 49
-4560.119085052519
 53
83.25300000000003
 43
12273.9045657483
 44
-546.0203097686144
 45
10.95204383447483
 46
0.0000798601498432
 79
     2
 49
7.399774995313283
 49
-4560.119085052519
 53
83.25300000000003
 43
12273.9045657483
 44
-582.8974083706862
 45
10.95204383447483
 46
0.0000798601498432
 79
     2
 49
7.399774995313283
 49
-4560.119085052519
 53
83.25300000000003
 43
12273.9045657483
 44
-619.774506972758
 45
10.95204383447483
 46
0.0000798601498432
 79
     2
 49
7.399774995313283
 49
-4560.119085052519
 53
83.25300000000003
 43
12273.9045657483
 44
-656.6516055748297
 45
10.95204383447483
 46
0.0000798601498432
 79
     2
 49
7.399774995313283
 49
-4560.119085052519
 53
83.25300000000003
 43
12273.9045657483
 44
-693.5287041769015
 45
10.95204383447483
 46
0.0000798601498432
 79
     2
 49
7.399774995313283
 49
-4560.119085052519
 53
83.25300000000003
 43
12273.9045657483
 44
-730.4058027789733
 45
10.95204383447483
 46
0.0000798601498432
 79
     2
 49
7.399774995313283
 49
-4560.119085052519
 53
83.25300000000003
 43
12273.9045657483
 44
-767.2829013810451
 45
10.95204383447483
 46
0.0000798601498432
 79
     2
 49
7.399774995313283
 49
-4560.119085052519
 53
83.25300000000003
 43
12273.9045657483
 44
-804.1599999831168
 45
10.95204383447483
 46
0.0000798601498432
 79
     2
 49
7.399774995313283
 49
-4560.119085052519
 53
83.25300000000003
 43
12273.9045657483
 44
-841.037098585185
 45
10.95204383447483
 46
0.0000798601498432
 79
     2
 49
7.399774995313283
 49
-4560.119085052519
 53
83.25300000000003
 43
12273.9045657483
 44
-877.9141971872604
 45
10.95204383447483
 46
0.0000798601498432
 79
     2
 49
7.399774995313283
 49
-4560.119085052519
 53
83.25300000000003
 43
12273.9045657483
 44
-914.7912957893323
 45
10.95204383447483
 46
0.0000798601498432
 79
     2
 49
7.399774995313283
 49
-4560.119085052519
 53
83.25300000000003
 43
12273.9045657483
 44
-951.668394391404
 45
10.95204383447483
 46
0.0000798601498432
 79
     2
 49
7.399774995313283
 49
-4560.119085052519
 53
83.25300000000003
 43
12273.9045657483
 44
-988.5454929934722
 45
10.95204383447483
 46
0.0000798601498432
 79
     2
 49
7.399774995313283
 49
-4560.119085052519
 53
83.25300000000003
 43
12273.9045657483
 44
-1025.422591595544
 45
10.95204383447483
 46
0.0000798601498432
 79
     2
 49
7.399774995313283
 49
-4560.119085052519
 53
83.25300000000003
 43
12273.9045657483
 44
-1062.299690197616
 45
10.95204383447483
 46
0.0000798601498432
 79
     2
 49
7.399774995313283
 49
-4560.119085052519
 53
83.25300000000003
 43
12273.9045657483
 44
-1099.176788799691
 45
10.95204383447483
 46
0.0000798601498432
 79
     2
 49
7.399774995313283
 49
-4560.119085052519
 53
83.25300000000003
 43
12273.9045657483
 44
-1136.053887401759
 45
10.95204383447483
 46
0.0000798601498432
 79
     2
 49
7.399774995313283
 49
-4560.119085052519
 53
83.25300000000003
 43
12273.9045657483
 44
-1172.930986003827
 45
10.95204383447483
 46
0.0000798601498432
 79
     2
 49
7.399774995313283
 49
-4560.119085052519
 53
83.25300000000003
 43
12273.9045657483
 44
-1209.808084605903
 45
10.95204383447483
 46
0.0000798601498432
 79
     2
 49
7.399774995313283
 49
-4560.119085052519
 53
83.25300000000003
 43
12273.9045657483
 44
-1246.685183207975
 45
10.95204383447483
 46
0.0000798601498432
 79
     2
 49
7.399774995313283
 49
-4560.119085052519
 53
83.25300000000003
 43
12273.9045657483
 44
-1283.562281810046
 45
10.95204383447483
 46
0.0000798601498432
 79
     2
 49
7.399774995313283
 49
-4560.119085052519
 53
83.25300000000003
 43
12273.9045657483
 44
-1320.439380412118
 45
10.95204383447483
 46
0.0000798601498432
 79
     2
 49
7.399774995313283
 49
-4560.119085052519
 53
83.25300000000003
 43
12273.9045657483
 44
-1357.31647901419
 45
10.95204383447483
 46
0.0000798601498432
 79
     2
 49
7.399774995313283
 49
-4560.119085052519
 53
83.25300000000003
 43
12273.9045657483
 44
-1394.193577616262
 45
10.95204383447483
 46
0.0000798601498432
 79
     2
 49
7.399774995313283
 49
-4560.119085052519
 53
83.25300000000003
 43
12273.9045657483
 44
-1431.070676218334
 45
10.95204383447483
 46
0.0000798601498432
 79
     2
 49
7.399774995313283
 49
-4560.119085052519
 53
83.25300000000003
 43
12273.9045657483
 44
-1467.947774820405
 45
10.95204383447483
 46
0.0000798601498432
 79
     2
 49
7.399774995313283
 49
-4560.119085052519
 53
83.25300000000003
 43
12273.9045657483
 44
-1504.824873422473
 45
10.95204383447483
 46
0.0000798601498432
 79
     2
 49
7.399774995313283
 49
-4560.119085052519
 53
83.25300000000003
 43
12273.9045657483
 44
-1541.701972024549
 45
10.95204383447483
 46
0.0000798601498432
 79
     2
 49
7.399774995313283
 49
-4560.119085052519
 53
83.25300000000003
 43
12273.9045657483
 44
-1578.57907062662
 45
10.95204383447483
 46
0.0000798601498432
 79
     2
 49
7.399774995313283
 49
-4560.119085052519
 53
83.25300000000003
 43
12273.9045657483
 44
-1615.456169228689
 45
10.95204383447483
 46
0.0000798601498432
 79
     2
 49
7.399774995313283
 49
-4560.119085052519
 53
83.25300000000003
 43
12273.9045657483
 44
-1652.33326783076
 45
10.95204383447483
 46
0.0000798601498432
 79
     2
 49
7.399774995313283
 49
-4560.119085052519
 53
83.25300000000003
 43
12273.9045657483
 44
-1689.210366432832
 45
10.95204383447483
 46
0.0000798601498432
 79
     2
 49
7.399774995313283
 49
-4560.119085052519
 53
83.25300000000003
 43
12273.9045657483
 44
-1726.090742999227
 45
10.95204383447483
 46
0.0000798601498432
 79
     2
 49
7.399774995313283
 49
-4560.119085052519
 53
83.25300000000003
 43
12273.9045657483
 44
-1762.967841601298
 45
10.95204383447483
 46
0.0000798601498432
 79
     2
 49
7.399774995313283
 49
-4560.119085052519
 53
83.25300000000003
 43
12273.9045657483
 44
-1799.84494020337
 45
10.95204383447483
 46
0.0000798601498432
 79
     2
 49
7.399774995313283
 49
-4560.119085052519
 53
83.25300000000003
 43
12273.9045657483
 44
-1836.722038805438
 45
10.95204383447483
 46
0.0000798601498432
 79
     2
 49
7.399774995313283
 49
-4560.119085052519
 53
83.25300000000003
 43
12273.9045657483
 44
-1873.59913740751
 45
10.95204383447483
 46
0.0000798601498432
 79
     2
 49
7.399774995313283
 49
-4560.119085052519
 53
83.25300000000003
 43
12273.9045657483
 44
-1910.476236009586
 45
10.95204383447483
 46
0.0000798601498432
 79
     2
 49
7.399774995313283
 49
-4560.119085052519
 53
83.25300000000003
 43
12273.9045657483
 44
-1947.353334611657
 45
10.95204383447483
 46
0.0000798601498432
 79
     2
 49
7.399774995313283
 49
-4560.119085052519
 53
83.25300000000003
 43
12273.9045657483
 44
-1984.230433213729
 45
10.95204383447483
 46
0.0000798601498432
 79
     2
 49
7.399774995313283
 49
-4560.119085052519
 53
83.25300000000003
 43
12273.9045657483
 44
-2021.107531815801
 45
10.95204383447483
 46
0.0000798601498432
 79
     2
 49
7.399774995313283
 49
-4560.119085052519
 53
83.25300000000003
 43
12273.9045657483
 44
-2057.984630417869
 45
10.95204383447483
 46
0.0000798601498432
 79
     2
 49
7.399774995313283
 49
-4560.119085052519
 53
83.25300000000003
 43
12273.9045657483
 44
-2094.861729019941
 45
10.95204383447483
 46
0.0000798601498432
 79
     2
 49
7.399774995313283
 49
-4560.119085052519
 53
83.25300000000003
 43
12273.9045657483
 44
-2131.738827622017
 45
10.95204383447483
 46
0.0000798601498432
 79
     2
 49
7.399774995313283
 49
-4560.119085052519
 53
83.25300000000003
 43
12273.9045657483
 44
-2168.615926224084
 45
10.95204383447483
 46
0.0000798601498432
 79
     2
 49
7.399774995313283
 49
-4560.119085052519
 53
83.25300000000003
 43
12273.9045657483
 44
-2205.493024826156
 45
10.95204383447483
 46
0.0000798601498432
 79
     2
 49
7.399774995313283
 49
-4560.119085052519
 53
83.25300000000003
 43
12273.9045657483
 44
-2242.370123428228
 45
10.95204383447483
 46
0.0000798601498432
 79
     2
 49
7.399774995313283
 49
-4560.119085052519
 53
83.25300000000003
 43
12273.9045657483
 44
-2279.2472220303
 45
10.95204383447483
 46
0.0000798601498432
 79
     2
 49
7.399774995313283
 49
-4560.119085052519
 53
83.25300000000003
 43
12273.9045657483
 44
-2316.124320632372
 45
10.95204383447483
 46
0.0000798601498432
 79
     2
 49
7.399774995313283
 49
-4560.119085052519
 53
83.25300000000003
 43
12273.9045657483
 44
-2353.001419234443
 45
10.95204383447483
 46
0.0000798601498432
 79
     2
 49
7.399774995313283
 49
-4560.119085052519
 53
83.25300000000003
 43
12273.9045657483
 44
-2389.878517836515
 45
10.95204383447483
 46
0.0000798601498432
 79
     2
 49
7.399774995313283
 49
-4560.119085052519
 53
83.25300000000003
 43
12273.9045657483
 44
-2426.755616438587
 45
10.95204383447483
 46
0.0000798601498432
 79
     2
 49
7.399774995313283
 49
-4560.119085052519
 53
83.25300000000003
 43
12273.9045657483
 44
-2463.632715040663
 45
10.95204383447483
 46
0.0000798601498432
 79
     2
 49
7.399774995313283
 49
-4560.119085052519
 53
83.25300000000003
 43
12273.9045657483
 44
-2500.509813642731
 45
10.95204383447483
 46
0.0000798601498432
 79
     2
 49
7.399774995313283
 49
-4560.119085052519
 53
83.25300000000003
 43
12273.9045657483
 44
-2537.386912244802
 45
10.95204383447483
 46
0.0000798601498432
 79
     2
 49
7.399774995313283
 49
-4560.119085052519
 53
83.25300000000003
 43
12273.9045657483
 44
-2574.264010846874
 45
10.95204383447483
 46
0.0000798601498432
 79
     2
 49
7.399774995313283
 49
-4560.119085052519
 53
83.25300000000003
 43
12273.9045657483
 44
-2611.141109448946
 45
10.95204383447483
 46
0.0000798601498432
 79
     2
 49
7.399774995313283
 49
-4560.119085052519
 53
83.25300000000003
 43
12273.9045657483
 44
-2648.018208051018
 45
10.95204383447483
 46
0.0000798601498432
 79
     2
 49
7.399774995313283
 49
-4560.119085052519
 53
83.25300000000003
 43
12273.9045657483
 44
-2684.89530665309
 45
10.95204383447483
 46
0.0000798601498432
 79
     2
 49
7.399774995313283
 49
-4560.119085052519
 53
83.25300000000003
 43
12273.9045657483
 44
-2721.772405255157
 45
10.95204383447483
 46
0.0000798601498432
 79
     2
 49
7.399774995313283
 49
-4560.119085052519
 53
83.25300000000003
 43
12273.9045657483
 44
-2758.64950385723
 45
10.95204383447483
 46
0.0000798601498432
 79
     2
 49
7.399774995313283
 49
-4560.119085052519
 53
83.25300000000003
 43
12273.9045657483
 44
-2795.526602459305
 45
10.95204383447483
 46
0.0000798601498432
 79
     2
 49
7.399774995313283
 49
-4560.119085052519
 53
83.25300000000003
 43
12273.9045657483
 44
-2832.403701061373
 45
10.95204383447483
 46
0.0000798601498432
 79
     2
 49
7.399774995313283
 49
-4560.119085052519
 53
83.25300000000003
 43
12273.9045657483
 44
-2869.280799663444
 45
10.95204383447483
 46
0.0000798601498432
 79
     2
 49
7.399774995313283
 49
-4560.119085052519
 53
83.25300000000003
 43
12273.9045657483
 44
-2906.157898265517
 45
10.95204383447483
 46
0.0000798601498432
 79
     2
 49
7.399774995313283
 49
-4560.119085052519
 53
83.25300000000003
 43
12273.9045657483
 44
-2943.034996867588
 45
10.95204383447483
 46
0.0000798601498432
 79
     2
 49
7.399774995313283
 49
-4560.119085052519
 53
74.89100000000004
 43
12272.30111672143
 44
1552.459349408935
 45
10.95202665113163
 46
-0.000003043705463
 79
     2
 49
3.63896653076602
 49
-416.5337124354707
 53
74.89100000000004
 43
12272.30111672143
 44
1515.582250806859
 45
10.95202665113163
 46
-0.000003043705463
 79
     2
 49
3.63896653076602
 49
-416.5337124354707
 53
74.89100000000004
 43
12272.30111672143
 44
1478.705152204791
 45
10.95202665113163
 46
-0.000003043705463
 79
     2
 49
3.63896653076602
 49
-416.5337124354707
 53
74.89100000000004
 43
12272.30111672143
 44
1441.828053602716
 45
10.95202665113163
 46
-0.000003043705463
 79
     2
 49
3.63896653076602
 49
-416.5337124354707
 53
74.89100000000004
 43
12272.30111672143
 44
1404.950955000644
 45
10.95202665113163
 46
-0.000003043705463
 79
     2
 49
3.63896653076602
 49
-416.5337124354707
 53
74.89100000000004
 43
12272.30111672143
 44
1368.073856398572
 45
10.95202665113163
 46
-0.000003043705463
 79
     2
 49
3.63896653076602
 49
-416.5337124354707
 53
74.89100000000004
 43
12272.30111672143
 44
1331.196757796504
 45
10.95202665113163
 46
-0.000003043705463
 79
     2
 49
3.63896653076602
 49
-416.5337124354707
 53
74.89100000000004
 43
12272.30111672143
 44
1294.319659194429
 45
10.95202665113163
 46
-0.000003043705463
 79
     2
 49
3.63896653076602
 49
-416.5337124354707
 53
74.89100000000004
 43
12272.30111672143
 44
1257.443543981659
 45
10.95202665113163
 46
-0.000003043705463
 79
     2
 49
3.63896653076602
 49
-416.5337124354707
 53
74.89100000000004
 43
12272.30111672143
 44
1220.566445379583
 45
10.95202665113163
 46
-0.000003043705463
 79
     2
 49
3.63896653076602
 49
-416.5337124354707
 53
74.89100000000004
 43
12272.30111672143
 44
1183.689346777511
 45
10.95202665113163
 46
-0.000003043705463
 79
     2
 49
3.63896653076602
 49
-416.5337124354707
 53
67.06200000000002
 43
12274.7756192071
 44
1563.321179200648
 45
10.95204222691618
 46
0.0000810236171289
 79
     2
 49
8.386475035331908
 49
-1593.356600854788
 53
67.06200000000002
 43
12274.7756192071
 44
1526.444113378224
 45
10.95204222691618
 46
0.0000810236171289
 79
     2
 49
8.386475035331908
 49
-1593.356600854788
 53
67.06200000000002
 43
12274.7756192071
 44
1489.567014776152
 45
10.95204222691618
 46
0.0000810236171289
 79
     2
 49
8.386475035331908
 49
-1593.356600854788
 53
67.06200000000002
 43
12274.7756192071
 44
1452.68991617408
 45
10.95204222691618
 46
0.0000810236171289
 79
     2
 49
8.386475035331908
 49
-1593.356600854788
 53
67.06200000000002
 43
12274.7756192071
 44
1415.812817572005
 45
10.95204222691618
 46
0.0000810236171289
 79
     2
 49
8.386475035331908
 49
-1593.356600854788
 53
67.06200000000002
 43
12274.7756192071
 44
1378.935718969937
 45
10.95204222691618
 46
0.0000810236171289
 79
     2
 49
8.386475035331908
 49
-1593.356600854788
 53
67.06200000000002
 43
12274.7756192071
 44
1342.058620367865
 45
10.95204222691618
 46
0.0000810236171289
 79
     2
 49
8.386475035331908
 49
-1593.356600854788
 53
67.06200000000002
 43
12274.7756192071
 44
1305.181521765793
 45
10.95204222691618
 46
0.0000810236171289
 79
     2
 49
8.386475035331908
 49
-1593.356600854788
 53
67.06200000000002
 43
12274.7756192071
 44
1268.304423163725
 45
10.95204222691618
 46
0.0000810236171289
 79
     2
 49
8.386475035331908
 49
-1593.356600854788
 53
67.06200000000002
 43
12274.7756192071
 44
1231.426341172351
 45
10.95204222691618
 46
0.0000810236171289
 79
     2
 49
8.386475035331908
 49
-1593.356600854788
 53
67.06200000000002
 43
12274.7756192071
 44
1194.549242570283
 45
10.95204222691618
 46
0.0000810236171289
 79
     2
 49
8.386475035331908
 49
-1593.356600854788
 53
67.06200000000002
 43
12274.7756192071
 44
1157.672143968208
 45
10.95204222691618
 46
0.0000810236171289
 79
     2
 49
8.386475035331908
 49
-1593.356600854788
 53
67.06200000000002
 43
12274.7756192071
 44
1120.795045366139
 45
10.95204222691618
 46
0.0000810236171289
 79
     2
 49
8.386475035331908
 49
-1593.356600854788
 53
67.06200000000002
 43
12274.7756192071
 44
1083.917946764071
 45
10.95204222691618
 46
0.0000810236171289
 79
     2
 49
8.386475035331908
 49
-1593.356600854788
 53
67.06200000000002
 43
12274.7756192071
 44
1047.040848161996
 45
10.95204222691618
 46
0.0000810236171289
 79
     2
 49
8.386475035331908
 49
-1593.356600854788
 53
67.06200000000002
 43
12274.7756192071
 44
1010.163749559928
 45
10.95204222691618
 46
0.0000810236171289
 79
     2
 49
8.386475035331908
 49
-1593.356600854788
 53
67.06200000000002
 43
12274.7756192071
 44
973.2866509578526
 45
10.95204222691618
 46
0.0000810236171289
 79
     2
 49
8.386475035331908
 49
-1593.356600854788
 53
67.06200000000002
 43
12274.7756192071
 44
936.4095523557772
 45
10.95204222691618
 46
0.0000810236171289
 79
     2
 49
8.386475035331908
 49
-1593.356600854788
 53
67.06200000000002
 43
12274.7756192071
 44
899.532453753709
 45
10.95204222691618
 46
0.0000810236171289
 79
     2
 49
8.386475035331908
 49
-1593.356600854788
 53
67.06200000000002
 43
12274.7756192071
 44
862.6553551516408
 45
10.95204222691618
 46
0.0000810236171289
 79
     2
 49
8.386475035331908
 49
-1593.356600854788
 53
67.06200000000002
 43
12274.7756192071
 44
825.7782565495654
 45
10.95204222691618
 46
0.0000810236171289
 79
     2
 49
8.386475035331908
 49
-1593.356600854788
 53
67.06200000000002
 43
12274.7756192071
 44
788.9011579474936
 45
10.95204222691618
 46
0.0000810236171289
 79
     2
 49
8.386475035331908
 49
-1593.356600854788
 53
67.06200000000002
 43
12274.7756192071
 44
752.0240593454218
 45
10.95204222691618
 46
0.0000810236171289
 79
     2
 49
8.386475035331908
 49
-1593.356600854788
 53
67.06200000000002
 43
12274.7756192071
 44
715.14696074335
 45
10.95204222691618
 46
0.0000810236171289
 79
     2
 49
8.386475035331908
 49
-1593.356600854788
 53
67.06200000000002
 43
12274.7756192071
 44
678.2698621412819
 45
10.95204222691618
 46
0.0000810236171289
 79
     2
 49
8.386475035331908
 49
-1593.356600854788
 53
67.06200000000002
 43
12274.7756192071
 44
641.3927635392101
 45
10.95204222691618
 46
0.0000810236171289
 79
     2
 49
8.386475035331908
 49
-1593.356600854788
 53
67.06200000000002
 43
12274.7756192071
 44
604.5156649371347
 45
10.95204222691618
 46
0.0000810236171289
 79
     2
 49
8.386475035331908
 49
-1593.356600854788
 53
67.06200000000002
 43
12274.7756192071
 44
567.6385663350665
 45
10.95204222691618
 46
0.0000810236171289
 79
     2
 49
8.386475035331908
 49
-1593.356600854788
 53
67.06200000000002
 43
12274.7756192071
 44
530.7614677329947
 45
10.95204222691618
 46
0.0000810236171289
 79
     2
 49
8.386475035331908
 49
-1593.356600854788
 53
67.06200000000002
 43
12274.7756192071
 44
493.8843691309229
 45
10.95204222691618
 46
0.0000810236171289
 79
     2
 49
8.386475035331908
 49
-1593.356600854788
 53
67.06200000000002
 43
12274.7756192071
 44
457.0072705288476
 45
10.95204222691618
 46
0.0000810236171289
 79
     2
 49
8.386475035331908
 49
-1593.356600854788
 53
67.06200000000002
 43
12274.7756192071
 44
420.1301719267794
 45
10.95204222691618
 46
0.0000810236171289
 79
     2
 49
8.386475035331908
 49
-1593.356600854788
 53
67.06200000000002
 43
12274.7756192071
 44
383.2530733247077
 45
10.95204222691618
 46
0.0000810236171289
 79
     2
 49
8.386475035331908
 49
-1593.356600854788
 53
67.06200000000002
 43
12274.7756192071
 44
346.3759747226359
 45
10.95204222691618
 46
0.0000810236171289
 79
     2
 49
8.386475035331908
 49
-1593.356600854788
 53
67.06200000000002
 43
12274.7756192071
 44
309.4988761205641
 45
10.95204222691618
 46
0.0000810236171289
 79
     2
 49
8.386475035331908
 49
-1593.356600854788
 53
67.06200000000002
 43
12274.7756192071
 44
272.6217775184923
 45
10.95204222691618
 46
0.0000810236171289
 79
     2
 49
8.386475035331908
 49
-1593.356600854788
 53
67.06200000000002
 43
12274.7756192071
 44
235.7446789164196
 45
10.95204222691618
 46
0.0000810236171289
 79
     2
 49
8.386475035331908
 49
-1593.356600854788
 53
67.06200000000002
 43
12274.7756192071
 44
198.8675803143514
 45
10.95204222691618
 46
0.0000810236171289
 79
     2
 49
8.386475035331908
 49
-1593.356600854788
 53
67.06200000000002
 43
12274.7756192071
 44
161.9904817122797
 45
10.95204222691618
 46
0.0000810236171289
 79
     2
 49
8.386475035331908
 49
-1593.356600854788
 53
67.06200000000002
 43
12274.7756192071
 44
125.1133831102043
 45
10.95204222691618
 46
0.0000810236171289
 79
     2
 49
8.386475035331908
 49
-1593.356600854788
 53
52.43499999999998
 43
12268.24733527882
 44
1579.058915359361
 45
10.95203172552474
 46
-0.000054871588512
 79
     2
 49
4.503300162712174
 49
-1809.889024393906
 53
52.43499999999998
 43
12268.24733527882
 44
1542.181947875862
 45
10.95203172552474
 46
-0.000054871588512
 79
     2
 49
4.503300162712174
 49
-1809.889024393906
 53
52.43499999999998
 43
12268.24733527882
 44
1505.304849273787
 45
10.95203172552474
 46
-0.000054871588512
 79
     2
 49
4.503300162712174
 49
-1809.889024393906
 53
52.43499999999998
 43
12268.24733527882
 44
1468.427750671712
 45
10.95203172552474
 46
-0.000054871588512
 79
     2
 49
4.503300162712174
 49
-1809.889024393906
 53
52.43499999999998
 43
12268.24733527882
 44
1431.550652069643
 45
10.95203172552474
 46
-0.000054871588512
 79
     2
 49
4.503300162712174
 49
-1809.889024393906
 53
52.43499999999998
 43
12268.24733527882
 44
1394.673553467575
 45
10.95203172552474
 46
-0.000054871588512
 79
     2
 49
4.503300162712174
 49
-1809.889024393906
 53
52.43499999999998
 43
12268.24733527882
 44
1357.796454865503
 45
10.95203172552474
 46
-0.000054871588512
 79
     2
 49
4.503300162712174
 49
-1809.889024393906
 53
52.43499999999998
 43
12268.24733527882
 44
1320.919356263432
 45
10.95203172552474
 46
-0.000054871588512
 79
     2
 49
4.503300162712174
 49
-1809.889024393906
 53
52.43499999999998
 43
12268.24733527882
 44
1284.042257661356
 45
10.95203172552474
 46
-0.000054871588512
 79
     2
 49
4.503300162712174
 49
-1809.889024393906
 53
52.43499999999998
 43
12268.24733527882
 44
1247.163847873555
 45
10.95203172552474
 46
-0.000054871588512
 79
     2
 49
4.503300162712174
 49
-1809.889024393906
 53
52.43499999999998
 43
12268.24733527882
 44
1210.286749271487
 45
10.95203172552474
 46
-0.000054871588512
 79
     2
 49
4.503300162712174
 49
-1809.889024393906
 53
52.43499999999998
 43
12268.24733527882
 44
1173.409650669418
 45
10.95203172552474
 46
-0.000054871588512
 79
     2
 49
4.503300162712174
 49
-1809.889024393906
 53
52.43499999999998
 43
12268.24733527882
 44
1136.532552067343
 45
10.95203172552474
 46
-0.000054871588512
 79
     2
 49
4.503300162712174
 49
-1809.889024393906
 53
52.43499999999998
 43
12268.24733527882
 44
1099.655453465268
 45
10.95203172552474
 46
-0.000054871588512
 79
     2
 49
4.503300162712174
 49
-1809.889024393906
 53
52.43499999999998
 43
12268.24733527882
 44
1062.778354863199
 45
10.95203172552474
 46
-0.000054871588512
 79
     2
 49
4.503300162712174
 49
-1809.889024393906
 53
52.43499999999998
 43
12268.24733527882
 44
1025.901256261131
 45
10.95203172552474
 46
-0.000054871588512
 79
     2
 49
4.503300162712174
 49
-1809.889024393906
 53
52.43499999999998
 43
12268.24733527882
 44
989.0241576590561
 45
10.95203172552474
 46
-0.000054871588512
 79
     2
 49
4.503300162712174
 49
-1809.889024393906
 53
52.43499999999998
 43
12268.24733527882
 44
952.1470590569879
 45
10.95203172552474
 46
-0.000054871588512
 79
     2
 49
4.503300162712174
 49
-1809.889024393906
 53
52.43499999999998
 43
12268.24733527882
 44
915.2699604549125
 45
10.95203172552474
 46
-0.000054871588512
 79
     2
 49
4.503300162712174
 49
-1809.889024393906
 53
52.43499999999998
 43
12268.24733527882
 44
878.3928618528443
 45
10.95203172552474
 46
-0.000054871588512
 79
     2
 49
4.503300162712174
 49
-1809.889024393906
 53
52.43499999999998
 43
12268.24733527882
 44
841.5157632507762
 45
10.95203172552474
 46
-0.000054871588512
 79
     2
 49
4.503300162712174
 49
-1809.889024393906
 53
52.43499999999998
 43
12268.24733527882
 44
804.6386646487007
 45
10.95203172552474
 46
-0.000054871588512
 79
     2
 49
4.503300162712174
 49
-1809.889024393906
 53
52.43499999999998
 43
12268.24733527882
 44
767.7615660466253
 45
10.95203172552474
 46
-0.000054871588512
 79
     2
 49
4.503300162712174
 49
-1809.889024393906
 53
52.43499999999998
 43
12268.24733527882
 44
730.8844674445572
 45
10.95203172552474
 46
-0.000054871588512
 79
     2
 49
4.503300162712174
 49
-1809.889024393906
 53
52.43499999999998
 43
12268.24733527882
 44
694.0073688424818
 45
10.95203172552474
 46
-0.000054871588512
 79
     2
 49
4.503300162712174
 49
-1809.889024393906
 53
52.43499999999998
 43
12268.24733527882
 44
657.1302702404136
 45
10.95203172552474
 46
-0.000054871588512
 79
     2
 49
4.503300162712174
 49
-1809.889024393906
 53
52.43499999999998
 43
12268.24733527882
 44
620.2531716383382
 45
10.95203172552474
 46
-0.000054871588512
 79
     2
 49
4.503300162712174
 49
-1809.889024393906
 53
52.43499999999998
 43
12268.24733527882
 44
583.37607303627
 45
10.95203172552474
 46
-0.000054871588512
 79
     2
 49
4.503300162712174
 49
-1809.889024393906
 53
52.43499999999998
 43
12268.24733527882
 44
546.4989744341983
 45
10.95203172552474
 46
-0.000054871588512
 79
     2
 49
4.503300162712174
 49
-1809.889024393906
 53
52.43499999999998
 43
12268.24733527882
 44
509.6218758321265
 45
10.95203172552474
 46
-0.000054871588512
 79
     2
 49
4.503300162712174
 49
-1809.889024393906
 53
52.43499999999998
 43
12268.24733527882
 44
472.7447772300547
 45
10.95203172552474
 46
-0.000054871588512
 79
     2
 49
4.503300162712174
 49
-1809.889024393906
 53
52.43499999999998
 43
12268.24733527882
 44
435.8676786279829
 45
10.95203172552474
 46
-0.000054871588512
 79
     2
 49
4.503300162712174
 49
-1809.889024393906
 53
52.43499999999998
 43
12268.24733527882
 44
398.9905800259148
 45
10.95203172552474
 46
-0.000054871588512
 79
     2
 49
4.503300162712174
 49
-1809.889024393906
 53
52.43499999999998
 43
12268.24733527882
 44
362.1134814238394
 45
10.95203172552474
 46
-0.000054871588512
 79
     2
 49
4.503300162712174
 49
-1809.889024393906
 53
52.43499999999998
 43
12268.24733527882
 44
325.2363828217712
 45
10.95203172552474
 46
-0.000054871588512
 79
     2
 49
4.503300162712174
 49
-1809.889024393906
 53
52.43499999999998
 43
12268.24733527882
 44
288.3592842196959
 45
10.95203172552474
 46
-0.000054871588512
 79
     2
 49
4.503300162712174
 49
-1809.889024393906
 53
52.43499999999998
 43
12268.24733527882
 44
251.482185617624
 45
10.95203172552474
 46
-0.000054871588512
 79
     2
 49
4.503300162712174
 49
-1809.889024393906
 53
52.43499999999998
 43
12268.24733527882
 44
214.6050870155514
 45
10.95203172552474
 46
-0.000054871588512
 79
     2
 49
4.503300162712174
 49
-1809.889024393906
 53
52.43499999999998
 43
12268.24733527882
 44
177.7279884134832
 45
10.95203172552474
 46
-0.000054871588512
 79
     2
 49
4.503300162712174
 49
-1809.889024393906
 53
25.04599999999999
 43
12268.1007660212
 44
1550.49683217044
 45
10.95203652759968
 46
0.0000881814618674
 79
     2
 49
4.636287175181988
 49
-2957.102061108971
 53
25.04599999999999
 43
12268.1007660212
 44
1513.619733568368
 45
10.95203652759968
 46
0.0000881814618674
 79
     2
 49
4.636287175181988
 49
-2957.102061108971
 53
25.04599999999999
 43
12268.1007660212
 44
1476.742634966293
 45
10.95203652759968
 46
0.0000881814618674
 79
     2
 49
4.636287175181988
 49
-2957.102061108971
 53
25.04599999999999
 43
12268.1007660212
 44
1439.865536364225
 45
10.95203652759968
 46
0.0000881814618674
 79
     2
 49
4.636287175181988
 49
-2957.102061108971
 53
25.04599999999999
 43
12268.1007660212
 44
1402.988437762149
 45
10.95203652759968
 46
0.0000881814618674
 79
     2
 49
4.636287175181988
 49
-2957.102061108971
 53
25.04599999999999
 43
12268.1007660212
 44
1366.111339160081
 45
10.95203652759968
 46
0.0000881814618674
 79
     2
 49
4.636287175181988
 49
-2957.102061108971
 53
25.04599999999999
 43
12268.1007660212
 44
1329.234240558009
 45
10.95203652759968
 46
0.0000881814618674
 79
     2
 49
4.636287175181988
 49
-2957.102061108971
 53
25.04599999999999
 43
12268.1007660212
 44
1292.357141955937
 45
10.95203652759968
 46
0.0000881814618674
 79
     2
 49
4.636287175181988
 49
-2957.102061108971
 53
25.04599999999999
 43
12268.1007660212
 44
1255.480043353862
 45
10.95203652759968
 46
0.0000881814618674
 79
     2
 49
4.636287175181988
 49
-2957.102061108971
 53
25.04599999999999
 43
12268.1007660212
 44
1218.602944751794
 45
10.95203652759968
 46
0.0000881814618674
 79
     2
 49
4.636287175181988
 49
-2957.102061108971
 53
25.04599999999999
 43
12268.1007660212
 44
1181.725846149718
 45
10.95203652759968
 46
0.0000881814618674
 79
     2
 49
4.636287175181988
 49
-2957.102061108971
 53
25.04599999999999
 43
12268.1007660212
 44
1144.84874754765
 45
10.95203652759968
 46
0.0000881814618674
 79
     2
 49
4.636287175181988
 49
-2957.102061108971
 53
25.04599999999999
 43
12268.1007660212
 44
1107.971648945582
 45
10.95203652759968
 46
0.0000881814618674
 79
     2
 49
4.636287175181988
 49
-2957.102061108971
 53
25.04599999999999
 43
12268.1007660212
 44
1071.094550343507
 45
10.95203652759968
 46
0.0000881814618674
 79
     2
 49
4.636287175181988
 49
-2957.102061108971
 53
25.04599999999999
 43
12268.1007660212
 44
1034.217451741438
 45
10.95203652759968
 46
0.0000881814618674
 79
     2
 49
4.636287175181988
 49
-2957.102061108971
 53
25.04599999999999
 43
12268.1007660212
 44
997.3403531393632
 45
10.95203652759968
 46
0.0000881814618674
 79
     2
 49
4.636287175181988
 49
-2957.102061108971
 53
25.04599999999999
 43
12268.1007660212
 44
960.4632545372878
 45
10.95203652759968
 46
0.0000881814618674
 79
     2
 49
4.636287175181988
 49
-2957.102061108971
 53
25.04599999999999
 43
12268.1007660212
 44
923.5861559352198
 45
10.95203652759968
 46
0.0000881814618674
 79
     2
 49
4.636287175181988
 49
-2957.102061108971
 53
25.04599999999999
 43
12268.1007660212
 44
886.7090573331516
 45
10.95203652759968
 46
0.0000881814618674
 79
     2
 49
4.636287175181988
 49
-2957.102061108971
 53
25.04599999999999
 43
12268.1007660212
 44
849.8319587310762
 45
10.95203652759968
 46
0.0000881814618674
 79
     2
 49
4.636287175181988
 49
-2957.102061108971
 53
25.04599999999999
 43
12268.1007660212
 44
812.954860129008
 45
10.95203652759968
 46
0.0000881814618674
 79
     2
 49
4.636287175181988
 49
-2957.102061108971
 53
25.04599999999999
 43
12268.1007660212
 44
776.0777615269326
 45
10.95203652759968
 46
0.0000881814618674
 79
     2
 49
4.636287175181988
 49
-2957.102061108971
 53
25.04599999999999
 43
12268.1007660212
 44
739.2006629248608
 45
10.95203652759968
 46
0.0000881814618674
 79
     2
 49
4.636287175181988
 49
-2957.102061108971
 53
25.04599999999999
 43
12268.1007660212
 44
702.3235643227926
 45
10.95203652759968
 46
0.0000881814618674
 79
     2
 49
4.636287175181988
 49
-2957.102061108971
 53
25.04599999999999
 43
12268.1007660212
 44
665.4464657207208
 45
10.95203652759968
 46
0.0000881814618674
 79
     2
 49
4.636287175181988
 49
-2957.102061108971
 53
25.04599999999999
 43
12268.1007660212
 44
628.5693671186455
 45
10.95203652759968
 46
0.0000881814618674
 79
     2
 49
4.636287175181988
 49
-2957.102061108971
 53
25.04599999999999
 43
12268.1007660212
 44
591.6922685165773
 45
10.95203652759968
 46
0.0000881814618674
 79
     2
 49
4.636287175181988
 49
-2957.102061108971
 53
25.04599999999999
 43
12268.1007660212
 44
554.8151699145055
 45
10.95203652759968
 46
0.0000881814618674
 79
     2
 49
4.636287175181988
 49
-2957.102061108971
 53
25.04599999999999
 43
12268.1007660212
 44
517.9380713124337
 45
10.95203652759968
 46
0.0000881814618674
 79
     2
 49
4.636287175181988
 49
-2957.102061108971
 53
25.04599999999999
 43
12268.1007660212
 44
481.0609727103583
 45
10.95203652759968
 46
0.0000881814618674
 79
     2
 49
4.636287175181988
 49
-2957.102061108971
 53
25.04599999999999
 43
12268.1007660212
 44
444.1838741082902
 45
10.95203652759968
 46
0.0000881814618674
 79
     2
 49
4.636287175181988
 49
-2957.102061108971
 53
25.04599999999999
 43
12268.1007660212
 44
407.3067755062184
 45
10.95203652759968
 46
0.0000881814618674
 79
     2
 49
4.636287175181988
 49
-2957.102061108971
 53
25.04599999999999
 43
12268.1007660212
 44
370.4296769041466
 45
10.95203652759968
 46
0.0000881814618674
 79
     2
 49
4.636287175181988
 49
-2957.102061108971
 53
25.04599999999999
 43
12268.1007660212
 44
333.5525783020748
 45
10.95203652759968
 46
0.0000881814618674
 79
     2
 49
4.636287175181988
 49
-2957.102061108971
 53
14.07599999999998
 43
12270.99284182567
 44
1582.628487385467
 45
10.95202660951167
 46
-0.0000805056871684
 79
     2
 49
2.663936043727242
 49
-1058.697838380728
 53
14.07599999999998
 43
12270.99284182567
 44
1545.751323224107
 45
10.95202660951167
 46
-0.0000805056871684
 79
     2
 49
2.663936043727242
 49
-1058.697838380728
 53
14.07599999999998
 43
12270.99284182567
 44
1508.874224622035
 45
10.95202660951167
 46
-0.0000805056871684
 79
     2
 49
2.663936043727242
 49
-1058.697838380728
 53
14.07599999999998
 43
12270.99284182567
 44
1471.997126019967
 45
10.95202660951167
 46
-0.0000805056871684
 79
     2
 49
2.663936043727242
 49
-1058.697838380728
 53
14.07599999999998
 43
12270.99284182567
 44
1435.120027417892
 45
10.95202660951167
 46
-0.0000805056871684
 79
     2
 49
2.663936043727242
 49
-1058.697838380728
 53
14.07599999999998
 43
12270.99284182567
 44
1398.242928815816
 45
10.95202660951167
 46
-0.0000805056871684
 79
     2
 49
2.663936043727242
 49
-1058.697838380728
 53
14.07599999999998
 43
12270.99284182567
 44
1361.365830213748
 45
10.95202660951167
 46
-0.0000805056871684
 79
     2
 49
2.663936043727242
 49
-1058.697838380728
 98
        1
 10
1792.835296040335
 20
419.7638689827581
  0
HATCH
  5
7696
330
67
100
AcDbEntity
  8
F_01 sichtbar
370
    13
100
AcDbHatch
 10
0.0
 20
0.0
 30
0.0
210
0.0
220
0.0
230
1.0
  2
CROSS
 70
     0
 71
     0
 91
        2
 92
        1
 93
        5
 72
     1
 10
379.0316661550805
 20
314.0457543174016
 11
279.7145853383463
 21
314.0457543174016
 72
     1
 10
279.7145853383463
 20
314.0457543174016
 11
279.7145853383463
 21
302.0457543173998
 72
     1
 10
279.7145853383463
 20
302.0457543173979
 11
341.031647847949
 21
302.0457555788525
 72
     1
 10
341.031647847949
 20
302.0457555788525
 11
379.0316661550805
 21
302.0457555788525
 72
     1
 10
379.0316661550805
 20
302.0457555788525
 11
379.0316661550805
 21
314.0457543173998
 97
        0
 92
        1
 93
        4
 72
     1
 10
279.7145853383463
 20
314.0457543174016
 11
217.0880135912575
 21
314.0457543174016
 72
     1
 10
217.0880135912575
 20
314.0457543174016
 11
217.0880135912575
 21
302.0457543173998
 72
     1
 10
217.0880135912575
 20
302.0457543173979
 11
279.7145853383463
 21
302.0457543173979
 72
     1
 10
279.7145853383463
 20
302.0457543173979
 11
279.7145853383463
 21
314.0457543173998
 97
        0
 75
     0
 76
     1
 52
0.0
 41
1.0
 77
     0
 78
     2
 53
0.0
 43
-33460.44599621795
 44
-14097.00263975985
 45
6.349999999999999
 46
6.349999999999999
 79
     2
 49
3.174999999999999
 49
-9.525
 53
90.0
 43
-33458.85849621796
 44
-14098.59013975985
 45
-6.349999999999999
 46
6.349999999999999
 79
     2
 49
3.174999999999999
 49
-9.525
 98
        2
 10
293.6637113773668
 20
304.0647569932007
 10
265.7944238940963
 20
303.4388069910347
1001
ACAD
1010
0.0
1020
0.0
1030
0.0
  0
POLYLINE
  5
7697
330
67
100
AcDbEntity
  8
F_01 sichtbar
370
    13
100
AcDb2dPolyline
 66
     1
 10
0.0
 20
0.0
 30
0.0
  0
VERTEX
  5
7698
330
7697
100
AcDbEntity
  8
F_01 sichtbar
370
    13
100
AcDbVertex
100
AcDb2dVertex
 10
217.0880135912575
 20
314.0457543174016
 30
0.0
  0
VERTEX
  5
7699
330
7697
100
AcDbEntity
  8
F_01 sichtbar
370
    13
100
AcDbVertex
100
AcDb2dVertex
 10
379.0316661550805
 20
314.0457543174016
 30
0.0
  0
VERTEX
  5
769A
330
7697
100
AcDbEntity
  8
F_01 sichtbar
370
    13
100
AcDbVertex
100
AcDb2dVertex
 10
379.0316661550805
 20
302.0457543173979
 30
0.0
  0
VERTEX
  5
769B
330
7697
100
AcDbEntity
  8
F_01 sichtbar
370
    13
100
AcDbVertex
100
AcDb2dVertex
 10
217.0880135912575
 20
302.0457543173979
 30
0.0
  0
SEQEND
  5
769C
330
7697
100
AcDbEntity
  8
F_01 sichtbar
370
    13
  0
POLYLINE
  5
769D
330
67
100
AcDbEntity
  8
F_01 sichtbar
370
    13
100
AcDb2dPolyline
 66
     1
 10
0.0
 20
0.0
 30
0.0
  0
VERTEX
  5
769E
330
769D
100
AcDbEntity
  8
F_01 sichtbar
370
    13
100
AcDbVertex
100
AcDb2dVertex
 10
217.0880135912575
 20
317.0457543174016
 30
0.0
  0
VERTEX
  5
769F
330
769D
100
AcDbEntity
  8
F_01 sichtbar
370
    13
100
AcDbVertex
100
AcDb2dVertex
 10
379.0316661550805
 20
317.0457543174016
 30
0.0
  0
VERTEX
  5
76A0
330
769D
100
AcDbEntity
  8
F_01 sichtbar
370
    13
100
AcDbVertex
100
AcDb2dVertex
 10
379.0316661550805
 20
507.0457544751007
 30
0.0
  0
VERTEX
  5
76A1
330
769D
100
AcDbEntity
  8
F_01 sichtbar
370
    13
100
AcDbVertex
100
AcDb2dVertex
 10
217.0880135912575
 20
507.0457544751007
 30
0.0
  0
SEQEND
  5
76A2
330
769D
100
AcDbEntity
  8
F_01 sichtbar
370
    13
  0
HATCH
  5
76A3
330
67
100
AcDbEntity
  8
F_01 sichtbar
370
    13
100
AcDbHatch
 10
0.0
 20
0.0
 30
0.0
210
0.0
220
0.0
230
1.0
  2
HEX
 70
     0
 71
     0
 91
        1
 92
        7
 72
     0
 73
     1
 93
        4
 10
379.0316661550951
 20
630.0457544751006
 10
217.0880135912575
 20
630.0457544751006
 10
217.0880135912575
 20
540.0457544751007
 10
379.0316661550878
 20
540.0457544751007
 97
        0
 75
     0
 76
     1
 52
0.0
 41
2.0
 77
     0
 78
     3
 53
0.0
 43
-33460.44599621795
 44
-14094.00263975985
 45
0.0
 46
10.99852
 79
     2
 49
6.349999999999999
 49
-12.7
 53
120.0
 43
-33460.44599621795
 44
-14094.00263975985
 45
-9.524997724031223
 46
-5.499259999999996
 79
     2
 49
6.349999999999994
 49
-12.69999999999999
 53
60.0
 43
-33454.09599621796
 44
-14094.00263975985
 45
-9.524997724031223
 46
5.49926
 79
     2
 49
6.349999999999999
 49
-12.7
 47
0.536036505142345
 98
        1
 10
301.2837468096968
 20
584.4647790030576
1001
ACAD
1010
0.0
1020
0.0
1030
0.0
  0
POLYLINE
  5
76A4
330
67
100
AcDbEntity
  8
F_01 sichtbar
370
    13
100
AcDb2dPolyline
 66
     1
 10
0.0
 20
0.0
 30
0.0
  0
VERTEX
  5
76A5
330
76A4
100
AcDbEntity
  8
F_01 sichtbar
370
    13
100
AcDbVertex
100
AcDb2dVertex
 10
217.0880135912575
 20
510.0457544751007
 30
0.0
  0
VERTEX
  5
76A6
330
76A4
100
AcDbEntity
  8
F_01 sichtbar
370
    13
100
AcDbVertex
100
AcDb2dVertex
 10
379.0316661550878
 20
510.0457544751007
 30
0.0
  0
VERTEX
  5
76A7
330
76A4
100
AcDbEntity
  8
F_01 sichtbar
370
    13
100
AcDbVertex
100
AcDb2dVertex
 10
379.0316661550951
 20
630.0457544751006
 30
0.0
  0
VERTEX
  5
76A8
330
76A4
100
AcDbEntity
  8
F_01 sichtbar
370
    13
100
AcDbVertex
100
AcDb2dVertex
 10
217.0880135912575
 20
630.0457544751006
 30
0.0
  0
SEQEND
  5
76A9
330
76A4
100
AcDbEntity
  8
F_01 sichtbar
370
    13
  0
POLYLINE
  5
76AA
330
67
100
AcDbEntity
  8
F_01 sichtbar
370
    13
100
AcDb2dPolyline
 66
     1
 10
0.0
 20
0.0
 30
0.0
  0
VERTEX
  5
76AB
330
76AA
100
AcDbEntity
  8
F_01 sichtbar
370
    13
100
AcDbVertex
100
AcDb2dVertex
 10
379.0316661550878
 20
540.0457544751007
 30
0.0
  0
VERTEX
  5
76AC
330
76AA
100
AcDbEntity
  8
F_01 sichtbar
370
    13
100
AcDbVertex
100
AcDb2dVertex
 10
217.0880135912575
 20
540.0457544751007
 30
0.0
  0
SEQEND
  5
76AD
330
76AA
100
AcDbEntity
  8
F_01 sichtbar
370
    13
  0
LINE
  5
76AE
330
67
100
AcDbEntity
  8
F_01 sichtbar
370
    13
100
AcDbLine
 10
615.3740107976901
 20
329.5457907411146
 30
0.0
 11
417.5323684073354
 21
329.5457907411182
 31
0.0
  0
LINE
  5
76AF
330
67
100
AcDbEntity
  8
F_02 unsichtbar
370
    13
100
AcDbLine
 10
379.0316661550951
 20
508.5457544751006
 30
0.0
 11
217.0880135912648
 21
508.5457544751006
 31
0.0
  0
LINE
  5
76B0
330
67
100
AcDbEntity
  8
F_01 sichtbar
370
    13
100
AcDbLine
 10
407.5316526494771
 20
630.0457544669953
 30
0.0
 11
407.5316526494771
 21
333.0457569454302
 31
0.0
  0
LINE
  5
76B1
330
67
100
AcDbEntity
  8
F_01 sichtbar
370
    13
100
AcDbLine
 10
385.5316526494771
 20
302.0457555788525
 30
0.0
 11
385.5316526494771
 21
630.0457543481424
 31
0.0
  0
LINE
  5
76B2
330
67
100
AcDbEntity
  8
F_02 unsichtbar
370
    13
100
AcDbLine
 10
379.0316661550951
 20
315.5457543174016
 30
0.0
 11
217.0880135912648
 21
315.5457543174016
 31
0.0
  0
LINE
  5
76B3
330
67
100
AcDbEntity
  8
F_01 sichtbar
370
    13
100
AcDbLine
 10
398.5164684094543
 20
297.5568949472909
 30
0.0
 11
615.3740107976901
 21
297.5568949472872
 31
0.0
  0
LINE
  5
76B4
330
67
100
AcDbEntity
  8
F_01 sichtbar
370
    13
100
AcDbLine
 10
456.516468409447
 20
297.5568949472909
 30
0.0
 11
456.516468409447
 21
329.5457907411182
 31
0.0
  0
POLYLINE
  5
76B5
330
67
100
AcDbEntity
  8
F_31 Ansichtsfenster
370
    13
100
AcDb2dPolyline
 66
     1
 10
0.0
 20
0.0
 30
0.0
  0
VERTEX
  5
76B6
330
76B5
100
AcDbEntity
  8
F_31 Ansichtsfenster
370
    13
100
AcDbVertex
100
AcDb2dVertex
 10
217.0880135912575
 20
302.0457543173979
 30
0.0
  0
VERTEX
  5
76B7
330
76B5
100
AcDbEntity
  8
F_31 Ansichtsfenster
370
    13
100
AcDbVertex
100
AcDb2dVertex
 10
217.0880135912575
 20
630.0457544751006
 30
0.0
  0
SEQEND
  5
76B8
330
76B5
100
AcDbEntity
  8
F_31 Ansichtsfenster
370
    13
  0
LINE
  5
76B9
330
67
100
AcDbEntity
  8
F_01 sichtbar
370
    13
100
AcDbLine
 10
409.0323684073427
 20
630.0457544751006
 30
0.0
 11
615.3740107976901
 21
630.0457544751006
 31
0.0
  0
HATCH
  5
76BA
330
67
100
AcDbEntity
  8
F_01 sichtbar
370
    13
100
AcDbHatch
 10
0.0
 20
0.0
 30
0.0
210
0.0
220
0.0
230
1.0
  2
JIS_WOOD
 70
     0
 71
     0
 91
        1
 92
        1
 93
       10
 72
     1
 10
385.5316526494771
 20
630.0457543481424
 11
407.5316526494771
 21
630.0457544669953
 72
     1
 10
407.5316526494771
 20
630.0457544669953
 11
407.5316385419846
 21
333.0457569454065
 72
     1
 10
407.5316385419846
 20
333.0457569454047
 11
405.0316415888646
 21
333.0457566826044
 72
     1
 10
405.0316415888646
 20
333.0457566826044
 11
405.0316458988363
 21
341.0457557365116
 72
     1
 10
405.0316458988363
 20
341.0457557365116
 11
401.0316458988363
 21
341.0457557365116
 72
     1
 10
401.0316458988363
 20
341.0457557365116
 11
401.0316415888646
 21
333.0457562621195
 72
     1
 10
401.0316415888646
 20
333.0457562621195
 11
396.0316526494771
 21
333.0457555788525
 72
     1
 10
396.0316526494771
 20
333.0457555788525
 11
396.0316455245175
 21
302.0457555788525
 72
     1
 10
396.0316455245175
 20
302.0457555788525
 11
385.5316559104304
 21
302.0457546327616
 72
     1
 10
385.5316559104304
 20
302.0457546327634
 11
385.5316526494771
 21
630.0457543481424
 97
        0
 75
     0
 76
     1
 52
315.0
 41
30.0
 77
     0
 78
     1
 53
0.0
 43
-23324.78926649717
 44
-14184.49495860457
 45
0.0000000000000071
 46
21.2132034
 79
     0
 98
        1
 10
-23324.78926649717
 20
-14184.49495860457
1001
ACAD
1010
0.0
1020
0.0
1030
0.0
  0
HATCH
  5
76BB
330
67
100
AcDbEntity
  8
F_01 sichtbar
370
    13
100
AcDbHatch
 10
0.0
 20
0.0
 30
0.0
210
0.0
220
0.0
230
1.0
  2
JIS_WOOD
 70
     0
 71
     0
 91
        1
 92
        1
 93
        6
 72
     1
 10
456.516468409447
 20
297.5458367501124
 11
456.5165331446096
 21
329.5457907411182
 72
     1
 10
456.5165331446096
 20
329.5457907411182
 11
417.5323684073354
 21
329.5457907411164
 72
     1
 10
417.5323684073354
 20
329.5457907411182
 11
417.5159043783187
 21
329.045844035556
 72
     1
 10
417.5159043783187
 20
329.0458440355542
 11
400.1007158282646
 21
329.0457907411183
 72
     1
 10
400.1007158282646
 20
329.0457907411183
 11
398.5007158282733
 21
297.5457907411183
 72
     1
 10
398.5007158282733
 20
297.5457907411183
 11
456.516468409447
 21
297.5458367501124
 97
        0
 75
     0
 76
     1
 52
0.0
 41
15.0
 77
     0
 78
     1
 53
45.0
 43
-32754.61962487247
 44
-14094.00263975985
 45
-7.499999987414763
 46
7.499999987414764
 79
     0
 98
        1
 10
462.9548004672524
 20
320.5689117694892
1001
ACAD
1010
0.0
1020
0.0
1030
0.0
  0
LWPOLYLINE
  5
76BC
330
67
100
AcDbEntity
  8
F_01 sichtbar
370
    13
100
AcDbPolyline
 90
       59
 70
     1
 43
0.0
 10
405.3498595947221
 20
328.8639547676103
 10
406.6957493861318
 20
327.5180652591662
 42
-2.295511712501342
 10
406.0486988075772
 20
327.1751663120885
 10
404.4005955302909
 20
328.8232692428719
 42
0.4142135623730925
 10
404.2591741740525
 20
328.8232692280071
 10
403.8816615871528
 20
328.4457565617377
 10
403.031661587147
 20
328.4457564723816
 10
402.1816615871557
 20
328.4457563830292
 10
401.7293793424742
 20
328.8980385326213
 42
-0.8501016268507996
 10
400.7445786771186
 20
328.832839101302
 10
397.5316612087099
 20
332.0457558942144
 10
397.5316610510327
 20
333.5457558942144
 10
397.9584377911942
 20
333.1189792437835
 42
0.198912367379658
 10
398.1352144941829
 20
333.0457559576607
 10
400.9986484017044
 20
333.0457562586707
 42
0.1316524975873961
 10
401.1236483981829
 20
333.0792499208655
 10
401.8066610586156
 20
333.4735875599617
 42
0.2679491924311224
 10
401.9316610358564
 20
333.6900939240477
 10
401.9316608145072
 20
335.7957563567506
 42
0.4142135623730951
 10
401.6816607882264
 20
336.0457563304699
 10
400.6816607882265
 20
336.0457562253468
 42
-0.5773502691896217
 10
400.4651543978598
 20
336.4207562025876
 10
400.7105282175961
 20
336.8457562283838
 10
401.681660704131
 20
336.8457563304692
 42
0.4142135623730951
 10
401.9316606778501
 20
337.0957563567499
 10
401.9316604991454
 20
338.7957563567506
 42
0.4142135623730951
 10
401.6816604728719
 20
339.0457563304699
 10
400.6816604728719
 20
339.0457562253469
 42
-0.577350269189623
 10
400.4651540825052
 20
339.4207562025877
 10
400.7105279022271
 20
339.8457562283838
 10
401.6816603887691
 20
339.8457563304692
 42
0.4142135623730951
 10
401.9316603624884
 20
340.0957563567499
 10
401.9316603414681
 20
340.2957563567507
 42
-0.4142135623730951
 10
402.1816603151874
 20
340.5457563830314
 10
403.0316603151859
 20
340.5457564723838
 10
403.8816603151844
 20
340.5457565617362
 42
-0.4142135623730951
 10
404.1316603414652
 20
340.295756588017
 10
404.1316603624927
 20
340.0957565880162
 42
0.4142135623730951
 10
404.3816603887735
 20
339.845756614297
 10
405.3527928753083
 20
339.8457567163823
 10
405.5981667843934
 20
339.4207567421763
 42
-0.5773502691896199
 10
405.381660472869
 20
339.0457567194171
 10
404.381660472869
 20
339.0457566142977
 42
0.4142135623730951
 10
404.1316604991497
 20
338.7957565880169
 10
404.1316606778472
 20
337.0957565880162
 42
0.4142135623730951
 10
404.381660704128
 20
336.845756614297
 10
405.3527931906773
 20
336.8457567163823
 10
405.5981670997552
 20
336.4207567421763
 42
-0.5773502691896196
 10
405.3816607882309
 20
336.0457567194171
 10
404.3816607882308
 20
336.0457566142977
 42
0.4142135623730951
 10
404.1316608145116
 20
335.795756588017
 10
404.1316610358608
 20
333.690094155314
 42
0.2679491924311216
 10
404.25666105862
 20
333.4735878175088
 10
404.9396738019622
 20
333.0792503220109
 42
0.1316524975873966
 10
405.0646738054838
 20
333.0457566860969
 10
407.9281077130053
 20
333.0457569871033
 42
0.198912367379658
 10
408.1048844006054
 20
333.1189803103916
 10
408.5316610510326
 20
333.5457570505496
 10
408.5316612087098
 20
332.0457570505496
  0
HATCH
  5
76BD
330
67
100
AcDbEntity
  8
F_01 sichtbar
370
    13
100
AcDbHatch
 10
0.0
 20
0.0
 30
0.0
210
0.0
220
0.0
230
1.0
  2
BATT_INSULATION
 70
     0
 71
     0
 91
        1
 92
        1
 93
        4
 72
     1
 10
379.0316661550878
 20
540.0457544751007
 11
379.0316661550878
 21
510.0457544751007
 72
     1
 10
379.0316661550878
 20
510.0457544751007
 11
217.0880135912575
 21
510.0457544751007
 72
     1
 10
217.0880135912575
 20
510.0457544751007
 11
217.0880135912575
 21
540.0457544751025
 72
     1
 10
217.0880135912575
 20
540.0457544751043
 11
379.0316661550878
 21
540.0457544751025
 97
        0
 75
     0
 76
     2
 52
180.0
 41
32.77964320184142
 77
     0
 78
   528
 53
0.000000000000007
 43
12034.22619961491
 44
1797.873894506498
 45
10.95203936981043
 46
-36.87709860207159
 79
     2
 49
0.0
 49
-10.95203936981043
 53
345.9236
 43
12028.75016354018
 44
1793.776439106266
 45
10.95202660980681
 46
0.000004046117522
 79
     2
 49
2.663936043727233
 49
-1058.697838380723
 53
345.9236
 43
12028.75016354018
 44
1756.899340504191
 45
10.95202660980681
 46
0.000004046117522
 79
     2
 49
2.663936043727233
 49
-1058.697838380723
 53
345.9236
 43
12028.75016354018
 44
1720.022241902123
 45
10.95202660980681
 46
0.000004046117522
 79
     2
 49
2.663936043727233
 49
-1058.697838380723
 53
345.9236
 43
12028.75016354018
 44
1683.145143300047
 45
10.95202660980681
 46
0.000004046117522
 79
     2
 49
2.663936043727233
 49
-1058.697838380723
 53
345.9236
 43
12028.75016354018
 44
1646.268044697979
 45
10.95202660980681
 46
0.000004046117522
 79
     2
 49
2.663936043727233
 49
-1058.697838380723
 53
345.9236
 43
12028.75016354018
 44
1609.390946095911
 45
10.95202660980681
 46
0.000004046117522
 79
     2
 49
2.663936043727233
 49
-1058.697838380723
 53
345.9236
 43
12028.75016354018
 44
1572.513847493836
 45
10.95202660980681
 46
0.000004046117522
 79
     2
 49
2.663936043727233
 49
-1058.697838380723
 53
334.9544
 43
12030.02584891467
 44
1762.959313142921
 45
10.9520365279484
 46
-0.0000117218229823
 79
     2
 49
4.636287175181993
 49
-2957.102061108975
 53
334.9544
 43
12030.02584891467
 44
1726.082214540846
 45
10.9520365279484
 46
-0.0000117218229823
 79
     2
 49
4.636287175181993
 49
-2957.102061108975
 53
334.9544
 43
12030.02584891467
 44
1689.205115938777
 45
10.9520365279484
 46
-0.0000117218229823
 79
     2
 49
4.636287175181993
 49
-2957.102061108975
 53
334.9544
 43
12030.02584891467
 44
1652.328017336702
 45
10.9520365279484
 46
-0.0000117218229823
 79
     2
 49
4.636287175181993
 49
-2957.102061108975
 53
334.9544
 43
12030.02584891467
 44
1615.45091873463
 45
10.9520365279484
 46
-0.0000117218229823
 79
     2
 49
4.636287175181993
 49
-2957.102061108975
 53
334.9544
 43
12030.02584891467
 44
1578.573820132558
 45
10.9520365279484
 46
-0.0000117218229823
 79
     2
 49
4.636287175181993
 49
-2957.102061108975
 53
334.9544
 43
12030.02584891467
 44
1541.69672153049
 45
10.9520365279484
 46
-0.0000117218229823
 79
     2
 49
4.636287175181993
 49
-2957.102061108975
 53
334.9544
 43
12030.02584891467
 44
1504.819622928415
 45
10.9520365279484
 46
-0.0000117218229823
 79
     2
 49
4.636287175181993
 49
-2957.102061108975
 53
334.9544
 43
12030.02584891467
 44
1467.943507715645
 45
10.9520365279484
 46
-0.0000117218229823
 79
     2
 49
4.636287175181993
 49
-2957.102061108975
 53
334.9544
 43
12030.02584891467
 44
1431.066409113569
 45
10.9520365279484
 46
-0.0000117218229823
 79
     2
 49
4.636287175181993
 49
-2957.102061108975
 53
334.9544
 43
12030.02584891467
 44
1394.189310511498
 45
10.9520365279484
 46
-0.0000117218229823
 79
     2
 49
4.636287175181993
 49
-2957.102061108975
 53
334.9544
 43
12030.02584891467
 44
1357.312211909426
 45
10.9520365279484
 46
-0.0000117218229823
 79
     2
 49
4.636287175181993
 49
-2957.102061108975
 53
334.9544
 43
12030.02584891467
 44
1320.435113307354
 45
10.9520365279484
 46
-0.0000117218229823
 79
     2
 49
4.636287175181993
 49
-2957.102061108975
 53
334.9544
 43
12030.02584891467
 44
1283.558014705286
 45
10.9520365279484
 46
-0.0000117218229823
 79
     2
 49
4.636287175181993
 49
-2957.102061108975
 53
334.9544
 43
12030.02584891467
 44
1246.680916103214
 45
10.9520365279484
 46
-0.0000117218229823
 79
     2
 49
4.636287175181993
 49
-2957.102061108975
 53
334.9544
 43
12030.02584891467
 44
1209.803817501139
 45
10.9520365279484
 46
-0.0000117218229823
 79
     2
 49
4.636287175181993
 49
-2957.102061108975
 53
334.9544
 43
12030.02584891467
 44
1172.926718899071
 45
10.9520365279484
 46
-0.0000117218229823
 79
     2
 49
4.636287175181993
 49
-2957.102061108975
 53
334.9544
 43
12030.02584891467
 44
1136.049620296999
 45
10.9520365279484
 46
-0.0000117218229823
 79
     2
 49
4.636287175181993
 49
-2957.102061108975
 53
334.9544
 43
12030.02584891467
 44
1099.172521694927
 45
10.9520365279484
 46
-0.0000117218229823
 79
     2
 49
4.636287175181993
 49
-2957.102061108975
 53
334.9544
 43
12030.02584891467
 44
1062.295423092852
 45
10.9520365279484
 46
-0.0000117218229823
 79
     2
 49
4.636287175181993
 49
-2957.102061108975
 53
334.9544
 43
12030.02584891467
 44
1025.418324490783
 45
10.9520365279484
 46
-0.0000117218229823
 79
     2
 49
4.636287175181993
 49
-2957.102061108975
 53
334.9544
 43
12030.02584891467
 44
988.5412258887118
 45
10.9520365279484
 46
-0.0000117218229823
 79
     2
 49
4.636287175181993
 49
-2957.102061108975
 53
334.9544
 43
12030.02584891467
 44
951.6641272866399
 45
10.9520365279484
 46
-0.0000117218229823
 79
     2
 49
4.636287175181993
 49
-2957.102061108975
 53
334.9544
 43
12030.02584891467
 44
914.7870286845645
 45
10.9520365279484
 46
-0.0000117218229823
 79
     2
 49
4.636287175181993
 49
-2957.102061108975
 53
334.9544
 43
12030.02584891467
 44
877.9099300824965
 45
10.9520365279484
 46
-0.0000117218229823
 79
     2
 49
4.636287175181993
 49
-2957.102061108975
 53
334.9544
 43
12030.02584891467
 44
841.0328314804283
 45
10.9520365279484
 46
-0.0000117218229823
 79
     2
 49
4.636287175181993
 49
-2957.102061108975
 53
334.9544
 43
12030.02584891467
 44
804.1557328783529
 45
10.9520365279484
 46
-0.0000117218229823
 79
     2
 49
4.636287175181993
 49
-2957.102061108975
 53
334.9544
 43
12030.02584891467
 44
767.2786342762847
 45
10.9520365279484
 46
-0.0000117218229823
 79
     2
 49
4.636287175181993
 49
-2957.102061108975
 53
334.9544
 43
12030.02584891467
 44
730.4015356742093
 45
10.9520365279484
 46
-0.0000117218229823
 79
     2
 49
4.636287175181993
 49
-2957.102061108975
 53
334.9544
 43
12030.02584891467
 44
693.5244370721338
 45
10.9520365279484
 46
-0.0000117218229823
 79
     2
 49
4.636287175181993
 49
-2957.102061108975
 53
334.9544
 43
12030.02584891467
 44
656.6473384700657
 45
10.9520365279484
 46
-0.0000117218229823
 79
     2
 49
4.636287175181993
 49
-2957.102061108975
 53
334.9544
 43
12030.02584891467
 44
619.7702398679975
 45
10.9520365279484
 46
-0.0000117218229823
 79
     2
 49
4.636287175181993
 49
-2957.102061108975
 53
334.9544
 43
12030.02584891467
 44
582.8931412659222
 45
10.9520365279484
 46
-0.0000117218229823
 79
     2
 49
4.636287175181993
 49
-2957.102061108975
 53
334.9544
 43
12030.02584891467
 44
546.0160426638504
 45
10.9520365279484
 46
-0.0000117218229823
 79
     2
 49
4.636287175181993
 49
-2957.102061108975
 53
307.5647
 43
12031.33411725449
 44
1793.128451119454
 45
10.95203172566192
 46
-0.0000024731155069
 79
     2
 49
4.503300162712156
 49
-1809.889024393901
 53
307.5647
 43
12031.33411725449
 44
1756.251286958093
 45
10.95203172566192
 46
-0.0000024731155069
 79
     2
 49
4.503300162712156
 49
-1809.889024393901
 53
307.5647
 43
12031.33411725449
 44
1719.374188356021
 45
10.95203172566192
 46
-0.0000024731155069
 79
     2
 49
4.503300162712156
 49
-1809.889024393901
 53
307.5647
 43
12031.33411725449
 44
1682.497089753953
 45
10.95203172566192
 46
-0.0000024731155069
 79
     2
 49
4.503300162712156
 49
-1809.889024393901
 53
307.5647
 43
12031.33411725449
 44
1645.619991151878
 45
10.95203172566192
 46
-0.0000024731155069
 79
     2
 49
4.503300162712156
 49
-1809.889024393901
 53
307.5647
 43
12031.33411725449
 44
1608.742892549802
 45
10.95203172566192
 46
-0.0000024731155069
 79
     2
 49
4.503300162712156
 49
-1809.889024393901
 53
307.5647
 43
12031.33411725449
 44
1571.865793947734
 45
10.95203172566192
 46
-0.0000024731155069
 79
     2
 49
4.503300162712156
 49
-1809.889024393901
 53
307.5647
 43
12031.33411725449
 44
1534.988695345666
 45
10.95203172566192
 46
-0.0000024731155069
 79
     2
 49
4.503300162712156
 49
-1809.889024393901
 53
307.5647
 43
12031.33411725449
 44
1498.111596743591
 45
10.95203172566192
 46
-0.0000024731155069
 79
     2
 49
4.503300162712156
 49
-1809.889024393901
 53
307.5647
 43
12031.33411725449
 44
1461.233514752224
 45
10.95203172566192
 46
-0.0000024731155069
 79
     2
 49
4.503300162712156
 49
-1809.889024393901
 53
307.5647
 43
12031.33411725449
 44
1424.356416150156
 45
10.95203172566192
 46
-0.0000024731155069
 79
     2
 49
4.503300162712156
 49
-1809.889024393901
 53
307.5647
 43
12031.33411725449
 44
1387.479317548081
 45
10.95203172566192
 46
-0.0000024731155069
 79
     2
 49
4.503300162712156
 49
-1809.889024393901
 53
307.5647
 43
12031.33411725449
 44
1350.602218946005
 45
10.95203172566192
 46
-0.0000024731155069
 79
     2
 49
4.503300162712156
 49
-1809.889024393901
 53
307.5647
 43
12031.33411725449
 44
1313.725120343937
 45
10.95203172566192
 46
-0.0000024731155069
 79
     2
 49
4.503300162712156
 49
-1809.889024393901
 53
307.5647
 43
12031.33411725449
 44
1276.848021741869
 45
10.95203172566192
 46
-0.0000024731155069
 79
     2
 49
4.503300162712156
 49
-1809.889024393901
 53
307.5647
 43
12031.33411725449
 44
1239.970923139793
 45
10.95203172566192
 46
-0.0000024731155069
 79
     2
 49
4.503300162712156
 49
-1809.889024393901
 53
307.5647
 43
12031.33411725449
 44
1203.093824537722
 45
10.95203172566192
 46
-0.0000024731155069
 79
     2
 49
4.503300162712156
 49
-1809.889024393901
 53
307.5647
 43
12031.33411725449
 44
1166.21672593565
 45
10.95203172566192
 46
-0.0000024731155069
 79
     2
 49
4.503300162712156
 49
-1809.889024393901
 53
307.5647
 43
12031.33411725449
 44
1129.339627333582
 45
10.95203172566192
 46
-0.0000024731155069
 79
     2
 49
4.503300162712156
 49
-1809.889024393901
 53
307.5647
 43
12031.33411725449
 44
1092.462528731506
 45
10.95203172566192
 46
-0.0000024731155069
 79
     2
 49
4.503300162712156
 49
-1809.889024393901
 53
307.5647
 43
12031.33411725449
 44
1055.585430129438
 45
10.95203172566192
 46
-0.0000024731155069
 79
     2
 49
4.503300162712156
 49
-1809.889024393901
 53
307.5647
 43
12031.33411725449
 44
1018.708331527363
 45
10.95203172566192
 46
-0.0000024731155069
 79
     2
 49
4.503300162712156
 49
-1809.889024393901
 53
307.5647
 43
12031.33411725449
 44
981.8312329252949
 45
10.95203172566192
 46
-0.0000024731155069
 79
     2
 49
4.503300162712156
 49
-1809.889024393901
 53
307.5647
 43
12031.33411725449
 44
944.9541343232231
 45
10.95203172566192
 46
-0.0000024731155069
 79
     2
 49
4.503300162712156
 49
-1809.889024393901
 53
307.5647
 43
12031.33411725449
 44
908.0770357211513
 45
10.95203172566192
 46
-0.0000024731155069
 79
     2
 49
4.503300162712156
 49
-1809.889024393901
 53
307.5647
 43
12031.33411725449
 44
871.1999371190758
 45
10.95203172566192
 46
-0.0000024731155069
 79
     2
 49
4.503300162712156
 49
-1809.889024393901
 53
307.5647
 43
12031.33411725449
 44
834.3228385170077
 45
10.95203172566192
 46
-0.0000024731155069
 79
     2
 49
4.503300162712156
 49
-1809.889024393901
 53
307.5647
 43
12031.33411725449
 44
797.4457399149396
 45
10.95203172566192
 46
-0.0000024731155069
 79
     2
 49
4.503300162712156
 49
-1809.889024393901
 53
307.5647
 43
12031.33411725449
 44
760.5686413128641
 45
10.95203172566192
 46
-0.0000024731155069
 79
     2
 49
4.503300162712156
 49
-1809.889024393901
 53
307.5647
 43
12031.33411725449
 44
723.6915427107923
 45
10.95203172566192
 46
-0.0000024731155069
 79
     2
 49
4.503300162712156
 49
-1809.889024393901
 53
307.5647
 43
12031.33411725449
 44
686.8144441087206
 45
10.95203172566192
 46
-0.0000024731155069
 79
     2
 49
4.503300162712156
 49
-1809.889024393901
 53
307.5647
 43
12031.33411725449
 44
649.9373455066452
 45
10.95203172566192
 46
-0.0000024731155069
 79
     2
 49
4.503300162712156
 49
-1809.889024393901
 53
307.5647
 43
12031.33411725449
 44
613.0602469045807
 45
10.95203172566192
 46
-0.0000024731155069
 79
     2
 49
4.503300162712156
 49
-1809.889024393901
 53
307.5647
 43
12031.33411725449
 44
576.1831483025089
 45
10.95203172566192
 46
-0.0000024731155069
 79
     2
 49
4.503300162712156
 49
-1809.889024393901
 53
307.5647
 43
12031.33411725449
 44
539.3060497004334
 45
10.95203172566192
 46
-0.0000024731155069
 79
     2
 49
4.503300162712156
 49
-1809.889024393901
 53
307.5647
 43
12031.33411725449
 44
502.4289510983654
 45
10.95203172566192
 46
-0.0000024731155069
 79
     2
 49
4.503300162712156
 49
-1809.889024393901
 53
307.5647
 43
12031.33411725449
 44
465.5518524962936
 45
10.95203172566192
 46
-0.0000024731155069
 79
     2
 49
4.503300162712156
 49
-1809.889024393901
 53
307.5647
 43
12031.33411725449
 44
428.6747538942218
 45
10.95203172566192
 46
-0.0000024731155069
 79
     2
 49
4.503300162712156
 49
-1809.889024393901
 53
307.5647
 43
12031.33411725449
 44
391.79765529215
 45
10.95203172566192
 46
-0.0000024731155069
 79
     2
 49
4.503300162712156
 49
-1809.889024393901
 53
292.9384
 43
12024.28319961196
 44
1781.544616906569
 45
10.95204222721493
 46
-0.0000045639384487
 79
     2
 49
8.386475035331912
 49
-1593.356600854789
 53
292.9384
 43
12024.28319961196
 44
1744.667616643426
 45
10.95204222721493
 46
-0.0000045639384487
 79
     2
 49
8.386475035331912
 49
-1593.356600854789
 53
292.9384
 43
12024.28319961196
 44
1707.790518041351
 45
10.95204222721493
 46
-0.0000045639384487
 79
     2
 49
8.386475035331912
 49
-1593.356600854789
 53
292.9384
 43
12024.28319961196
 44
1670.913419439283
 45
10.95204222721493
 46
-0.0000045639384487
 79
     2
 49
8.386475035331912
 49
-1593.356600854789
 53
292.9384
 43
12024.28319961196
 44
1634.036320837214
 45
10.95204222721493
 46
-0.0000045639384487
 79
     2
 49
8.386475035331912
 49
-1593.356600854789
 53
292.9384
 43
12024.28319961196
 44
1597.159222235139
 45
10.95204222721493
 46
-0.0000045639384487
 79
     2
 49
8.386475035331912
 49
-1593.356600854789
 53
292.9384
 43
12024.28319961196
 44
1560.282123633067
 45
10.95204222721493
 46
-0.0000045639384487
 79
     2
 49
8.386475035331912
 49
-1593.356600854789
 53
292.9384
 43
12024.28319961196
 44
1523.405025030995
 45
10.95204222721493
 46
-0.0000045639384487
 79
     2
 49
8.386475035331912
 49
-1593.356600854789
 53
292.9384
 43
12024.28319961196
 44
1486.527926428927
 45
10.95204222721493
 46
-0.0000045639384487
 79
     2
 49
8.386475035331912
 49
-1593.356600854789
 53
292.9384
 43
12024.28319961196
 44
1449.649188844694
 45
10.95204222721493
 46
-0.0000045639384487
 79
     2
 49
8.386475035331912
 49
-1593.356600854789
 53
292.9384
 43
12024.28319961196
 44
1412.772090242622
 45
10.95204222721493
 46
-0.0000045639384487
 79
     2
 49
8.386475035331912
 49
-1593.356600854789
 53
292.9384
 43
12024.28319961196
 44
1375.894991640547
 45
10.95204222721493
 46
-0.0000045639384487
 79
     2
 49
8.386475035331912
 49
-1593.356600854789
 53
292.9384
 43
12024.28319961196
 44
1339.017893038479
 45
10.95204222721493
 46
-0.0000045639384487
 79
     2
 49
8.386475035331912
 49
-1593.356600854789
 53
292.9384
 43
12024.28319961196
 44
1302.140794436411
 45
10.95204222721493
 46
-0.0000045639384487
 79
     2
 49
8.386475035331912
 49
-1593.356600854789
 53
292.9384
 43
12024.28319961196
 44
1265.263695834335
 45
10.95204222721493
 46
-0.0000045639384487
 79
     2
 49
8.386475035331912
 49
-1593.356600854789
 53
292.9384
 43
12024.28319961196
 44
1228.386597232264
 45
10.95204222721493
 46
-0.0000045639384487
 79
     2
 49
8.386475035331912
 49
-1593.356600854789
 53
292.9384
 43
12024.28319961196
 44
1191.509498630192
 45
10.95204222721493
 46
-0.0000045639384487
 79
     2
 49
8.386475035331912
 49
-1593.356600854789
 53
292.9384
 43
12024.28319961196
 44
1154.63240002812
 45
10.95204222721493
 46
-0.0000045639384487
 79
     2
 49
8.386475035331912
 49
-1593.356600854789
 53
292.9384
 43
12024.28319961196
 44
1117.755301426052
 45
10.95204222721493
 46
-0.0000045639384487
 79
     2
 49
8.386475035331912
 49
-1593.356600854789
 53
292.9384
 43
12024.28319961196
 44
1080.87820282398
 45
10.95204222721493
 46
-0.0000045639384487
 79
     2
 49
8.386475035331912
 49
-1593.356600854789
 53
292.9384
 43
12024.28319961196
 44
1044.001104221905
 45
10.95204222721493
 46
-0.0000045639384487
 79
     2
 49
8.386475035331912
 49
-1593.356600854789
 53
292.9384
 43
12024.28319961196
 44
1007.124005619836
 45
10.95204222721493
 46
-0.0000045639384487
 79
     2
 49
8.386475035331912
 49
-1593.356600854789
 53
292.9384
 43
12024.28319961196
 44
970.2469070177649
 45
10.95204222721493
 46
-0.0000045639384487
 79
     2
 49
8.386475035331912
 49
-1593.356600854789
 53
292.9384
 43
12024.28319961196
 44
933.3698084156932
 45
10.95204222721493
 46
-0.0000045639384487
 79
     2
 49
8.386475035331912
 49
-1593.356600854789
 53
292.9384
 43
12024.28319961196
 44
896.4927098136177
 45
10.95204222721493
 46
-0.0000045639384487
 79
     2
 49
8.386475035331912
 49
-1593.356600854789
 53
292.9384
 43
12024.28319961196
 44
859.6156112115496
 45
10.95204222721493
 46
-0.0000045639384487
 79
     2
 49
8.386475035331912
 49
-1593.356600854789
 53
292.9384
 43
12024.28319961196
 44
822.7385126094741
 45
10.95204222721493
 46
-0.0000045639384487
 79
     2
 49
8.386475035331912
 49
-1593.356600854789
 53
292.9384
 43
12024.28319961196
 44
785.861414007406
 45
10.95204222721493
 46
-0.0000045639384487
 79
     2
 49
8.386475035331912
 49
-1593.356600854789
 53
292.9384
 43
12024.28319961196
 44
748.9843154053305
 45
10.95204222721493
 46
-0.0000045639384487
 79
     2
 49
8.386475035331912
 49
-1593.356600854789
 53
292.9384
 43
12024.28319961196
 44
712.1072168032624
 45
10.95204222721493
 46
-0.0000045639384487
 79
     2
 49
8.386475035331912
 49
-1593.356600854789
 53
292.9384
 43
12024.28319961196
 44
675.2301182011942
 45
10.95204222721493
 46
-0.0000045639384487
 79
     2
 49
8.386475035331912
 49
-1593.356600854789
 53
292.9384
 43
12024.28319961196
 44
638.3530195991188
 45
10.95204222721493
 46
-0.0000045639384487
 79
     2
 49
8.386475035331912
 49
-1593.356600854789
 53
292.9384
 43
12024.28319961196
 44
601.475920997047
 45
10.95204222721493
 46
-0.0000045639384487
 79
     2
 49
8.386475035331912
 49
-1593.356600854789
 53
292.9384
 43
12024.28319961196
 44
564.5988223949752
 45
10.95204222721493
 46
-0.0000045639384487
 79
     2
 49
8.386475035331912
 49
-1593.356600854789
 53
292.9384
 43
12024.28319961196
 44
527.7217237929034
 45
10.95204222721493
 46
-0.0000045639384487
 79
     2
 49
8.386475035331912
 49
-1593.356600854789
 53
292.9384
 43
12024.28319961196
 44
490.8446251908316
 45
10.95204222721493
 46
-0.0000045639384487
 79
     2
 49
8.386475035331912
 49
-1593.356600854789
 53
292.9384
 43
12024.28319961196
 44
453.9675265887636
 45
10.95204222721493
 46
-0.0000045639384487
 79
     2
 49
8.386475035331912
 49
-1593.356600854789
 53
292.9384
 43
12024.28319961196
 44
417.0904279866918
 45
10.95204222721493
 46
-0.0000045639384487
 79
     2
 49
8.386475035331912
 49
-1593.356600854789
 53
292.9384
 43
12024.28319961196
 44
380.2133293846164
 45
10.95204222721493
 46
-0.0000045639384487
 79
     2
 49
8.386475035331912
 49
-1593.356600854789
 53
292.9384
 43
12024.28319961196
 44
343.3362307825482
 45
10.95204222721493
 46
-0.0000045639384487
 79
     2
 49
8.386475035331912
 49
-1593.356600854789
 53
285.109
 43
12029.07795997221
 44
1766.472799199509
 45
0.0000000992044029
 46
-36.87707611878427
 79
     2
 49
3.638966530766021
 49
-416.5337124354709
 53
285.109
 43
12040.02999934202
 44
1766.472799199509
 45
0.0000000992044029
 46
-36.87707611878427
 79
     2
 49
3.638966530766021
 49
-416.5337124354709
 53
285.109
 43
12050.98203871183
 44
1766.472799199509
 45
0.0000000992044029
 46
-36.87707611878427
 79
     2
 49
3.638966530766021
 49
-416.5337124354709
 53
285.109
 43
12061.93414364092
 44
1766.472799199509
 45
0.0000000992044029
 46
-36.87707611878427
 79
     2
 49
3.638966530766021
 49
-416.5337124354709
 53
285.109
 43
12072.88615023109
 44
1766.472799199509
 45
0.0000000992044029
 46
-36.87707611878427
 79
     2
 49
3.638966530766021
 49
-416.5337124354709
 53
285.109
 43
12083.83815682126
 44
1766.472799199509
 45
0.0000000992044029
 46
-36.87707611878427
 79
     2
 49
3.638966530766021
 49
-416.5337124354709
 53
285.109
 43
12094.79016341142
 44
1766.472799199509
 45
0.0000000992044029
 46
-36.87707611878427
 79
     2
 49
3.638966530766021
 49
-416.5337124354709
 53
285.109
 43
12105.74217000159
 44
1766.472799199509
 45
0.0000000992044029
 46
-36.87707611878427
 79
     2
 49
3.638966530766021
 49
-416.5337124354709
 53
285.109
 43
12116.69417659176
 44
1766.472799199509
 45
0.0000000992044029
 46
-36.87707611878427
 79
     2
 49
3.638966530766021
 49
-416.5337124354709
 53
285.109
 43
12127.64618318192
 44
1766.472799199509
 45
0.0000000992044029
 46
-36.87707611878427
 79
     2
 49
3.638966530766021
 49
-416.5337124354709
 53
276.7473999999999
 43
12027.55134642901
 44
1773.821142934634
 45
0.0000035818718473
 46
-36.87716375543
 79
     2
 49
7.399774995313284
 49
-4560.119085052519
 53
276.7473999999999
 43
12038.50338579881
 44
1773.821142934634
 45
0.0000035818718473
 46
-36.87716375543
 79
     2
 49
7.399774995313284
 49
-4560.119085052519
 53
276.7473999999999
 43
12049.45542516863
 44
1773.821142934634
 45
0.0000035818718473
 46
-36.87716375543
 79
     2
 49
7.399774995313284
 49
-4560.119085052519
 53
276.7473999999999
 43
12060.40759565701
 44
1773.821142934634
 45
0.0000035818718473
 46
-36.87716375543
 79
     2
 49
7.399774995313284
 49
-4560.119085052519
 53
276.7473999999999
 43
12071.35960224718
 44
1773.821142934634
 45
0.0000035818718473
 46
-36.87716375543
 79
     2
 49
7.399774995313284
 49
-4560.119085052519
 53
276.7473999999999
 43
12082.31160883735
 44
1773.821142934634
 45
0.0000035818718473
 46
-36.87716375543
 79
     2
 49
7.399774995313284
 49
-4560.119085052519
 53
276.7473999999999
 43
12093.26361542752
 44
1773.821142934634
 45
0.0000035818718473
 46
-36.87716375543
 79
     2
 49
7.399774995313284
 49
-4560.119085052519
 53
276.7473999999999
 43
12104.21562201768
 44
1773.821142934634
 45
0.0000035818718473
 46
-36.87716375543
 79
     2
 49
7.399774995313284
 49
-4560.119085052519
 53
276.7473999999999
 43
12115.16762860785
 44
1773.821142934634
 45
0.0000035818718473
 46
-36.87716375543
 79
     2
 49
7.399774995313284
 49
-4560.119085052519
 53
276.7473999999999
 43
12126.11963519802
 44
1773.821142934634
 45
0.0000035818718473
 46
-36.87716375543
 79
     2
 49
7.399774995313284
 49
-4560.119085052519
 53
276.7473999999999
 43
12137.07164178818
 44
1773.821142934634
 45
0.0000035818718473
 46
-36.87716375543
 79
     2
 49
7.399774995313284
 49
-4560.119085052519
 53
276.7473999999999
 43
12148.02364837835
 44
1773.821142934634
 45
0.0000035818718473
 46
-36.87716375543
 79
     2
 49
7.399774995313284
 49
-4560.119085052519
 53
276.7473999999999
 43
12158.97565496852
 44
1773.821142934634
 45
0.0000035818718473
 46
-36.87716375543
 79
     2
 49
7.399774995313284
 49
-4560.119085052519
 53
276.7473999999999
 43
12169.92766155868
 44
1773.821142934634
 45
0.0000035818718473
 46
-36.87716375543
 79
     2
 49
7.399774995313284
 49
-4560.119085052519
 53
276.7473999999999
 43
12180.87999594529
 44
1773.821142934634
 45
0.0000035818718473
 46
-36.87716375543
 79
     2
 49
7.399774995313284
 49
-4560.119085052519
 53
276.7473999999999
 43
12191.83200253545
 44
1773.821142934634
 45
0.0000035818718473
 46
-36.87716375543
 79
     2
 49
7.399774995313284
 49
-4560.119085052519
 53
276.7473999999999
 43
12202.78400912561
 44
1773.821142934634
 45
0.0000035818718473
 46
-36.87716375543
 79
     2
 49
7.399774995313284
 49
-4560.119085052519
 53
276.7473999999999
 43
12213.73601571579
 44
1773.821142934634
 45
0.0000035818718473
 46
-36.87716375543
 79
     2
 49
7.399774995313284
 49
-4560.119085052519
 53
276.7473999999999
 43
12224.68802230595
 44
1773.821142934634
 45
0.0000035818718473
 46
-36.87716375543
 79
     2
 49
7.399774995313284
 49
-4560.119085052519
 53
276.7473999999999
 43
12235.64002889612
 44
1773.821142934634
 45
0.0000035818718473
 46
-36.87716375543
 79
     2
 49
7.399774995313284
 49
-4560.119085052519
 53
276.7473999999999
 43
12246.59203548629
 44
1773.821142934634
 45
0.0000035818718473
 46
-36.87716375543
 79
     2
 49
7.399774995313284
 49
-4560.119085052519
 53
276.7473999999999
 43
12257.54404207646
 44
1773.821142934634
 45
0.0000035818718473
 46
-36.87716375543
 79
     2
 49
7.399774995313284
 49
-4560.119085052519
 53
276.7473999999999
 43
12268.49604866662
 44
1773.821142934634
 45
0.0000035818718473
 46
-36.87716375543
 79
     2
 49
7.399774995313284
 49
-4560.119085052519
 53
276.7473999999999
 43
12279.44805525679
 44
1773.821142934634
 45
0.0000035818718473
 46
-36.87716375543
 79
     2
 49
7.399774995313284
 49
-4560.119085052519
 53
276.7473999999999
 43
12290.40038964339
 44
1773.821142934634
 45
0.0000035818718473
 46
-36.87716375543
 79
     2
 49
7.399774995313284
 49
-4560.119085052519
 53
276.7473999999999
 43
12301.35239623355
 44
1773.821142934634
 45
0.0000035818718473
 46
-36.87716375543
 79
     2
 49
7.399774995313284
 49
-4560.119085052519
 53
276.7473999999999
 43
12312.30440282373
 44
1773.821142934634
 45
0.0000035818718473
 46
-36.87716375543
 79
     2
 49
7.399774995313284
 49
-4560.119085052519
 53
276.7473999999999
 43
12323.25640941389
 44
1773.821142934634
 45
0.0000035818718473
 46
-36.87716375543
 79
     2
 49
7.399774995313284
 49
-4560.119085052519
 53
276.7473999999999
 43
12334.20841600406
 44
1773.821142934634
 45
0.0000035818718473
 46
-36.87716375543
 79
     2
 49
7.399774995313284
 49
-4560.119085052519
 53
276.7473999999999
 43
12345.16042259423
 44
1773.821142934634
 45
0.0000035818718473
 46
-36.87716375543
 79
     2
 49
7.399774995313284
 49
-4560.119085052519
 53
276.7473999999999
 43
12356.11210138796
 44
1773.821142934634
 45
0.0000035818718473
 46
-36.87716375543
 79
     2
 49
7.399774995313284
 49
-4560.119085052519
 53
276.7473999999999
 43
12367.0637801817
 44
1773.821142934634
 45
0.0000035818718473
 46
-36.87716375543
 79
     2
 49
7.399774995313284
 49
-4560.119085052519
 53
276.7473999999999
 43
12378.01545897543
 44
1773.821142934634
 45
0.0000035818718473
 46
-36.87716375543
 79
     2
 49
7.399774995313284
 49
-4560.119085052519
 53
276.7473999999999
 43
12388.96713776916
 44
1773.821142934634
 45
0.0000035818718473
 46
-36.87716375543
 79
     2
 49
7.399774995313284
 49
-4560.119085052519
 53
276.7473999999999
 43
12399.92209452722
 44
1773.821142934634
 45
0.0000035818718473
 46
-36.87716375543
 79
     2
 49
7.399774995313284
 49
-4560.119085052519
 53
276.7473999999999
 43
12410.87377332095
 44
1773.821142934634
 45
0.0000035818718473
 46
-36.87716375543
 79
     2
 49
7.399774995313284
 49
-4560.119085052519
 53
276.7473999999999
 43
12421.82545211469
 44
1773.821142934634
 45
0.0000035818718473
 46
-36.87716375543
 79
     2
 49
7.399774995313284
 49
-4560.119085052519
 53
276.7473999999999
 43
12432.77713090843
 44
1773.821142934634
 45
0.0000035818718473
 46
-36.87716375543
 79
     2
 49
7.399774995313284
 49
-4560.119085052519
 53
276.7473999999999
 43
12443.72880970216
 44
1773.821142934634
 45
0.0000035818718473
 46
-36.87716375543
 79
     2
 49
7.399774995313284
 49
-4560.119085052519
 53
276.7473999999999
 43
12454.6804884959
 44
1773.821142934634
 45
0.0000035818718473
 46
-36.87716375543
 79
     2
 49
7.399774995313284
 49
-4560.119085052519
 53
276.7473999999999
 43
12465.63216728963
 44
1773.821142934634
 45
0.0000035818718473
 46
-36.87716375543
 79
     2
 49
7.399774995313284
 49
-4560.119085052519
 53
276.7473999999999
 43
12476.58384608337
 44
1773.821142934634
 45
0.0000035818718473
 46
-36.87716375543
 79
     2
 49
7.399774995313284
 49
-4560.119085052519
 53
276.7473999999999
 43
12487.5355248771
 44
1773.821142934634
 45
0.0000035818718473
 46
-36.87716375543
 79
     2
 49
7.399774995313284
 49
-4560.119085052519
 53
276.7473999999999
 43
12498.49048163515
 44
1773.821142934634
 45
0.0000035818718473
 46
-36.87716375543
 79
     2
 49
7.399774995313284
 49
-4560.119085052519
 53
276.7473999999999
 43
12509.44216042889
 44
1773.821142934634
 45
0.0000035818718473
 46
-36.87716375543
 79
     2
 49
7.399774995313284
 49
-4560.119085052519
 53
276.7473999999999
 43
12520.39383922262
 44
1773.821142934634
 45
0.0000035818718473
 46
-36.87716375543
 79
     2
 49
7.399774995313284
 49
-4560.119085052519
 53
276.7473999999999
 43
12531.34551801636
 44
1773.821142934634
 45
0.0000035818718473
 46
-36.87716375543
 79
     2
 49
7.399774995313284
 49
-4560.119085052519
 53
276.7473999999999
 43
12542.29719681009
 44
1773.821142934634
 45
0.0000035818718473
 46
-36.87716375543
 79
     2
 49
7.399774995313284
 49
-4560.119085052519
 53
276.7473999999999
 43
12553.24887560383
 44
1773.821142934634
 45
0.0000035818718473
 46
-36.87716375543
 79
     2
 49
7.399774995313284
 49
-4560.119085052519
 53
276.1416
 43
12023.42072950273
 44
1789.558879093347
 45
-0.0000356891682921
 46
-36.87700042616381
 79
     2
 49
8.060547042976009
 49
-2551.147945737283
 53
276.1416
 43
12034.37275739967
 44
1789.558879093347
 45
-0.0000356891682921
 46
-36.87700042616381
 79
     2
 49
8.060547042976009
 49
-2551.147945737283
 53
276.1416
 43
12045.32479676948
 44
1789.558879093347
 45
-0.0000356891682921
 46
-36.87700042616381
 79
     2
 49
8.060547042976009
 49
-2551.147945737283
 53
276.1416
 43
12056.27670502072
 44
1789.558879093347
 45
-0.0000356891682921
 46
-36.87700042616381
 79
     2
 49
8.060547042976009
 49
-2551.147945737283
 53
276.1416
 43
12067.22903940732
 44
1789.558879093347
 45
-0.0000356891682921
 46
-36.87700042616381
 79
     2
 49
8.060547042976009
 49
-2551.147945737283
 53
276.1416
 43
12078.18104599748
 44
1789.558879093347
 45
-0.0000356891682921
 46
-36.87700042616381
 79
     2
 49
8.060547042976009
 49
-2551.147945737283
 53
276.1416
 43
12089.13305258765
 44
1789.558879093347
 45
-0.0000356891682921
 46
-36.87700042616381
 79
     2
 49
8.060547042976009
 49
-2551.147945737283
 53
276.1416
 43
12100.08505917782
 44
1789.558879093347
 45
-0.0000356891682921
 46
-36.87700042616381
 79
     2
 49
8.060547042976009
 49
-2551.147945737283
 53
276.1416
 43
12111.03706576798
 44
1789.558879093347
 45
-0.0000356891682921
 46
-36.87700042616381
 79
     2
 49
8.060547042976009
 49
-2551.147945737283
 53
276.1416
 43
12121.98907235815
 44
1789.558879093347
 45
-0.0000356891682921
 46
-36.87700042616381
 79
     2
 49
8.060547042976009
 49
-2551.147945737283
 53
276.1416
 43
12132.94107894832
 44
1789.558879093347
 45
-0.0000356891682921
 46
-36.87700042616381
 79
     2
 49
8.060547042976009
 49
-2551.147945737283
 53
276.1416
 43
12143.89308553849
 44
1789.558879093347
 45
-0.0000356891682921
 46
-36.87700042616381
 79
     2
 49
8.060547042976009
 49
-2551.147945737283
 53
276.1416
 43
12154.84509212865
 44
1789.558879093347
 45
-0.0000356891682921
 46
-36.87700042616381
 79
     2
 49
8.060547042976009
 49
-2551.147945737283
 53
276.1416
 43
12165.79709871882
 44
1789.558879093347
 45
-0.0000356891682921
 46
-36.87700042616381
 79
     2
 49
8.060547042976009
 49
-2551.147945737283
 53
276.1416
 43
12176.74910530899
 44
1789.558879093347
 45
-0.0000356891682921
 46
-36.87700042616381
 79
     2
 49
8.060547042976009
 49
-2551.147945737283
 53
276.1416
 43
12187.70143969558
 44
1789.558879093347
 45
-0.0000356891682921
 46
-36.87700042616381
 79
     2
 49
8.060547042976009
 49
-2551.147945737283
 53
276.1416
 43
12198.65344628576
 44
1789.558879093347
 45
-0.0000356891682921
 46
-36.87700042616381
 79
     2
 49
8.060547042976009
 49
-2551.147945737283
 53
276.1416
 43
12209.60545287592
 44
1789.558879093347
 45
-0.0000356891682921
 46
-36.87700042616381
 79
     2
 49
8.060547042976009
 49
-2551.147945737283
 53
276.1416
 43
12220.55745946609
 44
1789.558879093347
 45
-0.0000356891682921
 46
-36.87700042616381
 79
     2
 49
8.060547042976009
 49
-2551.147945737283
 53
276.1416
 43
12231.50946605626
 44
1789.558879093347
 45
-0.0000356891682921
 46
-36.87700042616381
 79
     2
 49
8.060547042976009
 49
-2551.147945737283
 53
276.1416
 43
12242.46147264642
 44
1789.558879093347
 45
-0.0000356891682921
 46
-36.87700042616381
 79
     2
 49
8.060547042976009
 49
-2551.147945737283
 53
276.1416
 43
12253.41347923659
 44
1789.558879093347
 45
-0.0000356891682921
 46
-36.87700042616381
 79
     2
 49
8.060547042976009
 49
-2551.147945737283
 53
276.1416
 43
12264.36548582675
 44
1789.558879093347
 45
-0.0000356891682921
 46
-36.87700042616381
 79
     2
 49
8.060547042976009
 49
-2551.147945737283
 53
276.1416
 43
12275.31749241693
 44
1789.558879093347
 45
-0.0000356891682921
 46
-36.87700042616381
 79
     2
 49
8.060547042976009
 49
-2551.147945737283
 53
276.1416
 43
12286.26949900709
 44
1789.558879093347
 45
-0.0000356891682921
 46
-36.87700042616381
 79
     2
 49
8.060547042976009
 49
-2551.147945737283
 53
83.85800000000008
 43
12033.21714385823
 44
1781.544616906569
 45
10.9520277214346
 46
-0.0000684758235829
 79
     2
 49
8.060547042975896
 49
-2551.147945737254
 53
83.85800000000008
 43
12033.21714385823
 44
1744.667616643426
 45
10.9520277214346
 46
-0.0000684758235829
 79
     2
 49
8.060547042975896
 49
-2551.147945737254
 53
83.85800000000008
 43
12033.21714385823
 44
1707.790518041351
 45
10.9520277214346
 46
-0.0000684758235829
 79
     2
 49
8.060547042975896
 49
-2551.147945737254
 53
83.85800000000008
 43
12033.21714385823
 44
1670.913419439283
 45
10.9520277214346
 46
-0.0000684758235829
 79
     2
 49
8.060547042975896
 49
-2551.147945737254
 53
83.85800000000008
 43
12033.21714385823
 44
1634.036320837214
 45
10.9520277214346
 46
-0.0000684758235829
 79
     2
 49
8.060547042975896
 49
-2551.147945737254
 53
83.85800000000008
 43
12033.21714385823
 44
1597.159222235139
 45
10.9520277214346
 46
-0.0000684758235829
 79
     2
 49
8.060547042975896
 49
-2551.147945737254
 53
83.85800000000008
 43
12033.21714385823
 44
1560.282123633067
 45
10.9520277214346
 46
-0.0000684758235829
 79
     2
 49
8.060547042975896
 49
-2551.147945737254
 53
83.85800000000008
 43
12033.21714385823
 44
1523.405025030995
 45
10.9520277214346
 46
-0.0000684758235829
 79
     2
 49
8.060547042975896
 49
-2551.147945737254
 53
83.85800000000008
 43
12033.21714385823
 44
1486.527926428927
 45
10.9520277214346
 46
-0.0000684758235829
 79
     2
 49
8.060547042975896
 49
-2551.147945737254
 53
83.85800000000008
 43
12033.21714385823
 44
1449.649188844694
 45
10.9520277214346
 46
-0.0000684758235829
 79
     2
 49
8.060547042975896
 49
-2551.147945737254
 53
83.85800000000008
 43
12033.21714385823
 44
1412.772090242622
 45
10.9520277214346
 46
-0.0000684758235829
 79
     2
 49
8.060547042975896
 49
-2551.147945737254
 53
83.85800000000008
 43
12033.21714385823
 44
1375.894991640547
 45
10.9520277214346
 46
-0.0000684758235829
 79
     2
 49
8.060547042975896
 49
-2551.147945737254
 53
83.85800000000008
 43
12033.21714385823
 44
1339.017893038479
 45
10.9520277214346
 46
-0.0000684758235829
 79
     2
 49
8.060547042975896
 49
-2551.147945737254
 53
83.85800000000008
 43
12033.21714385823
 44
1302.140794436411
 45
10.9520277214346
 46
-0.0000684758235829
 79
     2
 49
8.060547042975896
 49
-2551.147945737254
 53
83.85800000000008
 43
12033.21714385823
 44
1265.263695834335
 45
10.9520277214346
 46
-0.0000684758235829
 79
     2
 49
8.060547042975896
 49
-2551.147945737254
 53
83.85800000000008
 43
12033.21714385823
 44
1228.386597232264
 45
10.9520277214346
 46
-0.0000684758235829
 79
     2
 49
8.060547042975896
 49
-2551.147945737254
 53
83.85800000000008
 43
12033.21714385823
 44
1191.509498630192
 45
10.9520277214346
 46
-0.0000684758235829
 79
     2
 49
8.060547042975896
 49
-2551.147945737254
 53
83.85800000000008
 43
12033.21714385823
 44
1154.63240002812
 45
10.9520277214346
 46
-0.0000684758235829
 79
     2
 49
8.060547042975896
 49
-2551.147945737254
 53
83.85800000000008
 43
12033.21714385823
 44
1117.755301426052
 45
10.9520277214346
 46
-0.0000684758235829
 79
     2
 49
8.060547042975896
 49
-2551.147945737254
 53
83.85800000000008
 43
12033.21714385823
 44
1080.87820282398
 45
10.9520277214346
 46
-0.0000684758235829
 79
     2
 49
8.060547042975896
 49
-2551.147945737254
 53
83.85800000000008
 43
12033.21714385823
 44
1044.001104221905
 45
10.9520277214346
 46
-0.0000684758235829
 79
     2
 49
8.060547042975896
 49
-2551.147945737254
 53
83.85800000000008
 43
12033.21714385823
 44
1007.124005619836
 45
10.9520277214346
 46
-0.0000684758235829
 79
     2
 49
8.060547042975896
 49
-2551.147945737254
 53
83.85800000000008
 43
12033.21714385823
 44
970.2469070177649
 45
10.9520277214346
 46
-0.0000684758235829
 79
     2
 49
8.060547042975896
 49
-2551.147945737254
 53
83.85800000000008
 43
12033.21714385823
 44
933.3698084156932
 45
10.9520277214346
 46
-0.0000684758235829
 79
     2
 49
8.060547042975896
 49
-2551.147945737254
 53
83.85800000000008
 43
12033.21714385823
 44
896.4927098136177
 45
10.9520277214346
 46
-0.0000684758235829
 79
     2
 49
8.060547042975896
 49
-2551.147945737254
 53
83.85800000000008
 43
12033.21714385823
 44
859.6156112115496
 45
10.9520277214346
 46
-0.0000684758235829
 79
     2
 49
8.060547042975896
 49
-2551.147945737254
 53
83.85800000000008
 43
12033.21714385823
 44
822.7385126094741
 45
10.9520277214346
 46
-0.0000684758235829
 79
     2
 49
8.060547042975896
 49
-2551.147945737254
 53
83.85800000000008
 43
12033.21714385823
 44
785.861414007406
 45
10.9520277214346
 46
-0.0000684758235829
 79
     2
 49
8.060547042975896
 49
-2551.147945737254
 53
83.85800000000008
 43
12033.21714385823
 44
748.9843154053305
 45
10.9520277214346
 46
-0.0000684758235829
 79
     2
 49
8.060547042975896
 49
-2551.147945737254
 53
83.85800000000008
 43
12033.21714385823
 44
712.1072168032624
 45
10.9520277214346
 46
-0.0000684758235829
 79
     2
 49
8.060547042975896
 49
-2551.147945737254
 53
83.85800000000008
 43
12033.21714385823
 44
675.2301182011942
 45
10.9520277214346
 46
-0.0000684758235829
 79
     2
 49
8.060547042975896
 49
-2551.147945737254
 53
83.85800000000008
 43
12033.21714385823
 44
638.3530195991188
 45
10.9520277214346
 46
-0.0000684758235829
 79
     2
 49
8.060547042975896
 49
-2551.147945737254
 53
83.85800000000008
 43
12033.21714385823
 44
601.475920997047
 45
10.9520277214346
 46
-0.0000684758235829
 79
     2
 49
8.060547042975896
 49
-2551.147945737254
 53
83.85800000000008
 43
12033.21714385823
 44
564.5988223949752
 45
10.9520277214346
 46
-0.0000684758235829
 79
     2
 49
8.060547042975896
 49
-2551.147945737254
 53
83.85800000000008
 43
12033.21714385823
 44
527.7217237929034
 45
10.9520277214346
 46
-0.0000684758235829
 79
     2
 49
8.060547042975896
 49
-2551.147945737254
 53
83.85800000000008
 43
12033.21714385823
 44
490.8446251908316
 45
10.9520277214346
 46
-0.0000684758235829
 79
     2
 49
8.060547042975896
 49
-2551.147945737254
 53
83.85800000000008
 43
12033.21714385823
 44
453.9675265887636
 45
10.9520277214346
 46
-0.0000684758235829
 79
     2
 49
8.060547042975896
 49
-2551.147945737254
 53
83.85800000000008
 43
12033.21714385823
 44
417.0904279866918
 45
10.9520277214346
 46
-0.0000684758235829
 79
     2
 49
8.060547042975896
 49
-2551.147945737254
 53
83.85800000000008
 43
12033.21714385823
 44
380.2133293846164
 45
10.9520277214346
 46
-0.0000684758235829
 79
     2
 49
8.060547042975896
 49
-2551.147945737254
 53
83.85800000000008
 43
12033.21714385823
 44
343.3362307825482
 45
10.9520277214346
 46
-0.0000684758235829
 79
     2
 49
8.060547042975896
 49
-2551.147945737254
 53
83.85800000000008
 43
12033.21714385823
 44
306.4591321804765
 45
10.9520277214346
 46
-0.0000684758235829
 79
     2
 49
8.060547042975896
 49
-2551.147945737254
 53
83.85800000000008
 43
12033.21714385823
 44
269.5820335784047
 45
10.9520277214346
 46
-0.0000684758235829
 79
     2
 49
8.060547042975896
 49
-2551.147945737254
 53
83.85800000000008
 43
12033.21714385823
 44
232.704934976332
 45
10.9520277214346
 46
-0.0000684758235829
 79
     2
 49
8.060547042975896
 49
-2551.147945737254
 53
83.85800000000008
 43
12033.21714385823
 44
195.8278363742602
 45
10.9520277214346
 46
-0.0000684758235829
 79
     2
 49
8.060547042975896
 49
-2551.147945737254
 53
83.85800000000008
 43
12033.21714385823
 44
158.9507377721884
 45
10.9520277214346
 46
-0.0000684758235829
 79
     2
 49
8.060547042975896
 49
-2551.147945737254
 53
83.85800000000008
 43
12033.21714385823
 44
122.0736391701166
 45
10.9520277214346
 46
-0.0000684758235829
 79
     2
 49
8.060547042975896
 49
-2551.147945737254
 53
83.85800000000008
 43
12033.21714385823
 44
85.19654056804483
 45
10.9520277214346
 46
-0.0000684758235829
 79
     2
 49
8.060547042975896
 49
-2551.147945737254
 53
83.85800000000008
 43
12033.21714385823
 44
48.31944196596942
 45
10.9520277214346
 46
-0.0000684758235829
 79
     2
 49
8.060547042975896
 49
-2551.147945737254
 53
83.85800000000008
 43
12033.21714385823
 44
11.44234336390491
 45
10.9520277214346
 46
-0.0000684758235829
 79
     2
 49
8.060547042975896
 49
-2551.147945737254
 53
83.85800000000008
 43
12033.21714385823
 44
-25.43475523816687
 45
10.9520277214346
 46
-0.0000684758235829
 79
     2
 49
8.060547042975896
 49
-2551.147945737254
 53
83.85800000000008
 43
12033.21714385823
 44
-62.31185384024229
 45
10.9520277214346
 46
-0.0000684758235829
 79
     2
 49
8.060547042975896
 49
-2551.147945737254
 53
83.85800000000008
 43
12033.21714385823
 44
-99.18895244231407
 45
10.9520277214346
 46
-0.0000684758235829
 79
     2
 49
8.060547042975896
 49
-2551.147945737254
 53
83.85800000000008
 43
12033.21714385823
 44
-136.0660510443858
 45
10.9520277214346
 46
-0.0000684758235829
 79
     2
 49
8.060547042975896
 49
-2551.147945737254
 53
83.85800000000008
 43
12033.21714385823
 44
-172.9431496464576
 45
10.9520277214346
 46
-0.0000684758235829
 79
     2
 49
8.060547042975896
 49
-2551.147945737254
 53
83.85800000000008
 43
12033.21714385823
 44
-209.8202482485258
 45
10.9520277214346
 46
-0.0000684758235829
 79
     2
 49
8.060547042975896
 49
-2551.147945737254
 53
83.85800000000008
 43
12033.21714385823
 44
-246.6973468505976
 45
10.9520277214346
 46
-0.0000684758235829
 79
     2
 49
8.060547042975896
 49
-2551.147945737254
 53
83.85800000000008
 43
12033.21714385823
 44
-283.574445452673
 45
10.9520277214346
 46
-0.0000684758235829
 79
     2
 49
8.060547042975896
 49
-2551.147945737254
 53
83.85800000000008
 43
12033.21714385823
 44
-320.4515440547411
 45
10.9520277214346
 46
-0.0000684758235829
 79
     2
 49
8.060547042975896
 49
-2551.147945737254
 53
83.85800000000008
 43
12033.21714385823
 44
-357.3286426568129
 45
10.9520277214346
 46
-0.0000684758235829
 79
     2
 49
8.060547042975896
 49
-2551.147945737254
 53
83.85800000000008
 43
12033.21714385823
 44
-394.2057412588847
 45
10.9520277214346
 46
-0.0000684758235829
 79
     2
 49
8.060547042975896
 49
-2551.147945737254
 53
83.85800000000008
 43
12033.21714385823
 44
-431.0828398609564
 45
10.9520277214346
 46
-0.0000684758235829
 79
     2
 49
8.060547042975896
 49
-2551.147945737254
 53
83.85800000000008
 43
12033.21714385823
 44
-467.9599384630282
 45
10.9520277214346
 46
-0.0000684758235829
 79
     2
 49
8.060547042975896
 49
-2551.147945737254
 53
83.85800000000008
 43
12033.21714385823
 44
-504.8370370651
 45
10.9520277214346
 46
-0.0000684758235829
 79
     2
 49
8.060547042975896
 49
-2551.147945737254
 53
83.85800000000008
 43
12033.21714385823
 44
-541.7141356671718
 45
10.9520277214346
 46
-0.0000684758235829
 79
     2
 49
8.060547042975896
 49
-2551.147945737254
 53
83.85800000000008
 43
12033.21714385823
 44
-578.5912342692435
 45
10.9520277214346
 46
-0.0000684758235829
 79
     2
 49
8.060547042975896
 49
-2551.147945737254
 53
83.85800000000008
 43
12033.21714385823
 44
-615.468332871319
 45
10.9520277214346
 46
-0.0000684758235829
 79
     2
 49
8.060547042975896
 49
-2551.147945737254
 53
83.85800000000008
 43
12033.21714385823
 44
-652.3454314733871
 45
10.9520277214346
 46
-0.0000684758235829
 79
     2
 49
8.060547042975896
 49
-2551.147945737254
 53
83.85800000000008
 43
12033.21714385823
 44
-689.2225300754553
 45
10.9520277214346
 46
-0.0000684758235829
 79
     2
 49
8.060547042975896
 49
-2551.147945737254
 53
83.85800000000008
 43
12033.21714385823
 44
-726.0996286775307
 45
10.9520277214346
 46
-0.0000684758235829
 79
     2
 49
8.060547042975896
 49
-2551.147945737254
 53
83.25300000000003
 43
12029.07795997221
 44
1766.472799199509
 45
10.95204383447483
 46
0.0000798601498432
 79
     2
 49
7.399774995313283
 49
-4560.119085052519
 53
83.25300000000003
 43
12029.07795997221
 44
1729.595864495651
 45
10.95204383447483
 46
0.0000798601498432
 79
     2
 49
7.399774995313283
 49
-4560.119085052519
 53
83.25300000000003
 43
12029.07795997221
 44
1692.71876589358
 45
10.95204383447483
 46
0.0000798601498432
 79
     2
 49
7.399774995313283
 49
-4560.119085052519
 53
83.25300000000003
 43
12029.07795997221
 44
1655.841667291508
 45
10.95204383447483
 46
0.0000798601498432
 79
     2
 49
7.399774995313283
 49
-4560.119085052519
 53
83.25300000000003
 43
12029.07795997221
 44
1618.96456868944
 45
10.95204383447483
 46
0.0000798601498432
 79
     2
 49
7.399774995313283
 49
-4560.119085052519
 53
83.25300000000003
 43
12029.07795997221
 44
1582.087470087368
 45
10.95204383447483
 46
0.0000798601498432
 79
     2
 49
7.399774995313283
 49
-4560.119085052519
 53
83.25300000000003
 43
12029.07795997221
 44
1545.210371485293
 45
10.95204383447483
 46
0.0000798601498432
 79
     2
 49
7.399774995313283
 49
-4560.119085052519
 53
83.25300000000003
 43
12029.07795997221
 44
1508.333272883225
 45
10.95204383447483
 46
0.0000798601498432
 79
     2
 49
7.399774995313283
 49
-4560.119085052519
 53
83.25300000000003
 43
12029.07795997221
 44
1471.456174281149
 45
10.95204383447483
 46
0.0000798601498432
 79
     2
 49
7.399774995313283
 49
-4560.119085052519
 53
83.25300000000003
 43
12029.07795997221
 44
1434.580386864807
 45
10.95204383447483
 46
0.0000798601498432
 79
     2
 49
7.399774995313283
 49
-4560.119085052519
 53
83.25300000000003
 43
12029.07795997221
 44
1397.703288262739
 45
10.95204383447483
 46
0.0000798601498432
 79
     2
 49
7.399774995313283
 49
-4560.119085052519
 53
83.25300000000003
 43
12029.07795997221
 44
1360.826189660663
 45
10.95204383447483
 46
0.0000798601498432
 79
     2
 49
7.399774995313283
 49
-4560.119085052519
 53
83.25300000000003
 43
12029.07795997221
 44
1323.949091058595
 45
10.95204383447483
 46
0.0000798601498432
 79
     2
 49
7.399774995313283
 49
-4560.119085052519
 53
83.25300000000003
 43
12029.07795997221
 44
1287.07199245652
 45
10.95204383447483
 46
0.0000798601498432
 79
     2
 49
7.399774995313283
 49
-4560.119085052519
 53
83.25300000000003
 43
12029.07795997221
 44
1250.194893854444
 45
10.95204383447483
 46
0.0000798601498432
 79
     2
 49
7.399774995313283
 49
-4560.119085052519
 53
83.25300000000003
 43
12029.07795997221
 44
1213.317795252377
 45
10.95204383447483
 46
0.0000798601498432
 79
     2
 49
7.399774995313283
 49
-4560.119085052519
 53
83.25300000000003
 43
12029.07795997221
 44
1176.440696650308
 45
10.95204383447483
 46
0.0000798601498432
 79
     2
 49
7.399774995313283
 49
-4560.119085052519
 53
83.25300000000003
 43
12029.07795997221
 44
1139.563598048233
 45
10.95204383447483
 46
0.0000798601498432
 79
     2
 49
7.399774995313283
 49
-4560.119085052519
 53
83.25300000000003
 43
12029.07795997221
 44
1102.686499446161
 45
10.95204383447483
 46
0.0000798601498432
 79
     2
 49
7.399774995313283
 49
-4560.119085052519
 53
83.25300000000003
 43
12029.07795997221
 44
1065.809400844089
 45
10.95204383447483
 46
0.0000798601498432
 79
     2
 49
7.399774995313283
 49
-4560.119085052519
 53
83.25300000000003
 43
12029.07795997221
 44
1028.932302242021
 45
10.95204383447483
 46
0.0000798601498432
 79
     2
 49
7.399774995313283
 49
-4560.119085052519
 53
83.25300000000003
 43
12029.07795997221
 44
992.0552036399531
 45
10.95204383447483
 46
0.0000798601498432
 79
     2
 49
7.399774995313283
 49
-4560.119085052519
 53
83.25300000000003
 43
12029.07795997221
 44
955.1781050378776
 45
10.95204383447483
 46
0.0000798601498432
 79
     2
 49
7.399774995313283
 49
-4560.119085052519
 53
83.25300000000003
 43
12029.07795997221
 44
918.3010064358022
 45
10.95204383447483
 46
0.0000798601498432
 79
     2
 49
7.399774995313283
 49
-4560.119085052519
 53
83.25300000000003
 43
12029.07795997221
 44
881.423907833734
 45
10.95204383447483
 46
0.0000798601498432
 79
     2
 49
7.399774995313283
 49
-4560.119085052519
 53
83.25300000000003
 43
12029.07795997221
 44
844.5468092316623
 45
10.95204383447483
 46
0.0000798601498432
 79
     2
 49
7.399774995313283
 49
-4560.119085052519
 53
83.25300000000003
 43
12029.07795997221
 44
807.6697106295906
 45
10.95204383447483
 46
0.0000798601498432
 79
     2
 49
7.399774995313283
 49
-4560.119085052519
 53
83.25300000000003
 43
12029.07795997221
 44
770.7926120275187
 45
10.95204383447483
 46
0.0000798601498432
 79
     2
 49
7.399774995313283
 49
-4560.119085052519
 53
83.25300000000003
 43
12029.07795997221
 44
733.9155134254469
 45
10.95204383447483
 46
0.0000798601498432
 79
     2
 49
7.399774995313283
 49
-4560.119085052519
 53
83.25300000000003
 43
12029.07795997221
 44
697.0384148233752
 45
10.95204383447483
 46
0.0000798601498432
 79
     2
 49
7.399774995313283
 49
-4560.119085052519
 53
83.25300000000003
 43
12029.07795997221
 44
660.1613162213034
 45
10.95204383447483
 46
0.0000798601498432
 79
     2
 49
7.399774995313283
 49
-4560.119085052519
 53
83.25300000000003
 43
12029.07795997221
 44
623.2842176192316
 45
10.95204383447483
 46
0.0000798601498432
 79
     2
 49
7.399774995313283
 49
-4560.119085052519
 53
83.25300000000003
 43
12029.07795997221
 44
586.4071190171598
 45
10.95204383447483
 46
0.0000798601498432
 79
     2
 49
7.399774995313283
 49
-4560.119085052519
 53
83.25300000000003
 43
12029.07795997221
 44
549.5300204150916
 45
10.95204383447483
 46
0.0000798601498432
 79
     2
 49
7.399774995313283
 49
-4560.119085052519
 53
83.25300000000003
 43
12029.07795997221
 44
512.6529218130199
 45
10.95204383447483
 46
0.0000798601498432
 79
     2
 49
7.399774995313283
 49
-4560.119085052519
 53
83.25300000000003
 43
12029.07795997221
 44
475.7758232109481
 45
10.95204383447483
 46
0.0000798601498432
 79
     2
 49
7.399774995313283
 49
-4560.119085052519
 53
83.25300000000003
 43
12029.07795997221
 44
438.8987246088727
 45
10.95204383447483
 46
0.0000798601498432
 79
     2
 49
7.399774995313283
 49
-4560.119085052519
 53
83.25300000000003
 43
12029.07795997221
 44
402.0216260068045
 45
10.95204383447483
 46
0.0000798601498432
 79
     2
 49
7.399774995313283
 49
-4560.119085052519
 53
83.25300000000003
 43
12029.07795997221
 44
365.1445274047292
 45
10.95204383447483
 46
0.0000798601498432
 79
     2
 49
7.399774995313283
 49
-4560.119085052519
 53
83.25300000000003
 43
12029.07795997221
 44
328.267428802661
 45
10.95204383447483
 46
0.0000798601498432
 79
     2
 49
7.399774995313283
 49
-4560.119085052519
 53
83.25300000000003
 43
12029.07795997221
 44
291.3903302005892
 45
10.95204383447483
 46
0.0000798601498432
 79
     2
 49
7.399774995313283
 49
-4560.119085052519
 53
83.25300000000003
 43
12029.07795997221
 44
254.5132315985175
 45
10.95204383447483
 46
0.0000798601498432
 79
     2
 49
7.399774995313283
 49
-4560.119085052519
 53
83.25300000000003
 43
12029.07795997221
 44
217.6361329964448
 45
10.95204383447483
 46
0.0000798601498432
 79
     2
 49
7.399774995313283
 49
-4560.119085052519
 53
83.25300000000003
 43
12029.07795997221
 44
180.7590343943729
 45
10.95204383447483
 46
0.0000798601498432
 79
     2
 49
7.399774995313283
 49
-4560.119085052519
 53
83.25300000000003
 43
12029.07795997221
 44
143.8819357923012
 45
10.95204383447483
 46
0.0000798601498432
 79
     2
 49
7.399774995313283
 49
-4560.119085052519
 53
83.25300000000003
 43
12029.07795997221
 44
107.0048371902294
 45
10.95204383447483
 46
0.0000798601498432
 79
     2
 49
7.399774995313283
 49
-4560.119085052519
 53
83.25300000000003
 43
12029.07795997221
 44
70.12773858816126
 45
10.95204383447483
 46
0.0000798601498432
 79
     2
 49
7.399774995313283
 49
-4560.119085052519
 53
83.25300000000003
 43
12029.07795997221
 44
33.25063998608584
 45
10.95204383447483
 46
0.0000798601498432
 79
     2
 49
7.399774995313283
 49
-4560.119085052519
 53
83.25300000000003
 43
12029.07795997221
 44
-3.626458615985939
 45
10.95204383447483
 46
0.0000798601498432
 79
     2
 49
7.399774995313283
 49
-4560.119085052519
 53
83.25300000000003
 43
12029.07795997221
 44
-40.50355721805772
 45
10.95204383447483
 46
0.0000798601498432
 79
     2
 49
7.399774995313283
 49
-4560.119085052519
 53
83.25300000000003
 43
12029.07795997221
 44
-77.3806558201295
 45
10.95204383447483
 46
0.0000798601498432
 79
     2
 49
7.399774995313283
 49
-4560.119085052519
 53
83.25300000000003
 43
12029.07795997221
 44
-114.2577544221976
 45
10.95204383447483
 46
0.0000798601498432
 79
     2
 49
7.399774995313283
 49
-4560.119085052519
 53
83.25300000000003
 43
12029.07795997221
 44
-151.1348530242694
 45
10.95204383447483
 46
0.0000798601498432
 79
     2
 49
7.399774995313283
 49
-4560.119085052519
 53
83.25300000000003
 43
12029.07795997221
 44
-188.0119516263412
 45
10.95204383447483
 46
0.0000798601498432
 79
     2
 49
7.399774995313283
 49
-4560.119085052519
 53
83.25300000000003
 43
12029.07795997221
 44
-224.8890502284166
 45
10.95204383447483
 46
0.0000798601498432
 79
     2
 49
7.399774995313283
 49
-4560.119085052519
 53
83.25300000000003
 43
12029.07795997221
 44
-261.7661488304848
 45
10.95204383447483
 46
0.0000798601498432
 79
     2
 49
7.399774995313283
 49
-4560.119085052519
 53
83.25300000000003
 43
12029.07795997221
 44
-298.6432474325602
 45
10.95204383447483
 46
0.0000798601498432
 79
     2
 49
7.399774995313283
 49
-4560.119085052519
 53
83.25300000000003
 43
12029.07795997221
 44
-335.5203460346284
 45
10.95204383447483
 46
0.0000798601498432
 79
     2
 49
7.399774995313283
 49
-4560.119085052519
 53
83.25300000000003
 43
12029.07795997221
 44
-372.3974446367001
 45
10.95204383447483
 46
0.0000798601498432
 79
     2
 49
7.399774995313283
 49
-4560.119085052519
 53
83.25300000000003
 43
12029.07795997221
 44
-409.2745432387719
 45
10.95204383447483
 46
0.0000798601498432
 79
     2
 49
7.399774995313283
 49
-4560.119085052519
 53
83.25300000000003
 43
12029.07795997221
 44
-446.1516418408437
 45
10.95204383447483
 46
0.0000798601498432
 79
     2
 49
7.399774995313283
 49
-4560.119085052519
 53
83.25300000000003
 43
12029.07795997221
 44
-483.0287404429155
 45
10.95204383447483
 46
0.0000798601498432
 79
     2
 49
7.399774995313283
 49
-4560.119085052519
 53
83.25300000000003
 43
12029.07795997221
 44
-519.9058390449872
 45
10.95204383447483
 46
0.0000798601498432
 79
     2
 49
7.399774995313283
 49
-4560.119085052519
 53
83.25300000000003
 43
12029.07795997221
 44
-556.782937647059
 45
10.95204383447483
 46
0.0000798601498432
 79
     2
 49
7.399774995313283
 49
-4560.119085052519
 53
83.25300000000003
 43
12029.07795997221
 44
-593.6600362491308
 45
10.95204383447483
 46
0.0000798601498432
 79
     2
 49
7.399774995313283
 49
-4560.119085052519
 53
83.25300000000003
 43
12029.07795997221
 44
-630.5371348511989
 45
10.95204383447483
 46
0.0000798601498432
 79
     2
 49
7.399774995313283
 49
-4560.119085052519
 53
83.25300000000003
 43
12029.07795997221
 44
-667.4142334532744
 45
10.95204383447483
 46
0.0000798601498432
 79
     2
 49
7.399774995313283
 49
-4560.119085052519
 53
83.25300000000003
 43
12029.07795997221
 44
-704.2913320553461
 45
10.95204383447483
 46
0.0000798601498432
 79
     2
 49
7.399774995313283
 49
-4560.119085052519
 53
83.25300000000003
 43
12029.07795997221
 44
-741.1684306574179
 45
10.95204383447483
 46
0.0000798601498432
 79
     2
 49
7.399774995313283
 49
-4560.119085052519
 53
83.25300000000003
 43
12029.07795997221
 44
-778.0455292594861
 45
10.95204383447483
 46
0.0000798601498432
 79
     2
 49
7.399774995313283
 49
-4560.119085052519
 53
83.25300000000003
 43
12029.07795997221
 44
-814.9226278615579
 45
10.95204383447483
 46
0.0000798601498432
 79
     2
 49
7.399774995313283
 49
-4560.119085052519
 53
83.25300000000003
 43
12029.07795997221
 44
-851.7997264636296
 45
10.95204383447483
 46
0.0000798601498432
 79
     2
 49
7.399774995313283
 49
-4560.119085052519
 53
83.25300000000003
 43
12029.07795997221
 44
-888.676825065705
 45
10.95204383447483
 46
0.0000798601498432
 79
     2
 49
7.399774995313283
 49
-4560.119085052519
 53
83.25300000000003
 43
12029.07795997221
 44
-925.5539236677732
 45
10.95204383447483
 46
0.0000798601498432
 79
     2
 49
7.399774995313283
 49
-4560.119085052519
 53
83.25300000000003
 43
12029.07795997221
 44
-962.4310222698413
 45
10.95204383447483
 46
0.0000798601498432
 79
     2
 49
7.399774995313283
 49
-4560.119085052519
 53
83.25300000000003
 43
12029.07795997221
 44
-999.3081208719168
 45
10.95204383447483
 46
0.0000798601498432
 79
     2
 49
7.399774995313283
 49
-4560.119085052519
 53
83.25300000000003
 43
12029.07795997221
 44
-1036.185219473988
 45
10.95204383447483
 46
0.0000798601498432
 79
     2
 49
7.399774995313283
 49
-4560.119085052519
 53
83.25300000000003
 43
12029.07795997221
 44
-1073.06231807606
 45
10.95204383447483
 46
0.0000798601498432
 79
     2
 49
7.399774995313283
 49
-4560.119085052519
 53
83.25300000000003
 43
12029.07795997221
 44
-1109.939416678132
 45
10.95204383447483
 46
0.0000798601498432
 79
     2
 49
7.399774995313283
 49
-4560.119085052519
 53
83.25300000000003
 43
12029.07795997221
 44
-1146.816515280204
 45
10.95204383447483
 46
0.0000798601498432
 79
     2
 49
7.399774995313283
 49
-4560.119085052519
 53
83.25300000000003
 43
12029.07795997221
 44
-1183.693613882276
 45
10.95204383447483
 46
0.0000798601498432
 79
     2
 49
7.399774995313283
 49
-4560.119085052519
 53
83.25300000000003
 43
12029.07795997221
 44
-1220.570712484347
 45
10.95204383447483
 46
0.0000798601498432
 79
     2
 49
7.399774995313283
 49
-4560.119085052519
 53
83.25300000000003
 43
12029.07795997221
 44
-1257.447811086419
 45
10.95204383447483
 46
0.0000798601498432
 79
     2
 49
7.399774995313283
 49
-4560.119085052519
 53
83.25300000000003
 43
12029.07795997221
 44
-1294.324909688487
 45
10.95204383447483
 46
0.0000798601498432
 79
     2
 49
7.399774995313283
 49
-4560.119085052519
 53
83.25300000000003
 43
12029.07795997221
 44
-1331.202008290563
 45
10.95204383447483
 46
0.0000798601498432
 79
     2
 49
7.399774995313283
 49
-4560.119085052519
 53
83.25300000000003
 43
12029.07795997221
 44
-1368.079106892635
 45
10.95204383447483
 46
0.0000798601498432
 79
     2
 49
7.399774995313283
 49
-4560.119085052519
 53
83.25300000000003
 43
12029.07795997221
 44
-1404.956205494703
 45
10.95204383447483
 46
0.0000798601498432
 79
     2
 49
7.399774995313283
 49
-4560.119085052519
 53
83.25300000000003
 43
12029.07795997221
 44
-1441.833304096774
 45
10.95204383447483
 46
0.0000798601498432
 79
     2
 49
7.399774995313283
 49
-4560.119085052519
 53
83.25300000000003
 43
12029.07795997221
 44
-1478.710402698846
 45
10.95204383447483
 46
0.0000798601498432
 79
     2
 49
7.399774995313283
 49
-4560.119085052519
 53
83.25300000000003
 43
12029.07795997221
 44
-1515.590779265241
 45
10.95204383447483
 46
0.0000798601498432
 79
     2
 49
7.399774995313283
 49
-4560.119085052519
 53
83.25300000000003
 43
12029.07795997221
 44
-1552.467877867312
 45
10.95204383447483
 46
0.0000798601498432
 79
     2
 49
7.399774995313283
 49
-4560.119085052519
 53
83.25300000000003
 43
12029.07795997221
 44
-1589.344976469384
 45
10.95204383447483
 46
0.0000798601498432
 79
     2
 49
7.399774995313283
 49
-4560.119085052519
 53
83.25300000000003
 43
12029.07795997221
 44
-1626.222075071452
 45
10.95204383447483
 46
0.0000798601498432
 79
     2
 49
7.399774995313283
 49
-4560.119085052519
 53
83.25300000000003
 43
12029.07795997221
 44
-1663.099173673524
 45
10.95204383447483
 46
0.0000798601498432
 79
     2
 49
7.399774995313283
 49
-4560.119085052519
 53
83.25300000000003
 43
12029.07795997221
 44
-1699.976272275599
 45
10.95204383447483
 46
0.0000798601498432
 79
     2
 49
7.399774995313283
 49
-4560.119085052519
 53
83.25300000000003
 43
12029.07795997221
 44
-1736.853370877671
 45
10.95204383447483
 46
0.0000798601498432
 79
     2
 49
7.399774995313283
 49
-4560.119085052519
 53
83.25300000000003
 43
12029.07795997221
 44
-1773.730469479743
 45
10.95204383447483
 46
0.0000798601498432
 79
     2
 49
7.399774995313283
 49
-4560.119085052519
 53
83.25300000000003
 43
12029.07795997221
 44
-1810.607568081815
 45
10.95204383447483
 46
0.0000798601498432
 79
     2
 49
7.399774995313283
 49
-4560.119085052519
 53
83.25300000000003
 43
12029.07795997221
 44
-1847.484666683883
 45
10.95204383447483
 46
0.0000798601498432
 79
     2
 49
7.399774995313283
 49
-4560.119085052519
 53
83.25300000000003
 43
12029.07795997221
 44
-1884.361765285955
 45
10.95204383447483
 46
0.0000798601498432
 79
     2
 49
7.399774995313283
 49
-4560.119085052519
 53
83.25300000000003
 43
12029.07795997221
 44
-1921.23886388803
 45
10.95204383447483
 46
0.0000798601498432
 79
     2
 49
7.399774995313283
 49
-4560.119085052519
 53
83.25300000000003
 43
12029.07795997221
 44
-1958.115962490098
 45
10.95204383447483
 46
0.0000798601498432
 79
     2
 49
7.399774995313283
 49
-4560.119085052519
 53
83.25300000000003
 43
12029.07795997221
 44
-1994.99306109217
 45
10.95204383447483
 46
0.0000798601498432
 79
     2
 49
7.399774995313283
 49
-4560.119085052519
 53
83.25300000000003
 43
12029.07795997221
 44
-2031.870159694242
 45
10.95204383447483
 46
0.0000798601498432
 79
     2
 49
7.399774995313283
 49
-4560.119085052519
 53
83.25300000000003
 43
12029.07795997221
 44
-2068.747258296314
 45
10.95204383447483
 46
0.0000798601498432
 79
     2
 49
7.399774995313283
 49
-4560.119085052519
 53
83.25300000000003
 43
12029.07795997221
 44
-2105.624356898386
 45
10.95204383447483
 46
0.0000798601498432
 79
     2
 49
7.399774995313283
 49
-4560.119085052519
 53
83.25300000000003
 43
12029.07795997221
 44
-2142.501455500458
 45
10.95204383447483
 46
0.0000798601498432
 79
     2
 49
7.399774995313283
 49
-4560.119085052519
 53
83.25300000000003
 43
12029.07795997221
 44
-2179.378554102529
 45
10.95204383447483
 46
0.0000798601498432
 79
     2
 49
7.399774995313283
 49
-4560.119085052519
 53
83.25300000000003
 43
12029.07795997221
 44
-2216.255652704601
 45
10.95204383447483
 46
0.0000798601498432
 79
     2
 49
7.399774995313283
 49
-4560.119085052519
 53
83.25300000000003
 43
12029.07795997221
 44
-2253.132751306676
 45
10.95204383447483
 46
0.0000798601498432
 79
     2
 49
7.399774995313283
 49
-4560.119085052519
 53
83.25300000000003
 43
12029.07795997221
 44
-2290.009849908745
 45
10.95204383447483
 46
0.0000798601498432
 79
     2
 49
7.399774995313283
 49
-4560.119085052519
 53
83.25300000000003
 43
12029.07795997221
 44
-2326.886948510816
 45
10.95204383447483
 46
0.0000798601498432
 79
     2
 49
7.399774995313283
 49
-4560.119085052519
 53
83.25300000000003
 43
12029.07795997221
 44
-2363.764047112888
 45
10.95204383447483
 46
0.0000798601498432
 79
     2
 49
7.399774995313283
 49
-4560.119085052519
 53
83.25300000000003
 43
12029.07795997221
 44
-2400.64114571496
 45
10.95204383447483
 46
0.0000798601498432
 79
     2
 49
7.399774995313283
 49
-4560.119085052519
 53
83.25300000000003
 43
12029.07795997221
 44
-2437.518244317032
 45
10.95204383447483
 46
0.0000798601498432
 79
     2
 49
7.399774995313283
 49
-4560.119085052519
 53
83.25300000000003
 43
12029.07795997221
 44
-2474.395342919104
 45
10.95204383447483
 46
0.0000798601498432
 79
     2
 49
7.399774995313283
 49
-4560.119085052519
 53
83.25300000000003
 43
12029.07795997221
 44
-2511.272441521172
 45
10.95204383447483
 46
0.0000798601498432
 79
     2
 49
7.399774995313283
 49
-4560.119085052519
 53
83.25300000000003
 43
12029.07795997221
 44
-2548.149540123243
 45
10.95204383447483
 46
0.0000798601498432
 79
     2
 49
7.399774995313283
 49
-4560.119085052519
 53
83.25300000000003
 43
12029.07795997221
 44
-2585.026638725319
 45
10.95204383447483
 46
0.0000798601498432
 79
     2
 49
7.399774995313283
 49
-4560.119085052519
 53
83.25300000000003
 43
12029.07795997221
 44
-2621.903737327387
 45
10.95204383447483
 46
0.0000798601498432
 79
     2
 49
7.399774995313283
 49
-4560.119085052519
 53
83.25300000000003
 43
12029.07795997221
 44
-2658.780835929459
 45
10.95204383447483
 46
0.0000798601498432
 79
     2
 49
7.399774995313283
 49
-4560.119085052519
 53
83.25300000000003
 43
12029.07795997221
 44
-2695.657934531531
 45
10.95204383447483
 46
0.0000798601498432
 79
     2
 49
7.399774995313283
 49
-4560.119085052519
 53
83.25300000000003
 43
12029.07795997221
 44
-2732.535033133602
 45
10.95204383447483
 46
0.0000798601498432
 79
     2
 49
7.399774995313283
 49
-4560.119085052519
 53
74.89100000000004
 43
12027.47451094534
 44
1762.959313142921
 45
10.95202665113163
 46
-0.000003043705463
 79
     2
 49
3.63896653076602
 49
-416.5337124354707
 53
74.89100000000004
 43
12027.47451094534
 44
1726.082214540846
 45
10.95202665113163
 46
-0.000003043705463
 79
     2
 49
3.63896653076602
 49
-416.5337124354707
 53
74.89100000000004
 43
12027.47451094534
 44
1689.205115938777
 45
10.95202665113163
 46
-0.000003043705463
 79
     2
 49
3.63896653076602
 49
-416.5337124354707
 53
74.89100000000004
 43
12027.47451094534
 44
1652.328017336702
 45
10.95202665113163
 46
-0.000003043705463
 79
     2
 49
3.63896653076602
 49
-416.5337124354707
 53
74.89100000000004
 43
12027.47451094534
 44
1615.45091873463
 45
10.95202665113163
 46
-0.000003043705463
 79
     2
 49
3.63896653076602
 49
-416.5337124354707
 53
74.89100000000004
 43
12027.47451094534
 44
1578.573820132558
 45
10.95202665113163
 46
-0.000003043705463
 79
     2
 49
3.63896653076602
 49
-416.5337124354707
 53
74.89100000000004
 43
12027.47451094534
 44
1541.69672153049
 45
10.95202665113163
 46
-0.000003043705463
 79
     2
 49
3.63896653076602
 49
-416.5337124354707
 53
74.89100000000004
 43
12027.47451094534
 44
1504.819622928415
 45
10.95202665113163
 46
-0.000003043705463
 79
     2
 49
3.63896653076602
 49
-416.5337124354707
 53
74.89100000000004
 43
12027.47451094534
 44
1467.943507715645
 45
10.95202665113163
 46
-0.000003043705463
 79
     2
 49
3.63896653076602
 49
-416.5337124354707
 53
74.89100000000004
 43
12027.47451094534
 44
1431.066409113569
 45
10.95202665113163
 46
-0.000003043705463
 79
     2
 49
3.63896653076602
 49
-416.5337124354707
 53
74.89100000000004
 43
12027.47451094534
 44
1394.189310511498
 45
10.95202665113163
 46
-0.000003043705463
 79
     2
 49
3.63896653076602
 49
-416.5337124354707
 53
67.06200000000002
 43
12029.94901343101
 44
1773.821142934634
 45
10.95204222691618
 46
0.0000810236171289
 79
     2
 49
8.386475035331908
 49
-1593.356600854788
 53
67.06200000000002
 43
12029.94901343101
 44
1736.94407711221
 45
10.95204222691618
 46
0.0000810236171289
 79
     2
 49
8.386475035331908
 49
-1593.356600854788
 53
67.06200000000002
 43
12029.94901343101
 44
1700.066978510138
 45
10.95204222691618
 46
0.0000810236171289
 79
     2
 49
8.386475035331908
 49
-1593.356600854788
 53
67.06200000000002
 43
12029.94901343101
 44
1663.189879908066
 45
10.95204222691618
 46
0.0000810236171289
 79
     2
 49
8.386475035331908
 49
-1593.356600854788
 53
67.06200000000002
 43
12029.94901343101
 44
1626.312781305991
 45
10.95204222691618
 46
0.0000810236171289
 79
     2
 49
8.386475035331908
 49
-1593.356600854788
 53
67.06200000000002
 43
12029.94901343101
 44
1589.435682703923
 45
10.95204222691618
 46
0.0000810236171289
 79
     2
 49
8.386475035331908
 49
-1593.356600854788
 53
67.06200000000002
 43
12029.94901343101
 44
1552.558584101851
 45
10.95204222691618
 46
0.0000810236171289
 79
     2
 49
8.386475035331908
 49
-1593.356600854788
 53
67.06200000000002
 43
12029.94901343101
 44
1515.681485499779
 45
10.95204222691618
 46
0.0000810236171289
 79
     2
 49
8.386475035331908
 49
-1593.356600854788
 53
67.06200000000002
 43
12029.94901343101
 44
1478.804386897711
 45
10.95204222691618
 46
0.0000810236171289
 79
     2
 49
8.386475035331908
 49
-1593.356600854788
 53
67.06200000000002
 43
12029.94901343101
 44
1441.926304906337
 45
10.95204222691618
 46
0.0000810236171289
 79
     2
 49
8.386475035331908
 49
-1593.356600854788
 53
67.06200000000002
 43
12029.94901343101
 44
1405.049206304269
 45
10.95204222691618
 46
0.0000810236171289
 79
     2
 49
8.386475035331908
 49
-1593.356600854788
 53
67.06200000000002
 43
12029.94901343101
 44
1368.172107702194
 45
10.95204222691618
 46
0.0000810236171289
 79
     2
 49
8.386475035331908
 49
-1593.356600854788
 53
67.06200000000002
 43
12029.94901343101
 44
1331.295009100126
 45
10.95204222691618
 46
0.0000810236171289
 79
     2
 49
8.386475035331908
 49
-1593.356600854788
 53
67.06200000000002
 43
12029.94901343101
 44
1294.417910498057
 45
10.95204222691618
 46
0.0000810236171289
 79
     2
 49
8.386475035331908
 49
-1593.356600854788
 53
67.06200000000002
 43
12029.94901343101
 44
1257.540811895982
 45
10.95204222691618
 46
0.0000810236171289
 79
     2
 49
8.386475035331908
 49
-1593.356600854788
 53
67.06200000000002
 43
12029.94901343101
 44
1220.663713293914
 45
10.95204222691618
 46
0.0000810236171289
 79
     2
 49
8.386475035331908
 49
-1593.356600854788
 53
67.06200000000002
 43
12029.94901343101
 44
1183.786614691838
 45
10.95204222691618
 46
0.0000810236171289
 79
     2
 49
8.386475035331908
 49
-1593.356600854788
 53
67.06200000000002
 43
12029.94901343101
 44
1146.909516089763
 45
10.95204222691618
 46
0.0000810236171289
 79
     2
 49
8.386475035331908
 49
-1593.356600854788
 53
67.06200000000002
 43
12029.94901343101
 44
1110.032417487695
 45
10.95204222691618
 46
0.0000810236171289
 79
     2
 49
8.386475035331908
 49
-1593.356600854788
 53
67.06200000000002
 43
12029.94901343101
 44
1073.155318885627
 45
10.95204222691618
 46
0.0000810236171289
 79
     2
 49
8.386475035331908
 49
-1593.356600854788
 53
67.06200000000002
 43
12029.94901343101
 44
1036.278220283551
 45
10.95204222691618
 46
0.0000810236171289
 79
     2
 49
8.386475035331908
 49
-1593.356600854788
 53
67.06200000000002
 43
12029.94901343101
 44
999.4011216814797
 45
10.95204222691618
 46
0.0000810236171289
 79
     2
 49
8.386475035331908
 49
-1593.356600854788
 53
67.06200000000002
 43
12029.94901343101
 44
962.5240230794078
 45
10.95204222691618
 46
0.0000810236171289
 79
     2
 49
8.386475035331908
 49
-1593.356600854788
 53
67.06200000000002
 43
12029.94901343101
 44
925.6469244773361
 45
10.95204222691618
 46
0.0000810236171289
 79
     2
 49
8.386475035331908
 49
-1593.356600854788
 53
67.06200000000002
 43
12029.94901343101
 44
888.769825875268
 45
10.95204222691618
 46
0.0000810236171289
 79
     2
 49
8.386475035331908
 49
-1593.356600854788
 53
67.06200000000002
 43
12029.94901343101
 44
851.8927272731962
 45
10.95204222691618
 46
0.0000810236171289
 79
     2
 49
8.386475035331908
 49
-1593.356600854788
 53
67.06200000000002
 43
12029.94901343101
 44
815.0156286711208
 45
10.95204222691618
 46
0.0000810236171289
 79
     2
 49
8.386475035331908
 49
-1593.356600854788
 53
67.06200000000002
 43
12029.94901343101
 44
778.1385300690526
 45
10.95204222691618
 46
0.0000810236171289
 79
     2
 49
8.386475035331908
 49
-1593.356600854788
 53
67.06200000000002
 43
12029.94901343101
 44
741.2614314669808
 45
10.95204222691618
 46
0.0000810236171289
 79
     2
 49
8.386475035331908
 49
-1593.356600854788
 53
67.06200000000002
 43
12029.94901343101
 44
704.384332864909
 45
10.95204222691618
 46
0.0000810236171289
 79
     2
 49
8.386475035331908
 49
-1593.356600854788
 53
67.06200000000002
 43
12029.94901343101
 44
667.5072342628336
 45
10.95204222691618
 46
0.0000810236171289
 79
     2
 49
8.386475035331908
 49
-1593.356600854788
 53
67.06200000000002
 43
12029.94901343101
 44
630.6301356607654
 45
10.95204222691618
 46
0.0000810236171289
 79
     2
 49
8.386475035331908
 49
-1593.356600854788
 53
67.06200000000002
 43
12029.94901343101
 44
593.7530370586937
 45
10.95204222691618
 46
0.0000810236171289
 79
     2
 49
8.386475035331908
 49
-1593.356600854788
 53
67.06200000000002
 43
12029.94901343101
 44
556.8759384566219
 45
10.95204222691618
 46
0.0000810236171289
 79
     2
 49
8.386475035331908
 49
-1593.356600854788
 53
67.06200000000002
 43
12029.94901343101
 44
519.9988398545501
 45
10.95204222691618
 46
0.0000810236171289
 79
     2
 49
8.386475035331908
 49
-1593.356600854788
 53
67.06200000000002
 43
12029.94901343101
 44
483.1217412524783
 45
10.95204222691618
 46
0.0000810236171289
 79
     2
 49
8.386475035331908
 49
-1593.356600854788
 53
67.06200000000002
 43
12029.94901343101
 44
446.2446426504065
 45
10.95204222691618
 46
0.0000810236171289
 79
     2
 49
8.386475035331908
 49
-1593.356600854788
 53
67.06200000000002
 43
12029.94901343101
 44
409.3675440483385
 45
10.95204222691618
 46
0.0000810236171289
 79
     2
 49
8.386475035331908
 49
-1593.356600854788
 53
67.06200000000002
 43
12029.94901343101
 44
372.4904454462667
 45
10.95204222691618
 46
0.0000810236171289
 79
     2
 49
8.386475035331908
 49
-1593.356600854788
 53
67.06200000000002
 43
12029.94901343101
 44
335.6133468441913
 45
10.95204222691618
 46
0.0000810236171289
 79
     2
 49
8.386475035331908
 49
-1593.356600854788
 53
52.43499999999998
 43
12023.42072950273
 44
1789.558879093347
 45
10.95203172552474
 46
-0.000054871588512
 79
     2
 49
4.503300162712174
 49
-1809.889024393906
 53
52.43499999999998
 43
12023.42072950273
 44
1752.681911609849
 45
10.95203172552474
 46
-0.000054871588512
 79
     2
 49
4.503300162712174
 49
-1809.889024393906
 53
52.43499999999998
 43
12023.42072950273
 44
1715.804813007773
 45
10.95203172552474
 46
-0.000054871588512
 79
     2
 49
4.503300162712174
 49
-1809.889024393906
 53
52.43499999999998
 43
12023.42072950273
 44
1678.927714405698
 45
10.95203172552474
 46
-0.000054871588512
 79
     2
 49
4.503300162712174
 49
-1809.889024393906
 53
52.43499999999998
 43
12023.42072950273
 44
1642.050615803629
 45
10.95203172552474
 46
-0.000054871588512
 79
     2
 49
4.503300162712174
 49
-1809.889024393906
 53
52.43499999999998
 43
12023.42072950273
 44
1605.173517201561
 45
10.95203172552474
 46
-0.000054871588512
 79
     2
 49
4.503300162712174
 49
-1809.889024393906
 53
52.43499999999998
 43
12023.42072950273
 44
1568.29641859949
 45
10.95203172552474
 46
-0.000054871588512
 79
     2
 49
4.503300162712174
 49
-1809.889024393906
 53
52.43499999999998
 43
12023.42072950273
 44
1531.419319997418
 45
10.95203172552474
 46
-0.000054871588512
 79
     2
 49
4.503300162712174
 49
-1809.889024393906
 53
52.43499999999998
 43
12023.42072950273
 44
1494.542221395342
 45
10.95203172552474
 46
-0.000054871588512
 79
     2
 49
4.503300162712174
 49
-1809.889024393906
 53
52.43499999999998
 43
12023.42072950273
 44
1457.663811607541
 45
10.95203172552474
 46
-0.000054871588512
 79
     2
 49
4.503300162712174
 49
-1809.889024393906
 53
52.43499999999998
 43
12023.42072950273
 44
1420.786713005473
 45
10.95203172552474
 46
-0.000054871588512
 79
     2
 49
4.503300162712174
 49
-1809.889024393906
 53
52.43499999999998
 43
12023.42072950273
 44
1383.909614403404
 45
10.95203172552474
 46
-0.000054871588512
 79
     2
 49
4.503300162712174
 49
-1809.889024393906
 53
52.43499999999998
 43
12023.42072950273
 44
1347.032515801329
 45
10.95203172552474
 46
-0.000054871588512
 79
     2
 49
4.503300162712174
 49
-1809.889024393906
 53
52.43499999999998
 43
12023.42072950273
 44
1310.155417199254
 45
10.95203172552474
 46
-0.000054871588512
 79
     2
 49
4.503300162712174
 49
-1809.889024393906
 53
52.43499999999998
 43
12023.42072950273
 44
1273.278318597186
 45
10.95203172552474
 46
-0.000054871588512
 79
     2
 49
4.503300162712174
 49
-1809.889024393906
 53
52.43499999999998
 43
12023.42072950273
 44
1236.401219995117
 45
10.95203172552474
 46
-0.000054871588512
 79
     2
 49
4.503300162712174
 49
-1809.889024393906
 53
52.43499999999998
 43
12023.42072950273
 44
1199.524121393042
 45
10.95203172552474
 46
-0.000054871588512
 79
     2
 49
4.503300162712174
 49
-1809.889024393906
 53
52.43499999999998
 43
12023.42072950273
 44
1162.647022790974
 45
10.95203172552474
 46
-0.000054871588512
 79
     2
 49
4.503300162712174
 49
-1809.889024393906
 53
52.43499999999998
 43
12023.42072950273
 44
1125.769924188898
 45
10.95203172552474
 46
-0.000054871588512
 79
     2
 49
4.503300162712174
 49
-1809.889024393906
 53
52.43499999999998
 43
12023.42072950273
 44
1088.89282558683
 45
10.95203172552474
 46
-0.000054871588512
 79
     2
 49
4.503300162712174
 49
-1809.889024393906
 53
52.43499999999998
 43
12023.42072950273
 44
1052.015726984762
 45
10.95203172552474
 46
-0.000054871588512
 79
     2
 49
4.503300162712174
 49
-1809.889024393906
 53
52.43499999999998
 43
12023.42072950273
 44
1015.138628382687
 45
10.95203172552474
 46
-0.000054871588512
 79
     2
 49
4.503300162712174
 49
-1809.889024393906
 53
52.43499999999998
 43
12023.42072950273
 44
978.2615297806115
 45
10.95203172552474
 46
-0.000054871588512
 79
     2
 49
4.503300162712174
 49
-1809.889024393906
 53
52.43499999999998
 43
12023.42072950273
 44
941.3844311785434
 45
10.95203172552474
 46
-0.000054871588512
 79
     2
 49
4.503300162712174
 49
-1809.889024393906
 53
52.43499999999998
 43
12023.42072950273
 44
904.5073325764679
 45
10.95203172552474
 46
-0.000054871588512
 79
     2
 49
4.503300162712174
 49
-1809.889024393906
 53
52.43499999999998
 43
12023.42072950273
 44
867.6302339743998
 45
10.95203172552474
 46
-0.000054871588512
 79
     2
 49
4.503300162712174
 49
-1809.889024393906
 53
52.43499999999998
 43
12023.42072950273
 44
830.7531353723243
 45
10.95203172552474
 46
-0.000054871588512
 79
     2
 49
4.503300162712174
 49
-1809.889024393906
 53
52.43499999999998
 43
12023.42072950273
 44
793.8760367702561
 45
10.95203172552474
 46
-0.000054871588512
 79
     2
 49
4.503300162712174
 49
-1809.889024393906
 53
52.43499999999998
 43
12023.42072950273
 44
756.9989381681843
 45
10.95203172552474
 46
-0.000054871588512
 79
     2
 49
4.503300162712174
 49
-1809.889024393906
 53
52.43499999999998
 43
12023.42072950273
 44
720.1218395661125
 45
10.95203172552474
 46
-0.000054871588512
 79
     2
 49
4.503300162712174
 49
-1809.889024393906
 53
52.43499999999998
 43
12023.42072950273
 44
683.2447409640408
 45
10.95203172552474
 46
-0.000054871588512
 79
     2
 49
4.503300162712174
 49
-1809.889024393906
 53
52.43499999999998
 43
12023.42072950273
 44
646.367642361969
 45
10.95203172552474
 46
-0.000054871588512
 79
     2
 49
4.503300162712174
 49
-1809.889024393906
 53
52.43499999999998
 43
12023.42072950273
 44
609.4905437599009
 45
10.95203172552474
 46
-0.000054871588512
 79
     2
 49
4.503300162712174
 49
-1809.889024393906
 53
52.43499999999998
 43
12023.42072950273
 44
572.6134451578254
 45
10.95203172552474
 46
-0.000054871588512
 79
     2
 49
4.503300162712174
 49
-1809.889024393906
 53
52.43499999999998
 43
12023.42072950273
 44
535.7363465557573
 45
10.95203172552474
 46
-0.000054871588512
 79
     2
 49
4.503300162712174
 49
-1809.889024393906
 53
52.43499999999998
 43
12023.42072950273
 44
498.8592479536818
 45
10.95203172552474
 46
-0.000054871588512
 79
     2
 49
4.503300162712174
 49
-1809.889024393906
 53
52.43499999999998
 43
12023.42072950273
 44
461.9821493516101
 45
10.95203172552474
 46
-0.000054871588512
 79
     2
 49
4.503300162712174
 49
-1809.889024393906
 53
52.43499999999998
 43
12023.42072950273
 44
425.1050507495383
 45
10.95203172552474
 46
-0.000054871588512
 79
     2
 49
4.503300162712174
 49
-1809.889024393906
 53
52.43499999999998
 43
12023.42072950273
 44
388.2279521474702
 45
10.95203172552474
 46
-0.000054871588512
 79
     2
 49
4.503300162712174
 49
-1809.889024393906
 53
25.04599999999999
 43
12023.2741602451
 44
1760.996795904426
 45
10.95203652759968
 46
0.0000881814618674
 79
     2
 49
4.636287175181987
 49
-2957.102061108971
 53
25.04599999999999
 43
12023.2741602451
 44
1724.119697302354
 45
10.95203652759968
 46
0.0000881814618674
 79
     2
 49
4.636287175181987
 49
-2957.102061108971
 53
25.04599999999999
 43
12023.2741602451
 44
1687.242598700279
 45
10.95203652759968
 46
0.0000881814618674
 79
     2
 49
4.636287175181987
 49
-2957.102061108971
 53
25.04599999999999
 43
12023.2741602451
 44
1650.36550009821
 45
10.95203652759968
 46
0.0000881814618674
 79
     2
 49
4.636287175181987
 49
-2957.102061108971
 53
25.04599999999999
 43
12023.2741602451
 44
1613.488401496135
 45
10.95203652759968
 46
0.0000881814618674
 79
     2
 49
4.636287175181987
 49
-2957.102061108971
 53
25.04599999999999
 43
12023.2741602451
 44
1576.611302894067
 45
10.95203652759968
 46
0.0000881814618674
 79
     2
 49
4.636287175181987
 49
-2957.102061108971
 53
25.04599999999999
 43
12023.2741602451
 44
1539.734204291995
 45
10.95203652759968
 46
0.0000881814618674
 79
     2
 49
4.636287175181987
 49
-2957.102061108971
 53
25.04599999999999
 43
12023.2741602451
 44
1502.857105689924
 45
10.95203652759968
 46
0.0000881814618674
 79
     2
 49
4.636287175181987
 49
-2957.102061108971
 53
25.04599999999999
 43
12023.2741602451
 44
1465.980007087848
 45
10.95203652759968
 46
0.0000881814618674
 79
     2
 49
4.636287175181987
 49
-2957.102061108971
 53
25.04599999999999
 43
12023.2741602451
 44
1429.10290848578
 45
10.95203652759968
 46
0.0000881814618674
 79
     2
 49
4.636287175181987
 49
-2957.102061108971
 53
25.04599999999999
 43
12023.2741602451
 44
1392.225809883705
 45
10.95203652759968
 46
0.0000881814618674
 79
     2
 49
4.636287175181987
 49
-2957.102061108971
 53
25.04599999999999
 43
12023.2741602451
 44
1355.348711281636
 45
10.95203652759968
 46
0.0000881814618674
 79
     2
 49
4.636287175181987
 49
-2957.102061108971
 53
25.04599999999999
 43
12023.2741602451
 44
1318.471612679568
 45
10.95203652759968
 46
0.0000881814618674
 79
     2
 49
4.636287175181987
 49
-2957.102061108971
 53
25.04599999999999
 43
12023.2741602451
 44
1281.594514077493
 45
10.95203652759968
 46
0.0000881814618674
 79
     2
 49
4.636287175181987
 49
-2957.102061108971
 53
25.04599999999999
 43
12023.2741602451
 44
1244.717415475425
 45
10.95203652759968
 46
0.0000881814618674
 79
     2
 49
4.636287175181987
 49
-2957.102061108971
 53
25.04599999999999
 43
12023.2741602451
 44
1207.840316873349
 45
10.95203652759968
 46
0.0000881814618674
 79
     2
 49
4.636287175181987
 49
-2957.102061108971
 53
25.04599999999999
 43
12023.2741602451
 44
1170.963218271274
 45
10.95203652759968
 46
0.0000881814618674
 79
     2
 49
4.636287175181987
 49
-2957.102061108971
 53
25.04599999999999
 43
12023.2741602451
 44
1134.086119669206
 45
10.95203652759968
 46
0.0000881814618674
 79
     2
 49
4.636287175181987
 49
-2957.102061108971
 53
25.04599999999999
 43
12023.2741602451
 44
1097.209021067137
 45
10.95203652759968
 46
0.0000881814618674
 79
     2
 49
4.636287175181987
 49
-2957.102061108971
 53
25.04599999999999
 43
12023.2741602451
 44
1060.331922465062
 45
10.95203652759968
 46
0.0000881814618674
 79
     2
 49
4.636287175181987
 49
-2957.102061108971
 53
25.04599999999999
 43
12023.2741602451
 44
1023.454823862994
 45
10.95203652759968
 46
0.0000881814618674
 79
     2
 49
4.636287175181987
 49
-2957.102061108971
 53
25.04599999999999
 43
12023.2741602451
 44
986.5777252609186
 45
10.95203652759968
 46
0.0000881814618674
 79
     2
 49
4.636287175181987
 49
-2957.102061108971
 53
25.04599999999999
 43
12023.2741602451
 44
949.7006266588469
 45
10.95203652759968
 46
0.0000881814618674
 79
     2
 49
4.636287175181987
 49
-2957.102061108971
 53
25.04599999999999
 43
12023.2741602451
 44
912.8235280567787
 45
10.95203652759968
 46
0.0000881814618674
 79
     2
 49
4.636287175181987
 49
-2957.102061108971
 53
25.04599999999999
 43
12023.2741602451
 44
875.946429454707
 45
10.95203652759968
 46
0.0000881814618674
 79
     2
 49
4.636287175181987
 49
-2957.102061108971
 53
25.04599999999999
 43
12023.2741602451
 44
839.0693308526316
 45
10.95203652759968
 46
0.0000881814618674
 79
     2
 49
4.636287175181987
 49
-2957.102061108971
 53
25.04599999999999
 43
12023.2741602451
 44
802.1922322505634
 45
10.95203652759968
 46
0.0000881814618674
 79
     2
 49
4.636287175181987
 49
-2957.102061108971
 53
25.04599999999999
 43
12023.2741602451
 44
765.3151336484916
 45
10.95203652759968
 46
0.0000881814618674
 79
     2
 49
4.636287175181987
 49
-2957.102061108971
 53
25.04599999999999
 43
12023.2741602451
 44
728.4380350464198
 45
10.95203652759968
 46
0.0000881814618674
 79
     2
 49
4.636287175181987
 49
-2957.102061108971
 53
25.04599999999999
 43
12023.2741602451
 44
691.5609364443444
 45
10.95203652759968
 46
0.0000881814618674
 79
     2
 49
4.636287175181987
 49
-2957.102061108971
 53
25.04599999999999
 43
12023.2741602451
 44
654.6838378422762
 45
10.95203652759968
 46
0.0000881814618674
 79
     2
 49
4.636287175181987
 49
-2957.102061108971
 53
25.04599999999999
 43
12023.2741602451
 44
617.8067392402044
 45
10.95203652759968
 46
0.0000881814618674
 79
     2
 49
4.636287175181987
 49
-2957.102061108971
 53
25.04599999999999
 43
12023.2741602451
 44
580.9296406381327
 45
10.95203652759968
 46
0.0000881814618674
 79
     2
 49
4.636287175181987
 49
-2957.102061108971
 53
25.04599999999999
 43
12023.2741602451
 44
544.0525420360609
 45
10.95203652759968
 46
0.0000881814618674
 79
     2
 49
4.636287175181987
 49
-2957.102061108971
 53
14.07599999999998
 43
12026.16623604958
 44
1793.128451119454
 45
10.95202660951167
 46
-0.0000805056871684
 79
     2
 49
2.663936043727242
 49
-1058.697838380728
 53
14.07599999999998
 43
12026.16623604958
 44
1756.251286958093
 45
10.95202660951167
 46
-0.0000805056871684
 79
     2
 49
2.663936043727242
 49
-1058.697838380728
 53
14.07599999999998
 43
12026.16623604958
 44
1719.374188356021
 45
10.95202660951167
 46
-0.0000805056871684
 79
     2
 49
2.663936043727242
 49
-1058.697838380728
 53
14.07599999999998
 43
12026.16623604958
 44
1682.497089753953
 45
10.95202660951167
 46
-0.0000805056871684
 79
     2
 49
2.663936043727242
 49
-1058.697838380728
 53
14.07599999999998
 43
12026.16623604958
 44
1645.619991151878
 45
10.95202660951167
 46
-0.0000805056871684
 79
     2
 49
2.663936043727242
 49
-1058.697838380728
 53
14.07599999999998
 43
12026.16623604958
 44
1608.742892549802
 45
10.95202660951167
 46
-0.0000805056871684
 79
     2
 49
2.663936043727242
 49
-1058.697838380728
 53
14.07599999999998
 43
12026.16623604958
 44
1571.865793947734
 45
10.95202660951167
 46
-0.0000805056871684
 79
     2
 49
2.663936043727242
 49
-1058.697838380728
 98
        1
 10
1548.008690264243
 20
630.2638327167442
  0
LWPOLYLINE
  5
76BE
330
67
100
AcDbEntity
  8
F_01 sichtbar
370
    13
100
AcDbPolyline
 90
       28
 70
     1
 43
0.0
 10
406.796736968221
 20
332.0457568681741
 10
403.6691634229701
 20
332.045756539399
 42
0.3394542588633794
 10
403.5725708481386
 20
331.9716384337553
 10
403.5319058740188
 20
331.8198746204616
 42
-0.3394542588633798
 10
403.4353132991872
 20
331.7457565148179
 10
403.3887786967807
 20
331.7457565099248
 42
-0.3394542588633751
 10
403.2921861063568
 20
331.8198745952614
 10
403.2515211003392
 20
331.9716384000058
 42
0.3394542588633729
 10
403.1549285099226
 20
332.0457564853423
 10
403.0316612087172
 20
332.0457564723838
 10
402.9083939075117
 20
332.0457564594253
 42
0.3394542588633786
 10
402.8118013326802
 20
331.9716383537816
 10
402.7711363585604
 20
331.8198745404879
 42
-0.3394542588633769
 10
402.6745437837289
 20
331.7457564348442
 10
402.6280091813223
 20
331.7457564299512
 42
-0.3394542588633807
 10
402.5314165908985
 20
331.8198745152877
 10
402.4907515848808
 20
331.9716383200357
 42
0.3394542588633759
 10
402.3941589944643
 20
332.0457564053686
 10
399.2665854492061
 20
332.0457560765935
 42
0.6681786379192993
 10
399.0898087987789
 20
331.6189793627164
 10
401.2640847049024
 20
329.4447039137121
 42
-0.3679559611094144
 10
401.7293793324406
 20
328.9934741383549
 10
402.1816614820327
 20
329.4457563830329
 10
403.0316614820312
 20
329.4457564723852
 10
403.8816614820298
 20
329.4457565617376
 10
404.2702654198128
 20
329.0571527056564
 42
0.4142135623730948
 10
404.4116867760513
 20
329.0571527205211
 10
406.9735137083825
 20
331.6189801914625
 42
0.6681786379192982
  0
POLYLINE
  5
76BF
330
67
100
AcDbEntity
  8
F_31 Ansichtsfenster
370
    13
100
AcDb2dPolyline
 66
     1
 10
0.0
 20
0.0
 30
0.0
  0
VERTEX
  5
76C0
330
76BF
100
AcDbEntity
  8
F_31 Ansichtsfenster
370
    13
100
AcDbVertex
100
AcDb2dVertex
 10
615.3740107976901
 20
292.5457907411182
 30
0.0
  0
VERTEX
  5
76C1
330
76BF
100
AcDbEntity
  8
F_31 Ansichtsfenster
370
    13
100
AcDbVertex
100
AcDb2dVertex
 10
615.3740107976901
 20
630.0457544751006
 30
0.0
  0
SEQEND
  5
76C2
330
76BF
100
AcDbEntity
  8
F_31 Ansichtsfenster
370
    13
  0
LWPOLYLINE
  5
76C3
330
67
100
AcDbEntity
  8
F_01 sichtbar
370
    13
100
AcDbPolyline
 90
       10
 70
     1
 43
0.0
 10
396.0316559082403
 20
302.0457555788525
 10
396.0316526494771
 20
333.0457555788525
 10
401.031652649477
 20
333.0457561044604
 10
401.0316518085073
 20
341.0457561044605
 10
405.0316518085073
 20
341.0457565249453
 10
405.031652649477
 20
333.0457565249453
 10
409.031652649477
 20
333.0457569454302
 10
409.0326695932945
 20
630.0457544751006
 10
384.0316254218324
 20
630.0457544751006
 10
384.0316559082403
 20
302.0457543173979
  0
LWPOLYLINE
  5
76C4
330
67
100
AcDbEntity
  8
F_01 sichtbar
370
    13
100
AcDbPolyline
 90
        5
 70
     1
 43
0.0
 10
341.031647847949
 20
302.0457555788525
 10
341.031647847949
 20
294.0457555788526
 42
0.4142135623730951
 10
343.031647847949
 20
292.0457555788526
 10
396.031647847949
 20
292.0457555788526
 10
396.031647847949
 20
302.0457555788525
  0
HATCH
  5
76C5
330
67
100
AcDbEntity
  8
F_01 sichtbar
370
    13
100
AcDbHatch
 10
0.0
 20
0.0
 30
0.0
210
0.0
220
0.0
230
1.0
  2
JIS_WOOD
 70
     0
 71
     0
 91
        1
 92
        1
 93
        7
 72
     1
 10
396.031647847949
 20
302.0457555788525
 11
384.031647847949
 21
302.0457555788525
 72
     1
 10
384.031647847949
 20
302.0457555788525
 11
376.531647847949
 21
302.0457555788525
 72
     1
 10
376.531647847949
 20
302.0457555788525
 11
341.031647847949
 21
302.0457555788525
 72
     1
 10
341.031647847949
 20
302.0457555788525
 11
341.031647847949
 21
294.0457555788526
 72
     2
 10
343.0316478479417
 20
294.0457555788526
 40
1.999999999996362
 50
180.0
 51
270.0
 73
     1
 72
     1
 10
343.0316478479417
 20
292.0457555788526
 11
396.031647847949
 21
292.0457555788526
 72
     1
 10
396.031647847949
 20
292.0457555788526
 11
396.031647847949
 21
302.0457555788525
 97
        0
 75
     0
 76
     1
 52
90.0
 41
15.0
 77
     0
 78
     1
 53
135.0
 43
-23324.78926349685
 44
-14184.49495876223
 45
-7.499999987414764
 46
-7.499999987414762
 79
     0
 98
        1
 10
375.2705510262586
 20
295.62532084134
1001
ACAD
1010
0.0
1020
0.0
1030
0.0
  0
MTEXT
  5
76C6
330
67
100
AcDbEntity
  8
F_01 sichtbar
370
    13
100
AcDbMText
 10
344.6748495707052
 20
240.0253978714636
 30
0.0
 40
15.0
 41
187.1747820159653
 71
     1
 72
     5
  1
\A1;{\fArial Narrow|b0|i0|c0|p34;Deckleiste\PFi/Ta 10/55 mm}
 73
     1
 44
1.0
  0
LINE
  5
76C7
330
67
100
AcDbEntity
  8
F_01 sichtbar
370
    13
100
AcDbLine
 10
369.531647847949
 20
277.0457555788525
 30
0.0
 11
369.531647847949
 21
243.7228603970025
 31
0.0
  0
SOLID
  5
76C8
330
67
100
AcDbEntity
  8
F_01 sichtbar
370
    13
100
AcDbTrace
 10
367.031647847949
 20
277.0457555788525
 30
0.0
 11
372.031647847949
 21
277.0457555788525
 31
0.0
 12
369.531647847949
 22
292.0457555788526
 32
0.0
 13
369.531647847949
 23
292.0457555788526
 33
0.0
  0
LINE
  5
76C9
330
67
100
AcDbEntity
  8
F_01 sichtbar
370
    13
100
AcDbLine
 10
328.8030676056569
 20
622.5457544751007
 30
0.0
 11
328.8030676056569
 21
309.545754317398
 31
0.0
  0
SOLID
  5
76CA
330
67
100
AcDbEntity
  8
F_01 sichtbar
370
    13
100
AcDbTrace
 10
326.3030676056569
 20
317.0457543173979
 30
0.0
 11
331.3030676056569
 21
317.0457543173979
 31
0.0
 12
328.8030676056569
 22
302.0457543173979
 32
0.0
 13
328.8030676056569
 23
302.0457543173979
 33
0.0
  0
SOLID
  5
76CB
330
67
100
AcDbEntity
  8
F_01 sichtbar
370
    13
100
AcDbTrace
 10
326.3030676056569
 20
615.0457544751007
 30
0.0
 11
331.3030676056569
 21
615.0457544751007
 31
0.0
 12
328.8030676056569
 22
630.0457544751006
 32
0.0
 13
328.8030676056569
 23
630.0457544751006
 33
0.0
  0
TEXT
  5
76CC
330
67
100
AcDbEntity
  8
F_01 sichtbar
370
    13
100
AcDbText
 10
323.8030676056569
 20
226.7787414202712
 30
0.0
 40
15.0
  1
RH
 50
90.0
  7
Arial
100
AcDbText
  0
LINE
  5
76CD
330
67
100
AcDbEntity
  8
F_01 sichtbar
370
    13
100
AcDbLine
 10
279.7145853383463
 20
622.5457544751007
 30
0.0
 11
279.7145853383463
 21
107.9577380515793
 31
0.0
  0
SOLID
  5
76CE
330
67
100
AcDbEntity
  8
F_01 sichtbar
370
    13
100
AcDbTrace
 10
277.2145853383463
 20
615.0457544751007
 30
0.0
 11
282.2145853383463
 21
615.0457544751007
 31
0.0
 12
279.7145853383463
 22
630.0457544751006
 32
0.0
 13
279.7145853383463
 23
630.0457544751006
 33
0.0
  0
LINE
  5
76CF
330
67
100
AcDbEntity
  8
F_01 sichtbar
370
    13
100
AcDbLine
 10
328.8030676056569
 20
294.5457543173979
 30
0.0
 11
328.8030676056569
 21
107.9577380515793
 31
0.0
  0
TEXT
  5
76D0
330
67
100
AcDbEntity
  8
F_01 sichtbar
370
    13
100
AcDbText
 10
274.3308882032852
 20
232.7614337871373
 30
0.0
 40
15.0
  1
C
 50
90.0
  7
Arial
100
AcDbText
  0
SOLID
  5
76D1
330
67
100
AcDbEntity
  8
F_01 sichtbar
370
    13
100
AcDbTrace
 10
326.3030676056569
 20
287.045754317398
 30
0.0
 11
331.3030676056569
 21
287.045754317398
 31
0.0
 12
328.8030676056569
 22
302.0457543173979
 32
0.0
 13
328.8030676056569
 23
302.0457543173979
 33
0.0
  0
TEXT
  5
76D2
330
67
100
AcDbEntity
  8
F_01 sichtbar
370
    13
100
AcDbText
 10
323.8030676056569
 20
463.2285646857526
 30
0.0
 40
15.0
  1
D
 50
90.0
  7
Arial
100
AcDbText
  0
MTEXT
  5
76D3
330
67
100
AcDbEntity
  8
F_01 sichtbar
370
    13
100
AcDbMText
 10
267.0880135912575
 20
730.0457544751006
 30
0.0
 40
30.0
 41
187.1747820159653
 71
     1
 72
     5
  1
\A1;{\fArial Narrow|b1|i0|c0|p34;A}
 73
     1
 44
1.0
  0
ENDSEC
  0
SECTION
  2
OBJECTS
  0
DICTIONARY
  5
C
330
0
100
AcDbDictionary
281
     1
  3
ACAD_2007HEADERVARS_RT
350
76E4
  3
ACAD_COLOR
350
5E
  3
ACAD_GROUP
350
D
  3
ACAD_LAYOUT
350
5D
  3
ACAD_MATERIAL
350
10
  3
ACAD_MLEADERSTYLE
350
61
  3
ACAD_MLINESTYLE
350
5A
  3
ACAD_PLOTSETTINGS
350
5C
  3
ACAD_PLOTSTYLENAME
350
E
  3
ACAD_SCALELIST
350
3D
  3
ACAD_TABLESTYLE
350
5F
  3
ACAD_VISUALSTYLE
350
29
  3
ACDB_RECOMPOSE_DATA
350
76E3
  3
AcDbVariableDictionary
350
76D8
  3
AEC_PROPERTY_SET_DEFS
350
768D
  0
DICTIONARY
  5
7641
330
2
100
AcDbDictionary
280
     1
281
     1
  3
ACAD_LAYERSTATES
360
7642
  0
DICTIONARY
  5
762C
330
762B
100
AcDbDictionary
280
     1
281
     1
  3
ACAD_SORTENTS
360
762D
  0
DICTIONARY
  5
76E4
102
{ACAD_REACTORS
330
C
102
}
330
C
100
AcDbDictionary
281
     1
  3
DIMJOGANG
350
76E5
  0
DICTIONARY
  5
5E
102
{ACAD_REACTORS
330
C
102
}
330
C
100
AcDbDictionary
281
     1
  0
DICTIONARY
  5
D
102
{ACAD_REACTORS
330
C
102
}
330
C
100
AcDbDictionary
281
     1
  0
DICTIONARY
  5
5D
102
{ACAD_REACTORS
330
C
102
}
330
C
100
AcDbDictionary
281
     1
  3
Layout1
350
66
  3
Layout2
350
6E
  3
Model
350
6A
  0
DICTIONARY
  5
10
102
{ACAD_REACTORS
330
C
102
}
330
C
100
AcDbDictionary
281
     1
  3
ByBlock
350
19
  3
ByLayer
350
11
  3
Global
350
21
  0
DICTIONARY
  5
61
102
{ACAD_REACTORS
330
C
102
}
330
C
100
AcDbDictionary
281
     1
  3
Standard
350
62
  0
DICTIONARY
  5
5A
102
{ACAD_REACTORS
330
C
102
}
330
C
100
AcDbDictionary
281
     1
  3
Standard
350
5B
  0
DICTIONARY
  5
5C
102
{ACAD_REACTORS
330
C
102
}
330
C
100
AcDbDictionary
281
     1
  0
ACDBDICTIONARYWDFLT
  5
E
102
{ACAD_REACTORS
330
C
102
}
330
C
100
AcDbDictionary
281
     1
  3
Normal
350
F
100
AcDbDictionaryWithDefault
340
F
  0
DICTIONARY
  5
3D
102
{ACAD_REACTORS
330
C
102
}
330
C
100
AcDbDictionary
281
     1
  3
A0
350
3E
  3
A1
350
3F
  3
A2
350
40
  3
A3
350
41
  3
A4
350
42
  3
A5
350
43
  3
A6
350
44
  3
A7
350
45
  3
A8
350
46
  3
A9
350
47
  3
B0
350
48
  3
B1
350
49
  3
B2
350
4A
  3
B3
350
4B
  3
B4
350
4C
  3
B5
350
4D
  3
B6
350
4E
  0
DICTIONARY
  5
5F
102
{ACAD_REACTORS
330
C
102
}
330
C
100
AcDbDictionary
281
     1
  3
Standard
350
60
  0
DICTIONARY
  5
29
102
{ACAD_REACTORS
330
C
102
}
330
C
100
AcDbDictionary
281
     1
  3
2dWireframe
350
2F
  3
3D Hidden
350
31
  3
3dWireframe
350
30
  3
Basic
350
2E
  3
Brighten
350
35
  3
ColorChange
350
39
  3
Conceptual
350
32
  3
Dim
350
34
  3
EdgeColorOff
350
3C
  3
Facepattern
350
38
  3
Flat
350
2A
  3
FlatWithEdges
350
2B
  3
Gouraud
350
2C
  3
GouraudWithEdges
350
2D
  3
JitterOff
350
3A
  3
Linepattern
350
37
  3
OverhangOff
350
3B
  3
Realistic
350
33
  3
Thicken
350
36
  0
XRECORD
  5
76E3
102
{ACAD_REACTORS
330
C
102
}
330
C
100
AcDbXrecord
280
     1
 90
        1
330
60
  0
DICTIONARY
  5
76D8
102
{ACAD_REACTORS
330
C
102
}
330
C
100
AcDbDictionary
281
     1
  3
CANNOSCALE
350
76DC
  3
CMLEADERSTYLE
350
76DA
  3
CTABLESTYLE
350
76D9
  3
LAYEREVAL
350
76DE
  3
LAYERNOTIFY
350
76DF
  3
LIGHTINGUNITS
350
76DD
  3
MSLTSCALE
350
76DB
  3
XCLIPFRAME
350
76E0
  0
DICTIONARY
  5
768D
102
{ACAD_REACTORS
330
C
102
}
330
C
100
AcDbDictionary
281
     1
  0
DICTIONARY
  5
7642
102
{ACAD_REACTORS
330
7641
102
}
330
7641
100
AcDbDictionary
281
     1
  0
SORTENTSTABLE
  5
762D
102
{ACAD_REACTORS
330
762C
102
}
330
762C
100
AcDbSortentsTable
330
762B
  0
XRECORD
  5
76E5
102
{ACAD_REACTORS
330
76E4
102
}
330
76E4
100
AcDbXrecord
280
     1
 40
1.570796326794896
  0
LAYOUT
  5
66
102
{ACAD_REACTORS
330
5D
102
}
330
5D
100
AcDbPlotSettings
  1

  2
HP Deskjet 1280 series
  4

  6

 40
0.0
 41
0.0
 42
0.0
 43
0.0
 44
0.0
 45
0.0
 46
0.0
 47
0.0
 48
0.0
 49
0.0
140
0.0
141
0.0
142
1.0
143
1.0
 70
   688
 72
     0
 73
     0
 74
     5
  7

 75
    16
147
1.0
 76
     0
 77
     2
 78
   300
148
0.0
149
0.0
100
AcDbLayout
  1
Layout1
 70
     1
 71
     1
 10
0.0
 20
0.0
 11
420.0
 21
297.0
 12
0.0
 22
0.0
 32
0.0
 14
1.000000000000000E+20
 24
1.000000000000000E+20
 34
1.000000000000000E+20
 15
-1.000000000000000E+20
 25
-1.000000000000000E+20
 35
-1.000000000000000E+20
146
0.0
 13
0.0
 23
0.0
 33
0.0
 16
1.0
 26
0.0
 36
0.0
 17
0.0
 27
1.0
 37
0.0
 76
     0
330
63
  0
LAYOUT
  5
6E
102
{ACAD_REACTORS
330
5D
102
}
330
5D
100
AcDbPlotSettings
  1

  2
HP Deskjet 1280 series
  4

  6

 40
0.0
 41
0.0
 42
0.0
 43
0.0
 44
0.0
 45
0.0
 46
0.0
 47
0.0
 48
0.0
 49
0.0
140
0.0
141
0.0
142
1.0
143
1.0
 70
   688
 72
     0
 73
     0
 74
     5
  7

 75
    16
147
1.0
 76
     0
 77
     2
 78
   300
148
0.0
149
0.0
100
AcDbLayout
  1
Layout2
 70
     1
 71
     2
 10
0.0
 20
0.0
 11
12.0
 21
9.0
 12
0.0
 22
0.0
 32
0.0
 14
0.0
 24
0.0
 34
0.0
 15
0.0
 25
0.0
 35
0.0
146
0.0
 13
0.0
 23
0.0
 33
0.0
 16
1.0
 26
0.0
 36
0.0
 17
0.0
 27
1.0
 37
0.0
 76
     0
330
6B
  0
LAYOUT
  5
6A
102
{ACAD_REACTORS
330
5D
102
}
330
5D
100
AcDbPlotSettings
  1

  2
HP Deskjet 1280 series
  4

  6

 40
0.0
 41
0.0
 42
0.0
 43
0.0
 44
0.0
 45
0.0
 46
0.0
 47
0.0
 48
0.0
 49
0.0
140
0.0
141
0.0
142
1.0
143
1.0
 70
  1712
 72
     0
 73
     0
 74
     0
  7

 75
     0
147
1.0
 76
     0
 77
     2
 78
   300
148
0.0
149
0.0
100
AcDbLayout
  1
Model
 70
     1
 71
     0
 10
0.0
 20
0.0
 11
12.0
 21
9.0
 12
0.0
 22
0.0
 32
0.0
 14
0.0
 24
0.0
 34
0.0
 15
0.0
 25
0.0
 35
0.0
146
0.0
 13
0.0
 23
0.0
 33
0.0
 16
1.0
 26
0.0
 36
0.0
 17
0.0
 27
1.0
 37
0.0
 76
     0
330
67
331
52
  0
MATERIAL
  5
19
102
{ACAD_XDICTIONARY
360
1A
102
}
102
{ACAD_REACTORS
330
10
102
}
330
10
100
AcDbMaterial
  1
ByBlock
 72
     0
 43
0.0208333333333333
 43
0.0
 43
0.0
 43
0.0
 43
0.0
 43
0.0208333333333333
 43
0.0
 43
0.0
 43
0.0
 43
0.0
 43
1.0
 43
0.0
 43
0.0
 43
0.0
 43
0.0
 43
1.0
 77
     0
 47
0.0208333333333333
 47
0.0
 47
0.0
 47
0.0
 47
0.0
 47
0.0208333333333333
 47
0.0
 47
0.0
 47
0.0
 47
0.0
 47
1.0
 47
0.0
 47
0.0
 47
0.0
 47
0.0
 47
1.0
171
     0
 49
0.0208333333333333
 49
0.0
 49
0.0
 49
0.0
 49
0.0
 49
0.0208333333333333
 49
0.0
 49
0.0
 49
0.0
 49
0.0
 49
1.0
 49
0.0
 49
0.0
 49
0.0
 49
0.0
 49
1.0
175
     0
142
0.0208333333333333
142
0.0
142
0.0
142
0.0
142
0.0
142
0.0208333333333333
142
0.0
142
0.0
142
0.0
142
0.0
142
1.0
142
0.0
142
0.0
142
0.0
142
0.0
142
1.0
179
     0
144
0.0208333333333333
144
0.0
144
0.0
144
0.0
144
0.0
144
0.0208333333333333
144
0.0
144
0.0
144
0.0
144
0.0
144
1.0
144
0.0
144
0.0
144
0.0
144
0.0
144
1.0
147
0.0208333333333333
147
0.0
147
0.0
147
0.0
147
0.0
147
0.0208333333333333
147
0.0
147
0.0
147
0.0
147
0.0
147
1.0
147
0.0
147
0.0
147
0.0
147
0.0
147
1.0
  0
MATERIAL
  5
11
102
{ACAD_XDICTIONARY
360
12
102
}
102
{ACAD_REACTORS
330
10
102
}
330
10
100
AcDbMaterial
  1
ByLayer
 72
     0
 43
0.0208333333333333
 43
0.0
 43
0.0
 43
0.0
 43
0.0
 43
0.0208333333333333
 43
0.0
 43
0.0
 43
0.0
 43
0.0
 43
1.0
 43
0.0
 43
0.0
 43
0.0
 43
0.0
 43
1.0
 77
     0
 47
0.0208333333333333
 47
0.0
 47
0.0
 47
0.0
 47
0.0
 47
0.0208333333333333
 47
0.0
 47
0.0
 47
0.0
 47
0.0
 47
1.0
 47
0.0
 47
0.0
 47
0.0
 47
0.0
 47
1.0
171
     0
 49
0.0208333333333333
 49
0.0
 49
0.0
 49
0.0
 49
0.0
 49
0.0208333333333333
 49
0.0
 49
0.0
 49
0.0
 49
0.0
 49
1.0
 49
0.0
 49
0.0
 49
0.0
 49
0.0
 49
1.0
175
     0
142
0.0208333333333333
142
0.0
142
0.0
142
0.0
142
0.0
142
0.0208333333333333
142
0.0
142
0.0
142
0.0
142
0.0
142
1.0
142
0.0
142
0.0
142
0.0
142
0.0
142
1.0
179
     0
144
0.0208333333333333
144
0.0
144
0.0
144
0.0
144
0.0
144
0.0208333333333333
144
0.0
144
0.0
144
0.0
144
0.0
144
1.0
144
0.0
144
0.0
144
0.0
144
0.0
144
1.0
147
0.0208333333333333
147
0.0
147
0.0
147
0.0
147
0.0
147
0.0208333333333333
147
0.0
147
0.0
147
0.0
147
0.0
147
1.0
147
0.0
147
0.0
147
0.0
147
0.0
147
1.0
  0
MATERIAL
  5
21
102
{ACAD_XDICTIONARY
360
22
102
}
102
{ACAD_REACTORS
330
10
102
}
330
10
100
AcDbMaterial
  1
Global
 72
     0
 43
0.0208333333333333
 43
0.0
 43
0.0
 43
0.0
 43
0.0
 43
0.0208333333333333
 43
0.0
 43
0.0
 43
0.0
 43
0.0
 43
1.0
 43
0.0
 43
0.0
 43
0.0
 43
0.0
 43
1.0
 77
     0
 47
0.0208333333333333
 47
0.0
 47
0.0
 47
0.0
 47
0.0
 47
0.0208333333333333
 47
0.0
 47
0.0
 47
0.0
 47
0.0
 47
1.0
 47
0.0
 47
0.0
 47
0.0
 47
0.0
 47
1.0
171
     0
 49
0.0208333333333333
 49
0.0
 49
0.0
 49
0.0
 49
0.0
 49
0.0208333333333333
 49
0.0
 49
0.0
 49
0.0
 49
0.0
 49
1.0
 49
0.0
 49
0.0
 49
0.0
 49
0.0
 49
1.0
175
     0
142
0.0208333333333333
142
0.0
142
0.0
142
0.0
142
0.0
142
0.0208333333333333
142
0.0
142
0.0
142
0.0
142
0.0
142
1.0
142
0.0
142
0.0
142
0.0
142
0.0
142
1.0
179
     0
144
0.0208333333333333
144
0.0
144
0.0
144
0.0
144
0.0
144
0.0208333333333333
144
0.0
144
0.0
144
0.0
144
0.0
144
1.0
144
0.0
144
0.0
144
0.0
144
0.0
144
1.0
147
0.0208333333333333
147
0.0
147
0.0
147
0.0
147
0.0
147
0.0208333333333333
147
0.0
147
0.0
147
0.0
147
0.0
147
1.0
147
0.0
147
0.0
147
0.0
147
0.0
147
1.0
  0
MLEADERSTYLE
  5
62
102
{ACAD_REACTORS
330
61
102
}
330
61
100
AcDbMLeaderStyle
170
     2
171
     1
172
     0
 90
        2
 40
0.0
 41
0.0
173
     1
 91
-1056964608
340
56
 92
       -2
290
     1
 42
0.09
291
     1
 43
0.36
  3
Standard
 44
0.18
300

342
50
174
     1
178
     6
175
     1
176
     0
 93
-1056964608
 45
0.18
292
     0
297
     0
 46
0.18
 94
-1056964608
 47
1.0
 49
1.0
140
1.0
293
     1
141
0.0
294
     1
177
     0
142
1.0
295
     0
296
     0
143
0.125
1001
ACAD_MLEADERVER
1070
     2
  0
MLINESTYLE
  5
5B
102
{ACAD_REACTORS
330
5A
102
}
330
5A
100
AcDbMlineStyle
  2
STANDARD
 70
     0
  3

 62
   256
 51
90.0
 52
90.0
 71
     2
 49
0.5
 62
   256
  6
BYLAYER
 49
-0.5
 62
   256
  6
BYLAYER
  0
ACDBPLACEHOLDER
  5
F
102
{ACAD_REACTORS
330
E
102
}
330
E
  0
SCALE
  5
3E
102
{ACAD_REACTORS
330
3D
102
}
330
3D
100
AcDbScale
 70
     0
300
1:1
140
1.0
141
1.0
290
     1
  0
SCALE
  5
3F
102
{ACAD_REACTORS
330
3D
102
}
330
3D
100
AcDbScale
 70
     0
300
1:2
140
1.0
141
2.0
290
     0
  0
SCALE
  5
40
102
{ACAD_REACTORS
330
3D
102
}
330
3D
100
AcDbScale
 70
     0
300
1:4
140
1.0
141
4.0
290
     0
  0
SCALE
  5
41
102
{ACAD_REACTORS
330
3D
102
}
330
3D
100
AcDbScale
 70
     0
300
1:5
140
1.0
141
5.0
290
     0
  0
SCALE
  5
42
102
{ACAD_REACTORS
330
3D
102
}
330
3D
100
AcDbScale
 70
     0
300
1:8
140
1.0
141
8.0
290
     0
  0
SCALE
  5
43
102
{ACAD_REACTORS
330
3D
102
}
330
3D
100
AcDbScale
 70
     0
300
1:10
140
1.0
141
10.0
290
     0
  0
SCALE
  5
44
102
{ACAD_REACTORS
330
3D
102
}
330
3D
100
AcDbScale
 70
     0
300
1:16
140
1.0
141
16.0
290
     0
  0
SCALE
  5
45
102
{ACAD_REACTORS
330
3D
102
}
330
3D
100
AcDbScale
 70
     0
300
1:20
140
1.0
141
20.0
290
     0
  0
SCALE
  5
46
102
{ACAD_REACTORS
330
3D
102
}
330
3D
100
AcDbScale
 70
     0
300
1:30
140
1.0
141
30.0
290
     0
  0
SCALE
  5
47
102
{ACAD_REACTORS
330
3D
102
}
330
3D
100
AcDbScale
 70
     0
300
1:40
140
1.0
141
40.0
290
     0
  0
SCALE
  5
48
102
{ACAD_REACTORS
330
3D
102
}
330
3D
100
AcDbScale
 70
     0
300
1:50
140
1.0
141
50.0
290
     0
  0
SCALE
  5
49
102
{ACAD_REACTORS
330
3D
102
}
330
3D
100
AcDbScale
 70
     0
300
1:100
140
1.0
141
100.0
290
     0
  0
SCALE
  5
4A
102
{ACAD_REACTORS
330
3D
102
}
330
3D
100
AcDbScale
 70
     0
300
2:1
140
2.0
141
1.0
290
     0
  0
SCALE
  5
4B
102
{ACAD_REACTORS
330
3D
102
}
330
3D
100
AcDbScale
 70
     0
300
4:1
140
4.0
141
1.0
290
     0
  0
SCALE
  5
4C
102
{ACAD_REACTORS
330
3D
102
}
330
3D
100
AcDbScale
 70
     0
300
8:1
140
8.0
141
1.0
290
     0
  0
SCALE
  5
4D
102
{ACAD_REACTORS
330
3D
102
}
330
3D
100
AcDbScale
 70
     0
300
10:1
140
10.0
141
1.0
290
     0
  0
SCALE
  5
4E
102
{ACAD_REACTORS
330
3D
102
}
330
3D
100
AcDbScale
 70
     0
300
100:1
140
100.0
141
1.0
290
     0
  0
TABLESTYLE
  5
60
102
{ACAD_XDICTIONARY
360
76E1
102
}
102
{ACAD_REACTORS
330
5F
102
}
330
5F
100
AcDbTableStyle
  3
Standard
 70
     0
 71
     0
 40
1.5
 41
1.5
280
     0
281
     0
  7
Standard
140
4.5
170
     2
 62
     0
 63
     7
283
     0
274
    -2
284
     1
 64
     0
275
    -2
285
     1
 65
     0
276
    -2
286
     1
 66
     0
277
    -2
287
     1
 67
     0
278
    -2
288
     1
 68
     0
279
    -2
289
     1
 69
     0
  7
Standard
140
6.0
170
     5
 62
     0
 63
     7
283
     0
274
    -2
284
     1
 64
     0
275
    -2
285
     1
 65
     0
276
    -2
286
     1
 66
     0
277
    -2
287
     1
 67
     0
278
    -2
288
     1
 68
     0
279
    -2
289
     1
 69
     0
  7
Standard
140
4.5
170
     5
 62
     0
 63
     7
283
     0
274
    -2
284
     1
 64
     0
275
    -2
285
     1
 65
     0
276
    -2
286
     1
 66
     0
277
    -2
287
     1
 67
     0
278
    -2
288
     1
 68
     0
279
    -2
289
     1
 69
     0
  0
VISUALSTYLE
  5
2F
102
{ACAD_XDICTIONARY
360
76F3
102
}
102
{ACAD_REACTORS
330
29
102
}
330
29
100
AcDbVisualStyle
  2
2dWireframe
 70
     4
 71
     0
 72
     2
 73
     0
 90
        0
 40
-0.6
 41
-30.0
 62
     5
 63
     7
421
 16777215
 74
     1
 91
        4
 64
     7
 65
   257
 75
     1
175
     1
 42
1.0
 92
        0
 66
   257
 43
1.0
 76
     1
 77
     6
 78
     2
 67
     7
 79
     5
170
     0
171
     0
290
     0
174
     0
 93
        1
 44
0.0
173
     0
291
     0
 45
0.0
1001
ACAD
1000
AcDbSavedByObjectVersion
1070
     0
  0
VISUALSTYLE
  5
31
102
{ACAD_XDICTIONARY
360
76F7
102
}
102
{ACAD_REACTORS
330
29
102
}
330
29
100
AcDbVisualStyle
  2
3D Hidden
 70
     6
 71
     1
 72
     2
 73
     2
 90
        0
 40
-0.6
 41
-30.0
 62
     5
 63
     7
421
 16777215
 74
     2
 91
        2
 64
     7
 65
   257
 75
     2
175
     1
 42
179.0
 92
        0
 66
   257
 43
1.0
 76
     1
 77
     6
 78
     2
 67
     7
 79
     3
170
     0
171
     0
290
     0
174
     0
 93
        1
 44
0.0
173
     0
291
     0
 45
0.0
1001
ACAD
1000
AcDbSavedByObjectVersion
1070
     0
  0
VISUALSTYLE
  5
30
102
{ACAD_XDICTIONARY
360
76F5
102
}
102
{ACAD_REACTORS
330
29
102
}
330
29
100
AcDbVisualStyle
  2
3dWireframe
 70
     5
 71
     0
 72
     2
 73
     0
 90
        0
 40
-0.6
 41
-30.0
 62
     5
 63
     7
421
 16777215
 74
     1
 91
        4
 64
     7
 65
   257
 75
     1
175
     1
 42
1.0
 92
        0
 66
   257
 43
1.0
 76
     1
 77
     6
 78
     2
 67
     7
 79
     5
170
     0
171
     0
290
     0
174
     0
 93
        1
 44
0.0
173
     0
291
     0
 45
0.0
1001
ACAD
1000
AcDbSavedByObjectVersion
1070
     0
  0
VISUALSTYLE
  5
2E
102
{ACAD_XDICTIONARY
360
76F1
102
}
102
{ACAD_REACTORS
330
29
102
}
330
29
100
AcDbVisualStyle
  2
Basic
 70
     7
 71
     1
 72
     0
 73
     1
 90
        0
 40
-0.6
 41
-30.0
 62
     5
 63
     7
421
 16777215
 74
     0
 91
        4
 64
     7
 65
   257
 75
     1
175
     1
 42
1.0
 92
        8
 66
     7
 43
1.0
 76
     1
 77
     6
 78
     2
 67
     7
 79
     5
170
     0
171
     0
290
     0
174
     0
 93
        1
 44
0.0
173
     0
291
     1
 45
0.0
1001
ACAD
1000
AcDbSavedByObjectVersion
1070
     0
  0
VISUALSTYLE
  5
35
102
{ACAD_XDICTIONARY
360
76FF
102
}
102
{ACAD_REACTORS
330
29
102
}
330
29
100
AcDbVisualStyle
  2
Brighten
 70
    12
 71
     2
 72
     2
 73
     0
 90
        0
 40
-0.6
 41
-30.0
 62
     5
 63
     7
421
 16777215
 74
     1
 91
        4
 64
     7
 65
   257
 75
     1
175
     1
 42
1.0
 92
        8
 66
     7
 43
1.0
 76
     1
 77
     6
 78
     2
 67
     7
 79
     5
170
     0
171
     0
290
     0
174
     0
 93
        1
 44
50.0
173
     0
291
     1
 45
0.0
1001
ACAD
1000
AcDbSavedByObjectVersion
1070
     0
  0
VISUALSTYLE
  5
39
102
{ACAD_XDICTIONARY
360
7707
102
}
102
{ACAD_REACTORS
330
29
102
}
330
29
100
AcDbVisualStyle
  2
ColorChange
 70
    16
 71
     2
 72
     2
 73
     3
 90
        0
 40
-0.6
 41
-30.0
 62
     5
 63
     8
421
  8421504
 74
     1
 91
        4
 64
     7
 65
   257
 75
     1
175
     1
 42
1.0
 92
        8
 66
     8
424
  8421504
 43
1.0
 76
     1
 77
     6
 78
     2
 67
     7
 79
     5
170
     0
171
     0
290
     0
174
     0
 93
        1
 44
0.0
173
     0
291
     1
 45
0.0
1001
ACAD
1000
AcDbSavedByObjectVersion
1070
     0
  0
VISUALSTYLE
  5
32
102
{ACAD_XDICTIONARY
360
76F9
102
}
102
{ACAD_REACTORS
330
29
102
}
330
29
100
AcDbVisualStyle
  2
Conceptual
 70
     9
 71
     3
 72
     2
 73
     0
 90
        0
 40
-0.6
 41
-30.0
 62
     5
 63
     7
421
 16777215
 74
     2
 91
        2
 64
     7
 65
   257
 75
     1
175
     1
 42
179.0
 92
        8
 66
     7
 43
1.0
 76
     1
 77
     6
 78
     2
 67
     7
 79
     3
170
     0
171
     0
290
     0
174
     0
 93
        1
 44
0.0
173
     0
291
     0
 45
0.0
1001
ACAD
1000
AcDbSavedByObjectVersion
1070
     0
  0
VISUALSTYLE
  5
34
102
{ACAD_XDICTIONARY
360
76FD
102
}
102
{ACAD_REACTORS
330
29
102
}
330
29
100
AcDbVisualStyle
  2
Dim
 70
    11
 71
     2
 72
     2
 73
     0
 90
        0
 40
-0.6
 41
-30.0
 62
     5
 63
     7
421
 16777215
 74
     1
 91
        4
 64
     7
 65
   257
 75
     1
175
     1
 42
1.0
 92
        8
 66
     7
 43
1.0
 76
     1
 77
     6
 78
     2
 67
     7
 79
     5
170
     0
171
     0
290
     0
174
     0
 93
        1
 44
-50.0
173
     0
291
     1
 45
0.0
1001
ACAD
1000
AcDbSavedByObjectVersion
1070
     0
  0
VISUALSTYLE
  5
3C
102
{ACAD_XDICTIONARY
360
770D
102
}
102
{ACAD_REACTORS
330
29
102
}
330
29
100
AcDbVisualStyle
  2
EdgeColorOff
 70
    22
 71
     2
 72
     2
 73
     0
 90
        0
 40
-0.6
 41
-30.0
 62
     5
 63
     7
421
 16777215
 74
     1
 91
        4
 64
     7
 65
   257
 75
     1
175
     1
 42
1.0
 92
        8
 66
     7
 43
1.0
 76
     1
 77
     6
 78
     2
 67
     7
 79
     5
170
     0
171
     0
290
     0
174
     0
 93
        1
 44
0.0
173
     0
291
     1
 45
0.0
1001
ACAD
1000
AcDbSavedByObjectVersion
1070
     0
  0
VISUALSTYLE
  5
38
102
{ACAD_XDICTIONARY
360
7705
102
}
102
{ACAD_REACTORS
330
29
102
}
330
29
100
AcDbVisualStyle
  2
Facepattern
 70
    15
 71
     2
 72
     2
 73
     0
 90
        0
 40
-0.6
 41
-30.0
 62
     5
 63
     7
421
 16777215
 74
     1
 91
        4
 64
     7
 65
   257
 75
     1
175
     1
 42
1.0
 92
        8
 66
     7
 43
1.0
 76
     1
 77
     6
 78
     2
 67
     7
 79
     5
170
     0
171
     0
290
     0
174
     0
 93
        1
 44
0.0
173
     0
291
     1
 45
0.0
1001
ACAD
1000
AcDbSavedByObjectVersion
1070
     0
  0
VISUALSTYLE
  5
2A
102
{ACAD_XDICTIONARY
360
76E9
102
}
102
{ACAD_REACTORS
330
29
102
}
330
29
100
AcDbVisualStyle
  2
Flat
 70
     0
 71
     2
 72
     1
 73
     1
 90
        2
 40
-0.6
 41
30.0
 62
     5
 63
     7
421
 16777215
 74
     0
 91
        4
 64
     7
 65
   257
 75
     1
175
     1
 42
1.0
 92
        8
 66
     7
 43
1.0
 76
     1
 77
     6
 78
     2
 67
     7
 79
     5
170
     0
171
     0
290
     0
174
     0
 93
       13
 44
0.0
173
     0
291
     1
 45
0.0
1001
ACAD
1000
AcDbSavedByObjectVersion
1070
     0
  0
VISUALSTYLE
  5
2B
102
{ACAD_XDICTIONARY
360
76EB
102
}
102
{ACAD_REACTORS
330
29
102
}
330
29
100
AcDbVisualStyle
  2
FlatWithEdges
 70
     1
 71
     2
 72
     1
 73
     1
 90
        2
 40
-0.6
 41
30.0
 62
     5
 63
     7
421
 16777215
 74
     1
 91
        4
 64
     7
 65
   257
 75
     1
175
     1
 42
1.0
 92
        0
 66
   257
 43
1.0
 76
     1
 77
     6
 78
     2
 67
     7
 79
     5
170
     0
171
     0
290
     0
174
     0
 93
       13
 44
0.0
173
     0
291
     1
 45
0.0
1001
ACAD
1000
AcDbSavedByObjectVersion
1070
     0
  0
VISUALSTYLE
  5
2C
102
{ACAD_XDICTIONARY
360
76ED
102
}
102
{ACAD_REACTORS
330
29
102
}
330
29
100
AcDbVisualStyle
  2
Gouraud
 70
     2
 71
     2
 72
     2
 73
     1
 90
        2
 40
-0.6
 41
30.0
 62
     5
 63
     7
421
 16777215
 74
     0
 91
        4
 64
     7
 65
   257
 75
     1
175
     1
 42
1.0
 92
        0
 66
     7
 43
1.0
 76
     1
 77
     6
 78
     2
 67
     7
 79
     5
170
     0
171
     0
290
     0
174
     0
 93
       13
 44
0.0
173
     0
291
     1
 45
0.0
1001
ACAD
1000
AcDbSavedByObjectVersion
1070
     0
  0
VISUALSTYLE
  5
2D
102
{ACAD_XDICTIONARY
360
76EF
102
}
102
{ACAD_REACTORS
330
29
102
}
330
29
100
AcDbVisualStyle
  2
GouraudWithEdges
 70
     3
 71
     2
 72
     2
 73
     1
 90
        2
 40
-0.6
 41
30.0
 62
     5
 63
     7
421
 16777215
 74
     1
 91
        4
 64
     7
 65
   257
 75
     1
175
     1
 42
1.0
 92
        0
 66
   257
 43
1.0
 76
     1
 77
     6
 78
     2
 67
     7
 79
     5
170
     0
171
     0
290
     0
174
     0
 93
       13
 44
0.0
173
     0
291
     1
 45
0.0
1001
ACAD
1000
AcDbSavedByObjectVersion
1070
     0
  0
VISUALSTYLE
  5
3A
102
{ACAD_XDICTIONARY
360
7709
102
}
102
{ACAD_REACTORS
330
29
102
}
330
29
100
AcDbVisualStyle
  2
JitterOff
 70
    20
 71
     2
 72
     2
 73
     0
 90
        0
 40
-0.6
 41
-30.0
 62
     5
 63
     7
421
 16777215
 74
     1
 91
        4
 64
     7
 65
   257
 75
     1
175
     1
 42
1.0
 92
       10
 66
     7
 43
1.0
 76
     1
 77
     6
 78
     2
 67
     7
 79
     5
170
     0
171
     0
290
     0
174
     0
 93
        1
 44
0.0
173
     0
291
     1
 45
0.0
1001
ACAD
1000
AcDbSavedByObjectVersion
1070
     0
  0
VISUALSTYLE
  5
37
102
{ACAD_XDICTIONARY
360
7703
102
}
102
{ACAD_REACTORS
330
29
102
}
330
29
100
AcDbVisualStyle
  2
Linepattern
 70
    14
 71
     2
 72
     2
 73
     0
 90
        0
 40
-0.6
 41
-30.0
 62
     5
 63
     7
421
 16777215
 74
     1
 91
        4
 64
     7
 65
   257
 75
     7
175
     7
 42
1.0
 92
        8
 66
     7
 43
1.0
 76
     1
 77
     6
 78
     2
 67
     7
 79
     5
170
     0
171
     0
290
     0
174
     0
 93
        1
 44
0.0
173
     0
291
     1
 45
0.0
1001
ACAD
1000
AcDbSavedByObjectVersion
1070
     0
  0
VISUALSTYLE
  5
3B
102
{ACAD_XDICTIONARY
360
770B
102
}
102
{ACAD_REACTORS
330
29
102
}
330
29
100
AcDbVisualStyle
  2
OverhangOff
 70
    21
 71
     2
 72
     2
 73
     0
 90
        0
 40
-0.6
 41
-30.0
 62
     5
 63
     7
421
 16777215
 74
     1
 91
        4
 64
     7
 65
   257
 75
     1
175
     1
 42
1.0
 92
        9
 66
     7
 43
1.0
 76
     1
 77
     6
 78
     2
 67
     7
 79
     5
170
     0
171
     0
290
     0
174
     0
 93
        1
 44
0.0
173
     0
291
     1
 45
0.0
1001
ACAD
1000
AcDbSavedByObjectVersion
1070
     0
  0
VISUALSTYLE
  5
33
102
{ACAD_XDICTIONARY
360
76FB
102
}
102
{ACAD_REACTORS
330
29
102
}
330
29
100
AcDbVisualStyle
  2
Realistic
 70
     8
 71
     2
 72
     2
 73
     0
 90
        0
 40
-0.6
 41
-30.0
 62
     5
 63
     7
421
 16777215
 74
     1
 91
        0
 64
     7
 65
   257
 75
     1
175
     1
 42
1.0
 92
        8
 66
     8
424
  7895160
 43
1.0
 76
     1
 77
     6
 78
     2
 67
     7
 79
     5
170
     0
171
     0
290
     0
174
     0
 93
       13
 44
0.0
173
     0
291
     0
 45
0.0
1001
ACAD
1000
AcDbSavedByObjectVersion
1070
     0
  0
VISUALSTYLE
  5
36
102
{ACAD_XDICTIONARY
360
7701
102
}
102
{ACAD_REACTORS
330
29
102
}
330
29
100
AcDbVisualStyle
  2
Thicken
 70
    13
 71
     2
 72
     2
 73
     0
 90
        0
 40
-0.6
 41
-30.0
 62
     5
 63
     7
421
 16777215
 74
     1
 91
        4
 64
     7
 65
   257
 75
     1
175
     1
 42
1.0
 92
       12
 66
     7
 43
1.0
 76
     1
 77
     6
 78
     2
 67
     7
 79
     5
170
     0
171
     0
290
     0
174
     0
 93
        1
 44
0.0
173
     0
291
     1
 45
0.0
1001
ACAD
1000
AcDbSavedByObjectVersion
1070
     0
  0
DICTIONARYVAR
  5
76DC
102
{ACAD_REACTORS
330
76D8
102
}
330
76D8
100
DictionaryVariables
280
     0
  1
1:1
  0
DICTIONARYVAR
  5
76DA
102
{ACAD_REACTORS
330
76D8
102
}
330
76D8
100
DictionaryVariables
280
     0
  1
STANDARD
  0
DICTIONARYVAR
  5
76D9
102
{ACAD_REACTORS
330
76D8
102
}
330
76D8
100
DictionaryVariables
280
     0
  1
STANDARD
  0
DICTIONARYVAR
  5
76DE
102
{ACAD_REACTORS
330
76D8
102
}
330
76D8
100
DictionaryVariables
280
     0
  1
0
  0
DICTIONARYVAR
  5
76DF
102
{ACAD_REACTORS
330
76D8
102
}
330
76D8
100
DictionaryVariables
280
     0
  1
0
  0
DICTIONARYVAR
  5
76DD
102
{ACAD_REACTORS
330
76D8
102
}
330
76D8
100
DictionaryVariables
280
     0
  1
2
  0
DICTIONARYVAR
  5
76DB
102
{ACAD_REACTORS
330
76D8
102
}
330
76D8
100
DictionaryVariables
280
     0
  1
1
  0
DICTIONARYVAR
  5
76E0
102
{ACAD_REACTORS
330
76D8
102
}
330
76D8
100
DictionaryVariables
280
     0
  1
2
  0
DICTIONARY
  5
1A
330
19
100
AcDbDictionary
280
     1
281
     1
  3
ACAD_XREC_ROUNDTRIP
360
76E7
  3
BUMPTILE
360
1C
  3
DIFFUSETILE
360
1B
  3
OPACITYTILE
360
1F
  3
REFLECTIONTILE
360
1E
  3
REFRACTIONTILE
360
20
  3
SPECULARTILE
360
1D
  0
DICTIONARY
  5
12
330
11
100
AcDbDictionary
280
     1
281
     1
  3
ACAD_XREC_ROUNDTRIP
360
76E6
  3
BUMPTILE
360
14
  3
DIFFUSETILE
360
13
  3
OPACITYTILE
360
17
  3
REFLECTIONTILE
360
16
  3
REFRACTIONTILE
360
18
  3
SPECULARTILE
360
15
  0
DICTIONARY
  5
22
330
21
100
AcDbDictionary
280
     1
281
     1
  3
ACAD_XREC_ROUNDTRIP
360
76E8
  3
BUMPTILE
360
24
  3
DIFFUSETILE
360
23
  3
OPACITYTILE
360
27
  3
REFLECTIONTILE
360
26
  3
REFRACTIONTILE
360
28
  3
SPECULARTILE
360
25
  0
DICTIONARY
  5
76E1
330
60
100
AcDbDictionary
280
     1
281
     1
  3
ACAD_ROUNDTRIP_2008_TABLESTYLE_CELLSTYLEMAP
360
76E2
  3
ACAD_XREC_ROUNDTRIP
360
7710
  0
DICTIONARY
  5
76F3
330
2F
100
AcDbDictionary
280
     1
281
     1
  3
ACAD_XREC_ROUNDTRIP
360
76F4
  0
DICTIONARY
  5
76F7
330
31
100
AcDbDictionary
280
     1
281
     1
  3
ACAD_XREC_ROUNDTRIP
360
76F8
  0
DICTIONARY
  5
76F5
330
30
100
AcDbDictionary
280
     1
281
     1
  3
ACAD_XREC_ROUNDTRIP
360
76F6
  0
DICTIONARY
  5
76F1
330
2E
100
AcDbDictionary
280
     1
281
     1
  3
ACAD_XREC_ROUNDTRIP
360
76F2
  0
DICTIONARY
  5
76FF
330
35
100
AcDbDictionary
280
     1
281
     1
  3
ACAD_XREC_ROUNDTRIP
360
7700
  0
DICTIONARY
  5
7707
330
39
100
AcDbDictionary
280
     1
281
     1
  3
ACAD_XREC_ROUNDTRIP
360
7708
  0
DICTIONARY
  5
76F9
330
32
100
AcDbDictionary
280
     1
281
     1
  3
ACAD_XREC_ROUNDTRIP
360
76FA
  0
DICTIONARY
  5
76FD
330
34
100
AcDbDictionary
280
     1
281
     1
  3
ACAD_XREC_ROUNDTRIP
360
76FE
  0
DICTIONARY
  5
770D
330
3C
100
AcDbDictionary
280
     1
281
     1
  3
ACAD_XREC_ROUNDTRIP
360
770E
  0
DICTIONARY
  5
7705
330
38
100
AcDbDictionary
280
     1
281
     1
  3
ACAD_XREC_ROUNDTRIP
360
7706
  0
DICTIONARY
  5
76E9
330
2A
100
AcDbDictionary
280
     1
281
     1
  3
ACAD_XREC_ROUNDTRIP
360
76EA
  0
DICTIONARY
  5
76EB
330
2B
100
AcDbDictionary
280
     1
281
     1
  3
ACAD_XREC_ROUNDTRIP
360
76EC
  0
DICTIONARY
  5
76ED
330
2C
100
AcDbDictionary
280
     1
281
     1
  3
ACAD_XREC_ROUNDTRIP
360
76EE
  0
DICTIONARY
  5
76EF
330
2D
100
AcDbDictionary
280
     1
281
     1
  3
ACAD_XREC_ROUNDTRIP
360
76F0
  0
DICTIONARY
  5
7709
330
3A
100
AcDbDictionary
280
     1
281
     1
  3
ACAD_XREC_ROUNDTRIP
360
770A
  0
DICTIONARY
  5
7703
330
37
100
AcDbDictionary
280
     1
281
     1
  3
ACAD_XREC_ROUNDTRIP
360
7704
  0
DICTIONARY
  5
770B
330
3B
100
AcDbDictionary
280
     1
281
     1
  3
ACAD_XREC_ROUNDTRIP
360
770C
  0
DICTIONARY
  5
76FB
330
33
100
AcDbDictionary
280
     1
281
     1
  3
ACAD_XREC_ROUNDTRIP
360
76FC
  0
DICTIONARY
  5
7701
330
36
100
AcDbDictionary
280
     1
281
     1
  3
ACAD_XREC_ROUNDTRIP
360
7702
  0
XRECORD
  5
76E7
102
{ACAD_REACTORS
330
1A
102
}
330
1A
100
AcDbXrecord
280
     1
102
MATERIAL
148
0.0
149
0.0
149
0.0
 93
        0
 94
      127
282
     0
 72
     0
 77
     0
171
     0
175
     0
179
     0
273
     0
  0
XRECORD
  5
1C
102
{ACAD_REACTORS
330
1A
102
}
330
1A
100
AcDbXrecord
280
     1
270
     1
271
     1
  0
XRECORD
  5
1B
102
{ACAD_REACTORS
330
1A
102
}
330
1A
100
AcDbXrecord
280
     1
270
     1
271
     1
  0
XRECORD
  5
1F
102
{ACAD_REACTORS
330
1A
102
}
330
1A
100
AcDbXrecord
280
     1
270
     1
271
     1
  0
XRECORD
  5
1E
102
{ACAD_REACTORS
330
1A
102
}
330
1A
100
AcDbXrecord
280
     1
270
     1
271
     1
  0
XRECORD
  5
20
102
{ACAD_REACTORS
330
1A
102
}
330
1A
100
AcDbXrecord
280
     1
270
     1
271
     1
  0
XRECORD
  5
1D
102
{ACAD_REACTORS
330
1A
102
}
330
1A
100
AcDbXrecord
280
     1
270
     1
271
     1
  0
XRECORD
  5
76E6
102
{ACAD_REACTORS
330
12
102
}
330
12
100
AcDbXrecord
280
     1
102
MATERIAL
148
0.0
149
0.0
149
0.0
 93
        0
 94
      127
282
     0
 72
     0
 77
     0
171
     0
175
     0
179
     0
273
     0
  0
XRECORD
  5
14
102
{ACAD_REACTORS
330
12
102
}
330
12
100
AcDbXrecord
280
     1
270
     1
271
     1
  0
XRECORD
  5
13
102
{ACAD_REACTORS
330
12
102
}
330
12
100
AcDbXrecord
280
     1
270
     1
271
     1
  0
XRECORD
  5
17
102
{ACAD_REACTORS
330
12
102
}
330
12
100
AcDbXrecord
280
     1
270
     1
271
     1
  0
XRECORD
  5
16
102
{ACAD_REACTORS
330
12
102
}
330
12
100
AcDbXrecord
280
     1
270
     1
271
     1
  0
XRECORD
  5
18
102
{ACAD_REACTORS
330
12
102
}
330
12
100
AcDbXrecord
280
     1
270
     1
271
     1
  0
XRECORD
  5
15
102
{ACAD_REACTORS
330
12
102
}
330
12
100
AcDbXrecord
280
     1
270
     1
271
     1
  0
XRECORD
  5
76E8
102
{ACAD_REACTORS
330
22
102
}
330
22
100
AcDbXrecord
280
     1
102
MATERIAL
148
0.0
149
0.0
149
0.0
 93
        0
 94
      127
282
     0
 72
     0
 77
     0
171
     0
175
     0
179
     0
273
     0
  0
XRECORD
  5
24
102
{ACAD_REACTORS
330
22
102
}
330
22
100
AcDbXrecord
280
     1
270
     1
271
     1
  0
XRECORD
  5
23
102
{ACAD_REACTORS
330
22
102
}
330
22
100
AcDbXrecord
280
     1
270
     1
271
     1
  0
XRECORD
  5
27
102
{ACAD_REACTORS
330
22
102
}
330
22
100
AcDbXrecord
280
     1
270
     1
271
     1
  0
XRECORD
  5
26
102
{ACAD_REACTORS
330
22
102
}
330
22
100
AcDbXrecord
280
     1
270
     1
271
     1
  0
XRECORD
  5
28
102
{ACAD_REACTORS
330
22
102
}
330
22
100
AcDbXrecord
280
     1
270
     1
271
     1
  0
XRECORD
  5
25
102
{ACAD_REACTORS
330
22
102
}
330
22
100
AcDbXrecord
280
     1
270
     1
271
     1
  0
CELLSTYLEMAP
  5
76E2
102
{ACAD_REACTORS
330
76E1
102
}
330
76E1
100
AcDbCellStyleMap
 90
        3
300
CELLSTYLE
  1
TABLEFORMAT_BEGIN
 90
        5
170
     1
 91
        0
 92
    32768
 62
   257
 93
        1
300
CONTENTFORMAT
  1
CONTENTFORMAT_BEGIN
 90
        0
 91
        0
 92
      512
 93
        0
300

 40
0.0
140
1.0
 94
        5
 62
     0
340
50
144
6.0
309
CONTENTFORMAT_END
171
     1
301
MARGIN
  1
CELLMARGIN_BEGIN
 40
1.5
 40
1.5
 40
1.5
 40
1.5
 40
4.5
 40
4.5
309
CELLMARGIN_END
 94
        6
 95
        1
302
GRIDFORMAT
  1
GRIDFORMAT_BEGIN
 90
        0
 91
        1
 62
     0
 92
       -2
340
0
 93
        0
 40
1.125
309
GRIDFORMAT_END
 95
        2
302
GRIDFORMAT
  1
GRIDFORMAT_BEGIN
 90
        0
 91
        1
 62
     0
 92
       -2
340
0
 93
        0
 40
1.125
309
GRIDFORMAT_END
 95
        4
302
GRIDFORMAT
  1
GRIDFORMAT_BEGIN
 90
        0
 91
        1
 62
     0
 92
       -2
340
0
 93
        0
 40
1.125
309
GRIDFORMAT_END
 95
        8
302
GRIDFORMAT
  1
GRIDFORMAT_BEGIN
 90
        0
 91
        1
 62
     0
 92
       -2
340
0
 93
        0
 40
1.125
309
GRIDFORMAT_END
 95
       16
302
GRIDFORMAT
  1
GRIDFORMAT_BEGIN
 90
        0
 91
        1
 62
     0
 92
       -2
340
0
 93
        0
 40
1.125
309
GRIDFORMAT_END
 95
       32
302
GRIDFORMAT
  1
GRIDFORMAT_BEGIN
 90
        0
 91
        1
 62
     0
 92
       -2
340
0
 93
        0
 40
1.125
309
GRIDFORMAT_END
309
TABLEFORMAT_END
  1
CELLSTYLE_BEGIN
 90
        1
 91
        1
300
_TITLE
309
CELLSTYLE_END
300
CELLSTYLE
  1
TABLEFORMAT_BEGIN
 90
        5
170
     1
 91
        0
 92
        0
 62
   257
 93
        1
300
CONTENTFORMAT
  1
CONTENTFORMAT_BEGIN
 90
        0
 91
        0
 92
      512
 93
        0
300

 40
0.0
140
1.0
 94
        5
 62
     0
340
50
144
4.5
309
CONTENTFORMAT_END
171
     1
301
MARGIN
  1
CELLMARGIN_BEGIN
 40
1.5
 40
1.5
 40
1.5
 40
1.5
 40
4.5
 40
4.5
309
CELLMARGIN_END
 94
        6
 95
        1
302
GRIDFORMAT
  1
GRIDFORMAT_BEGIN
 90
        0
 91
        1
 62
     0
 92
       -2
340
0
 93
        0
 40
1.125
309
GRIDFORMAT_END
 95
        2
302
GRIDFORMAT
  1
GRIDFORMAT_BEGIN
 90
        0
 91
        1
 62
     0
 92
       -2
340
0
 93
        0
 40
1.125
309
GRIDFORMAT_END
 95
        4
302
GRIDFORMAT
  1
GRIDFORMAT_BEGIN
 90
        0
 91
        1
 62
     0
 92
       -2
340
0
 93
        0
 40
1.125
309
GRIDFORMAT_END
 95
        8
302
GRIDFORMAT
  1
GRIDFORMAT_BEGIN
 90
        0
 91
        1
 62
     0
 92
       -2
340
0
 93
        0
 40
1.125
309
GRIDFORMAT_END
 95
       16
302
GRIDFORMAT
  1
GRIDFORMAT_BEGIN
 90
        0
 91
        1
 62
     0
 92
       -2
340
0
 93
        0
 40
1.125
309
GRIDFORMAT_END
 95
       32
302
GRIDFORMAT
  1
GRIDFORMAT_BEGIN
 90
        0
 91
        1
 62
     0
 92
       -2
340
0
 93
        0
 40
1.125
309
GRIDFORMAT_END
309
TABLEFORMAT_END
  1
CELLSTYLE_BEGIN
 90
        2
 91
        1
300
_HEADER
309
CELLSTYLE_END
300
CELLSTYLE
  1
TABLEFORMAT_BEGIN
 90
        5
170
     1
 91
        0
 92
        0
 62
   257
 93
        1
300
CONTENTFORMAT
  1
CONTENTFORMAT_BEGIN
 90
        0
 91
        0
 92
      512
 93
        0
300

 40
0.0
140
1.0
 94
        2
 62
     0
340
50
144
4.5
309
CONTENTFORMAT_END
171
     1
301
MARGIN
  1
CELLMARGIN_BEGIN
 40
1.5
 40
1.5
 40
1.5
 40
1.5
 40
4.5
 40
4.5
309
CELLMARGIN_END
 94
        6
 95
        1
302
GRIDFORMAT
  1
GRIDFORMAT_BEGIN
 90
        0
 91
        1
 62
     0
 92
       -2
340
0
 93
        0
 40
1.125
309
GRIDFORMAT_END
 95
        2
302
GRIDFORMAT
  1
GRIDFORMAT_BEGIN
 90
        0
 91
        1
 62
     0
 92
       -2
340
0
 93
        0
 40
1.125
309
GRIDFORMAT_END
 95
        4
302
GRIDFORMAT
  1
GRIDFORMAT_BEGIN
 90
        0
 91
        1
 62
     0
 92
       -2
340
0
 93
        0
 40
1.125
309
GRIDFORMAT_END
 95
        8
302
GRIDFORMAT
  1
GRIDFORMAT_BEGIN
 90
        0
 91
        1
 62
     0
 92
       -2
340
0
 93
        0
 40
1.125
309
GRIDFORMAT_END
 95
       16
302
GRIDFORMAT
  1
GRIDFORMAT_BEGIN
 90
        0
 91
        1
 62
     0
 92
       -2
340
0
 93
        0
 40
1.125
309
GRIDFORMAT_END
 95
       32
302
GRIDFORMAT
  1
GRIDFORMAT_BEGIN
 90
        0
 91
        1
 62
     0
 92
       -2
340
0
 93
        0
 40
1.125
309
GRIDFORMAT_END
309
TABLEFORMAT_END
  1
CELLSTYLE_BEGIN
 90
        3
 91
        2
300
_DATA
309
CELLSTYLE_END
  0
XRECORD
  5
7710
102
{ACAD_REACTORS
330
76E1
102
}
330
76E1
100
AcDbXrecord
280
     1
102
ACAD_ROUNDTRIP_PRE2007_TABLESTYLE
 90
      512
 91
        0
  1

 92
      512
 93
        0
  2

 94
      512
 95
        0
  3

  0
XRECORD
  5
76F4
102
{ACAD_REACTORS
330
76F3
102
}
330
76F3
100
AcDbXrecord
280
     1
102
RTVSPropertyOp0
 70
     1
102
RTVSPropertyOp1
 70
     1
102
RTVSPropertyOp2
 70
     1
102
RTVSPropertyOp3
 70
     1
102
RTVSPropertyOp4
 70
     1
102
RTVSPropertyOp5
 70
     1
102
RTVSPropertyOp6
 70
     1
102
RTVSPropertyOp7
 70
     1
102
RTVSPropertyOp8
 70
     1
102
RTVSPropertyOp9
 70
     1
102
RTVSPropertyOp10
 70
     1
102
RTVSPropertyOp11
 70
     1
102
RTVSPropertyOp12
 70
     1
102
RTVSPropertyOp13
 70
     1
102
RTVSPropertyOp14
 70
     1
102
RTVSPropertyOp15
 70
     1
102
RTVSPropertyOp16
 70
     1
102
RTVSPropertyOp17
 70
     1
102
RTVSPropertyOp18
 70
     1
102
RTVSPropertyOp19
 70
     1
102
RTVSPropertyOp20
 70
     1
102
RTVSPropertyOp21
 70
     1
102
RTVSPropertyOp22
 70
     1
102
RTVSPropertyOp23
 70
     1
102
RTVSPropertyOp24
 70
     1
102
RTVSPropertyOp25
 70
     1
102
RTVSPropertyOp26
 70
     1
102
RTVSPropertyOp27
 70
     1
  0
XRECORD
  5
76F8
102
{ACAD_REACTORS
330
76F7
102
}
330
76F7
100
AcDbXrecord
280
     1
102
RTVSPropertyOp0
 70
     1
102
RTVSPropertyOp1
 70
     1
102
RTVSPropertyOp2
 70
     1
102
RTVSPropertyOp3
 70
     1
102
RTVSPropertyOp4
 70
     1
102
RTVSPropertyOp5
 70
     1
102
RTVSPropertyOp6
 70
     1
102
RTVSPropertyOp7
 70
     1
102
RTVSPropertyOp8
 70
     1
102
RTVSPropertyOp9
 70
     1
102
RTVSPropertyOp10
 70
     1
102
RTVSPropertyOp11
 70
     1
102
RTVSPropertyOp12
 70
     1
102
RTVSPropertyOp13
 70
     1
102
RTVSPropertyOp14
 70
     1
102
RTVSPropertyOp15
 70
     1
102
RTVSPropertyOp16
 70
     1
102
RTVSPropertyOp17
 70
     1
102
RTVSPropertyOp18
 70
     1
102
RTVSPropertyOp19
 70
     1
102
RTVSPropertyOp20
 70
     1
102
RTVSPropertyOp21
 70
     1
102
RTVSPropertyOp22
 70
     1
102
RTVSPropertyOp23
 70
     1
102
RTVSPropertyOp24
 70
     1
102
RTVSPropertyOp25
 70
     1
102
RTVSPropertyOp26
 70
     1
102
RTVSPropertyOp27
 70
     1
  0
XRECORD
  5
76F6
102
{ACAD_REACTORS
330
76F5
102
}
330
76F5
100
AcDbXrecord
280
     1
102
RTVSPropertyOp0
 70
     1
102
RTVSPropertyOp1
 70
     1
102
RTVSPropertyOp2
 70
     1
102
RTVSPropertyOp3
 70
     1
102
RTVSPropertyOp4
 70
     1
102
RTVSPropertyOp5
 70
     1
102
RTVSPropertyOp6
 70
     1
102
RTVSPropertyOp7
 70
     1
102
RTVSPropertyOp8
 70
     1
102
RTVSPropertyOp9
 70
     1
102
RTVSPropertyOp10
 70
     1
102
RTVSPropertyOp11
 70
     1
102
RTVSPropertyOp12
 70
     1
102
RTVSPropertyOp13
 70
     1
102
RTVSPropertyOp14
 70
     1
102
RTVSPropertyOp15
 70
     1
102
RTVSPropertyOp16
 70
     1
102
RTVSPropertyOp17
 70
     1
102
RTVSPropertyOp18
 70
     1
102
RTVSPropertyOp19
 70
     1
102
RTVSPropertyOp20
 70
     1
102
RTVSPropertyOp21
 70
     1
102
RTVSPropertyOp22
 70
     1
102
RTVSPropertyOp23
 70
     1
102
RTVSPropertyOp24
 70
     1
102
RTVSPropertyOp25
 70
     1
102
RTVSPropertyOp26
 70
     1
102
RTVSPropertyOp27
 70
     1
  0
XRECORD
  5
76F2
102
{ACAD_REACTORS
330
76F1
102
}
330
76F1
100
AcDbXrecord
280
     1
102
RTVSPropertyOp0
 70
     1
102
RTVSPropertyOp1
 70
     1
102
RTVSPropertyOp2
 70
     1
102
RTVSPropertyOp3
 70
     1
102
RTVSPropertyOp4
 70
     1
102
RTVSPropertyOp5
 70
     1
102
RTVSPropertyOp6
 70
     1
102
RTVSPropertyOp7
 70
     1
102
RTVSPropertyOp8
 70
     1
102
RTVSPropertyOp9
 70
     1
102
RTVSPropertyOp10
 70
     1
102
RTVSPropertyOp11
 70
     1
102
RTVSPropertyOp12
 70
     1
102
RTVSPropertyOp13
 70
     1
102
RTVSPropertyOp14
 70
     1
102
RTVSPropertyOp15
 70
     1
102
RTVSPropertyOp16
 70
     1
102
RTVSPropertyOp17
 70
     1
102
RTVSPropertyOp18
 70
     1
102
RTVSPropertyOp19
 70
     1
102
RTVSPropertyOp20
 70
     1
102
RTVSPropertyOp21
 70
     1
102
RTVSPropertyOp22
 70
     1
102
RTVSPropertyOp23
 70
     1
102
RTVSPropertyOp24
 70
     1
102
RTVSPropertyOp25
 70
     1
102
RTVSPropertyOp26
 70
     1
102
RTVSPropertyOp27
 70
     1
  0
XRECORD
  5
7700
102
{ACAD_REACTORS
330
76FF
102
}
330
76FF
100
AcDbXrecord
280
     1
102
RTVSPropertyOp0
 70
     1
102
RTVSPropertyOp1
 70
     1
102
RTVSPropertyOp2
 70
     1
102
RTVSPropertyOp3
 70
     1
102
RTVSPropertyOp4
 70
     1
102
RTVSPropertyOp5
 70
     1
102
RTVSPropertyOp6
 70
     1
102
RTVSPropertyOp7
 70
     1
102
RTVSPropertyOp8
 70
     1
102
RTVSPropertyOp9
 70
     1
102
RTVSPropertyOp10
 70
     1
102
RTVSPropertyOp11
 70
     1
102
RTVSPropertyOp12
 70
     1
102
RTVSPropertyOp13
 70
     1
102
RTVSPropertyOp14
 70
     1
102
RTVSPropertyOp15
 70
     1
102
RTVSPropertyOp16
 70
     1
102
RTVSPropertyOp17
 70
     1
102
RTVSPropertyOp18
 70
     1
102
RTVSPropertyOp19
 70
     1
102
RTVSPropertyOp20
 70
     1
102
RTVSPropertyOp21
 70
     1
102
RTVSPropertyOp22
 70
     1
102
RTVSPropertyOp23
 70
     1
102
RTVSPropertyOp24
 70
     1
102
RTVSPropertyOp25
 70
     1
102
RTVSPropertyOp26
 70
     1
102
RTVSPropertyOp27
 70
     1
  0
XRECORD
  5
7708
102
{ACAD_REACTORS
330
7707
102
}
330
7707
100
AcDbXrecord
280
     1
102
RTVSPropertyOp0
 70
     1
102
RTVSPropertyOp1
 70
     1
102
RTVSPropertyOp2
 70
     1
102
RTVSPropertyOp3
 70
     1
102
RTVSPropertyOp4
 70
     1
102
RTVSPropertyOp5
 70
     1
102
RTVSPropertyOp6
 70
     1
102
RTVSPropertyOp7
 70
     1
102
RTVSPropertyOp8
 70
     1
102
RTVSPropertyOp9
 70
     1
102
RTVSPropertyOp10
 70
     1
102
RTVSPropertyOp11
 70
     1
102
RTVSPropertyOp12
 70
     1
102
RTVSPropertyOp13
 70
     1
102
RTVSPropertyOp14
 70
     1
102
RTVSPropertyOp15
 70
     1
102
RTVSPropertyOp16
 70
     1
102
RTVSPropertyOp17
 70
     1
102
RTVSPropertyOp18
 70
     1
102
RTVSPropertyOp19
 70
     1
102
RTVSPropertyOp20
 70
     1
102
RTVSPropertyOp21
 70
     1
102
RTVSPropertyOp22
 70
     1
102
RTVSPropertyOp23
 70
     1
102
RTVSPropertyOp24
 70
     1
102
RTVSPropertyOp25
 70
     1
102
RTVSPropertyOp26
 70
     1
102
RTVSPropertyOp27
 70
     1
  0
XRECORD
  5
76FA
102
{ACAD_REACTORS
330
76F9
102
}
330
76F9
100
AcDbXrecord
280
     1
102
RTVSPropertyOp0
 70
     1
102
RTVSPropertyOp1
 70
     1
102
RTVSPropertyOp2
 70
     1
102
RTVSPropertyOp3
 70
     1
102
RTVSPropertyOp4
 70
     1
102
RTVSPropertyOp5
 70
     1
102
RTVSPropertyOp6
 70
     1
102
RTVSPropertyOp7
 70
     1
102
RTVSPropertyOp8
 70
     1
102
RTVSPropertyOp9
 70
     1
102
RTVSPropertyOp10
 70
     1
102
RTVSPropertyOp11
 70
     1
102
RTVSPropertyOp12
 70
     1
102
RTVSPropertyOp13
 70
     1
102
RTVSPropertyOp14
 70
     1
102
RTVSPropertyOp15
 70
     1
102
RTVSPropertyOp16
 70
     1
102
RTVSPropertyOp17
 70
     1
102
RTVSPropertyOp18
 70
     1
102
RTVSPropertyOp19
 70
     1
102
RTVSPropertyOp20
 70
     1
102
RTVSPropertyOp21
 70
     1
102
RTVSPropertyOp22
 70
     1
102
RTVSPropertyOp23
 70
     1
102
RTVSPropertyOp24
 70
     1
102
RTVSPropertyOp25
 70
     1
102
RTVSPropertyOp26
 70
     1
102
RTVSPropertyOp27
 70
     1
  0
XRECORD
  5
76FE
102
{ACAD_REACTORS
330
76FD
102
}
330
76FD
100
AcDbXrecord
280
     1
102
RTVSPropertyOp0
 70
     1
102
RTVSPropertyOp1
 70
     1
102
RTVSPropertyOp2
 70
     1
102
RTVSPropertyOp3
 70
     1
102
RTVSPropertyOp4
 70
     1
102
RTVSPropertyOp5
 70
     1
102
RTVSPropertyOp6
 70
     1
102
RTVSPropertyOp7
 70
     1
102
RTVSPropertyOp8
 70
     1
102
RTVSPropertyOp9
 70
     1
102
RTVSPropertyOp10
 70
     1
102
RTVSPropertyOp11
 70
     1
102
RTVSPropertyOp12
 70
     1
102
RTVSPropertyOp13
 70
     1
102
RTVSPropertyOp14
 70
     1
102
RTVSPropertyOp15
 70
     1
102
RTVSPropertyOp16
 70
     1
102
RTVSPropertyOp17
 70
     1
102
RTVSPropertyOp18
 70
     1
102
RTVSPropertyOp19
 70
     1
102
RTVSPropertyOp20
 70
     1
102
RTVSPropertyOp21
 70
     1
102
RTVSPropertyOp22
 70
     1
102
RTVSPropertyOp23
 70
     1
102
RTVSPropertyOp24
 70
     1
102
RTVSPropertyOp25
 70
     1
102
RTVSPropertyOp26
 70
     1
102
RTVSPropertyOp27
 70
     1
  0
XRECORD
  5
770E
102
{ACAD_REACTORS
330
770D
102
}
330
770D
100
AcDbXrecord
280
     1
102
RTVSPropertyOp0
 70
     0
102
RTVSPropertyOp1
 70
     0
102
RTVSPropertyOp2
 70
     0
102
RTVSPropertyOp3
 70
     0
102
RTVSPropertyOp4
 70
     0
102
RTVSPropertyOp5
 70
     0
102
RTVSPropertyOp6
 70
     0
102
RTVSPropertyOp7
 70
     0
102
RTVSPropertyOp8
 70
     0
102
RTVSPropertyOp9
 70
     0
102
RTVSPropertyOp10
 70
     0
102
RTVSPropertyOp11
 70
     0
102
RTVSPropertyOp12
 70
     0
102
RTVSPropertyOp13
 70
     0
102
RTVSPropertyOp14
 70
     2
102
RTVSPropertyOp15
 70
     0
102
RTVSPropertyOp16
 70
     0
102
RTVSPropertyOp17
 70
     0
102
RTVSPropertyOp18
 70
     0
102
RTVSPropertyOp19
 70
     0
102
RTVSPropertyOp20
 70
     0
102
RTVSPropertyOp21
 70
     0
102
RTVSPropertyOp22
 70
     0
102
RTVSPropertyOp23
 70
     0
102
RTVSPropertyOp24
 70
     0
102
RTVSPropertyOp25
 70
     0
102
RTVSPropertyOp26
 70
     0
102
RTVSPropertyOp27
 70
     0
  0
XRECORD
  5
7706
102
{ACAD_REACTORS
330
7705
102
}
330
7705
100
AcDbXrecord
280
     1
102
RTVSPropertyOp0
 70
     1
102
RTVSPropertyOp1
 70
     1
102
RTVSPropertyOp2
 70
     1
102
RTVSPropertyOp3
 70
     1
102
RTVSPropertyOp4
 70
     1
102
RTVSPropertyOp5
 70
     1
102
RTVSPropertyOp6
 70
     1
102
RTVSPropertyOp7
 70
     1
102
RTVSPropertyOp8
 70
     1
102
RTVSPropertyOp9
 70
     1
102
RTVSPropertyOp10
 70
     1
102
RTVSPropertyOp11
 70
     1
102
RTVSPropertyOp12
 70
     1
102
RTVSPropertyOp13
 70
     1
102
RTVSPropertyOp14
 70
     1
102
RTVSPropertyOp15
 70
     1
102
RTVSPropertyOp16
 70
     1
102
RTVSPropertyOp17
 70
     1
102
RTVSPropertyOp18
 70
     1
102
RTVSPropertyOp19
 70
     1
102
RTVSPropertyOp20
 70
     1
102
RTVSPropertyOp21
 70
     1
102
RTVSPropertyOp22
 70
     1
102
RTVSPropertyOp23
 70
     1
102
RTVSPropertyOp24
 70
     1
102
RTVSPropertyOp25
 70
     1
102
RTVSPropertyOp26
 70
     1
102
RTVSPropertyOp27
 70
     1
  0
XRECORD
  5
76EA
102
{ACAD_REACTORS
330
76E9
102
}
330
76E9
100
AcDbXrecord
280
     1
102
RTVSPropertyOp0
 70
     1
102
RTVSPropertyOp1
 70
     1
102
RTVSPropertyOp2
 70
     1
102
RTVSPropertyOp3
 70
     1
102
RTVSPropertyOp4
 70
     1
102
RTVSPropertyOp5
 70
     1
102
RTVSPropertyOp6
 70
     1
102
RTVSPropertyOp7
 70
     1
102
RTVSPropertyOp8
 70
     1
102
RTVSPropertyOp9
 70
     1
102
RTVSPropertyOp10
 70
     1
102
RTVSPropertyOp11
 70
     1
102
RTVSPropertyOp12
 70
     1
102
RTVSPropertyOp13
 70
     1
102
RTVSPropertyOp14
 70
     1
102
RTVSPropertyOp15
 70
     1
102
RTVSPropertyOp16
 70
     1
102
RTVSPropertyOp17
 70
     1
102
RTVSPropertyOp18
 70
     1
102
RTVSPropertyOp19
 70
     1
102
RTVSPropertyOp20
 70
     1
102
RTVSPropertyOp21
 70
     1
102
RTVSPropertyOp22
 70
     1
102
RTVSPropertyOp23
 70
     1
102
RTVSPropertyOp24
 70
     1
102
RTVSPropertyOp25
 70
     1
102
RTVSPropertyOp26
 70
     1
102
RTVSPropertyOp27
 70
     1
  0
XRECORD
  5
76EC
102
{ACAD_REACTORS
330
76EB
102
}
330
76EB
100
AcDbXrecord
280
     1
102
RTVSPropertyOp0
 70
     1
102
RTVSPropertyOp1
 70
     1
102
RTVSPropertyOp2
 70
     1
102
RTVSPropertyOp3
 70
     1
102
RTVSPropertyOp4
 70
     1
102
RTVSPropertyOp5
 70
     1
102
RTVSPropertyOp6
 70
     1
102
RTVSPropertyOp7
 70
     1
102
RTVSPropertyOp8
 70
     1
102
RTVSPropertyOp9
 70
     1
102
RTVSPropertyOp10
 70
     1
102
RTVSPropertyOp11
 70
     1
102
RTVSPropertyOp12
 70
     1
102
RTVSPropertyOp13
 70
     1
102
RTVSPropertyOp14
 70
     1
102
RTVSPropertyOp15
 70
     1
102
RTVSPropertyOp16
 70
     1
102
RTVSPropertyOp17
 70
     1
102
RTVSPropertyOp18
 70
     1
102
RTVSPropertyOp19
 70
     1
102
RTVSPropertyOp20
 70
     1
102
RTVSPropertyOp21
 70
     1
102
RTVSPropertyOp22
 70
     1
102
RTVSPropertyOp23
 70
     1
102
RTVSPropertyOp24
 70
     1
102
RTVSPropertyOp25
 70
     1
102
RTVSPropertyOp26
 70
     1
102
RTVSPropertyOp27
 70
     1
  0
XRECORD
  5
76EE
102
{ACAD_REACTORS
330
76ED
102
}
330
76ED
100
AcDbXrecord
280
     1
102
RTVSPropertyOp0
 70
     1
102
RTVSPropertyOp1
 70
     1
102
RTVSPropertyOp2
 70
     1
102
RTVSPropertyOp3
 70
     1
102
RTVSPropertyOp4
 70
     1
102
RTVSPropertyOp5
 70
     1
102
RTVSPropertyOp6
 70
     1
102
RTVSPropertyOp7
 70
     1
102
RTVSPropertyOp8
 70
     1
102
RTVSPropertyOp9
 70
     1
102
RTVSPropertyOp10
 70
     1
102
RTVSPropertyOp11
 70
     1
102
RTVSPropertyOp12
 70
     1
102
RTVSPropertyOp13
 70
     1
102
RTVSPropertyOp14
 70
     1
102
RTVSPropertyOp15
 70
     1
102
RTVSPropertyOp16
 70
     1
102
RTVSPropertyOp17
 70
     1
102
RTVSPropertyOp18
 70
     1
102
RTVSPropertyOp19
 70
     1
102
RTVSPropertyOp20
 70
     1
102
RTVSPropertyOp21
 70
     1
102
RTVSPropertyOp22
 70
     1
102
RTVSPropertyOp23
 70
     1
102
RTVSPropertyOp24
 70
     1
102
RTVSPropertyOp25
 70
     1
102
RTVSPropertyOp26
 70
     1
102
RTVSPropertyOp27
 70
     1
  0
XRECORD
  5
76F0
102
{ACAD_REACTORS
330
76EF
102
}
330
76EF
100
AcDbXrecord
280
     1
102
RTVSPropertyOp0
 70
     1
102
RTVSPropertyOp1
 70
     1
102
RTVSPropertyOp2
 70
     1
102
RTVSPropertyOp3
 70
     1
102
RTVSPropertyOp4
 70
     1
102
RTVSPropertyOp5
 70
     1
102
RTVSPropertyOp6
 70
     1
102
RTVSPropertyOp7
 70
     1
102
RTVSPropertyOp8
 70
     1
102
RTVSPropertyOp9
 70
     1
102
RTVSPropertyOp10
 70
     1
102
RTVSPropertyOp11
 70
     1
102
RTVSPropertyOp12
 70
     1
102
RTVSPropertyOp13
 70
     1
102
RTVSPropertyOp14
 70
     1
102
RTVSPropertyOp15
 70
     1
102
RTVSPropertyOp16
 70
     1
102
RTVSPropertyOp17
 70
     1
102
RTVSPropertyOp18
 70
     1
102
RTVSPropertyOp19
 70
     1
102
RTVSPropertyOp20
 70
     1
102
RTVSPropertyOp21
 70
     1
102
RTVSPropertyOp22
 70
     1
102
RTVSPropertyOp23
 70
     1
102
RTVSPropertyOp24
 70
     1
102
RTVSPropertyOp25
 70
     1
102
RTVSPropertyOp26
 70
     1
102
RTVSPropertyOp27
 70
     1
  0
XRECORD
  5
770A
102
{ACAD_REACTORS
330
7709
102
}
330
7709
100
AcDbXrecord
280
     1
102
RTVSPropertyOp0
 70
     0
102
RTVSPropertyOp1
 70
     0
102
RTVSPropertyOp2
 70
     0
102
RTVSPropertyOp3
 70
     0
102
RTVSPropertyOp4
 70
     0
102
RTVSPropertyOp5
 70
     0
102
RTVSPropertyOp6
 70
     0
102
RTVSPropertyOp7
 70
     0
102
RTVSPropertyOp8
 70
     0
102
RTVSPropertyOp9
 70
     0
102
RTVSPropertyOp10
 70
     0
102
RTVSPropertyOp11
 70
     0
102
RTVSPropertyOp12
 70
     0
102
RTVSPropertyOp13
 70
     0
102
RTVSPropertyOp14
 70
     2
102
RTVSPropertyOp15
 70
     0
102
RTVSPropertyOp16
 70
     0
102
RTVSPropertyOp17
 70
     0
102
RTVSPropertyOp18
 70
     0
102
RTVSPropertyOp19
 70
     0
102
RTVSPropertyOp20
 70
     0
102
RTVSPropertyOp21
 70
     0
102
RTVSPropertyOp22
 70
     0
102
RTVSPropertyOp23
 70
     0
102
RTVSPropertyOp24
 70
     0
102
RTVSPropertyOp25
 70
     0
102
RTVSPropertyOp26
 70
     0
102
RTVSPropertyOp27
 70
     0
  0
XRECORD
  5
7704
102
{ACAD_REACTORS
330
7703
102
}
330
7703
100
AcDbXrecord
280
     1
102
RTVSPropertyOp0
 70
     1
102
RTVSPropertyOp1
 70
     1
102
RTVSPropertyOp2
 70
     1
102
RTVSPropertyOp3
 70
     1
102
RTVSPropertyOp4
 70
     1
102
RTVSPropertyOp5
 70
     1
102
RTVSPropertyOp6
 70
     1
102
RTVSPropertyOp7
 70
     1
102
RTVSPropertyOp8
 70
     1
102
RTVSPropertyOp9
 70
     1
102
RTVSPropertyOp10
 70
     1
102
RTVSPropertyOp11
 70
     1
102
RTVSPropertyOp12
 70
     1
102
RTVSPropertyOp13
 70
     1
102
RTVSPropertyOp14
 70
     1
102
RTVSPropertyOp15
 70
     1
102
RTVSPropertyOp16
 70
     1
102
RTVSPropertyOp17
 70
     1
102
RTVSPropertyOp18
 70
     1
102
RTVSPropertyOp19
 70
     1
102
RTVSPropertyOp20
 70
     1
102
RTVSPropertyOp21
 70
     1
102
RTVSPropertyOp22
 70
     1
102
RTVSPropertyOp23
 70
     1
102
RTVSPropertyOp24
 70
     1
102
RTVSPropertyOp25
 70
     1
102
RTVSPropertyOp26
 70
     1
102
RTVSPropertyOp27
 70
     1
  0
XRECORD
  5
770C
102
{ACAD_REACTORS
330
770B
102
}
330
770B
100
AcDbXrecord
280
     1
102
RTVSPropertyOp0
 70
     0
102
RTVSPropertyOp1
 70
     0
102
RTVSPropertyOp2
 70
     0
102
RTVSPropertyOp3
 70
     0
102
RTVSPropertyOp4
 70
     0
102
RTVSPropertyOp5
 70
     0
102
RTVSPropertyOp6
 70
     0
102
RTVSPropertyOp7
 70
     0
102
RTVSPropertyOp8
 70
     0
102
RTVSPropertyOp9
 70
     0
102
RTVSPropertyOp10
 70
     0
102
RTVSPropertyOp11
 70
     0
102
RTVSPropertyOp12
 70
     0
102
RTVSPropertyOp13
 70
     0
102
RTVSPropertyOp14
 70
     2
102
RTVSPropertyOp15
 70
     0
102
RTVSPropertyOp16
 70
     0
102
RTVSPropertyOp17
 70
     0
102
RTVSPropertyOp18
 70
     0
102
RTVSPropertyOp19
 70
     0
102
RTVSPropertyOp20
 70
     0
102
RTVSPropertyOp21
 70
     0
102
RTVSPropertyOp22
 70
     0
102
RTVSPropertyOp23
 70
     0
102
RTVSPropertyOp24
 70
     0
102
RTVSPropertyOp25
 70
     0
102
RTVSPropertyOp26
 70
     0
102
RTVSPropertyOp27
 70
     0
  0
XRECORD
  5
76FC
102
{ACAD_REACTORS
330
76FB
102
}
330
76FB
100
AcDbXrecord
280
     1
102
RTVSPropertyOp0
 70
     1
102
RTVSPropertyOp1
 70
     1
102
RTVSPropertyOp2
 70
     1
102
RTVSPropertyOp3
 70
     1
102
RTVSPropertyOp4
 70
     1
102
RTVSPropertyOp5
 70
     1
102
RTVSPropertyOp6
 70
     1
102
RTVSPropertyOp7
 70
     1
102
RTVSPropertyOp8
 70
     1
102
RTVSPropertyOp9
 70
     1
102
RTVSPropertyOp10
 70
     1
102
RTVSPropertyOp11
 70
     1
102
RTVSPropertyOp12
 70
     1
102
RTVSPropertyOp13
 70
     1
102
RTVSPropertyOp14
 70
     1
102
RTVSPropertyOp15
 70
     1
102
RTVSPropertyOp16
 70
     1
102
RTVSPropertyOp17
 70
     1
102
RTVSPropertyOp18
 70
     1
102
RTVSPropertyOp19
 70
     1
102
RTVSPropertyOp20
 70
     1
102
RTVSPropertyOp21
 70
     1
102
RTVSPropertyOp22
 70
     1
102
RTVSPropertyOp23
 70
     1
102
RTVSPropertyOp24
 70
     1
102
RTVSPropertyOp25
 70
     1
102
RTVSPropertyOp26
 70
     1
102
RTVSPropertyOp27
 70
     1
  0
XRECORD
  5
7702
102
{ACAD_REACTORS
330
7701
102
}
330
7701
100
AcDbXrecord
280
     1
102
RTVSPropertyOp0
 70
     1
102
RTVSPropertyOp1
 70
     1
102
RTVSPropertyOp2
 70
     1
102
RTVSPropertyOp3
 70
     1
102
RTVSPropertyOp4
 70
     1
102
RTVSPropertyOp5
 70
     1
102
RTVSPropertyOp6
 70
     1
102
RTVSPropertyOp7
 70
     1
102
RTVSPropertyOp8
 70
     1
102
RTVSPropertyOp9
 70
     1
102
RTVSPropertyOp10
 70
     1
102
RTVSPropertyOp11
 70
     1
102
RTVSPropertyOp12
 70
     1
102
RTVSPropertyOp13
 70
     1
102
RTVSPropertyOp14
 70
     1
102
RTVSPropertyOp15
 70
     1
102
RTVSPropertyOp16
 70
     1
102
RTVSPropertyOp17
 70
     1
102
RTVSPropertyOp18
 70
     1
102
RTVSPropertyOp19
 70
     1
102
RTVSPropertyOp20
 70
     1
102
RTVSPropertyOp21
 70
     1
102
RTVSPropertyOp22
 70
     1
102
RTVSPropertyOp23
 70
     1
102
RTVSPropertyOp24
 70
     1
102
RTVSPropertyOp25
 70
     1
102
RTVSPropertyOp26
 70
     1
102
RTVSPropertyOp27
 70
     1
  0
ENDSEC
  0
EOF
