  0
SECTION
  2
HEADER
  9
$ACADVER
  1
AC1018
  9
$ACADMAINTVER
 70
   104
  9
$DWGCODEPAGE
  3
ANSI_1252
  9
$LASTSAVEDBY
  1
admin
  9
$INSBASE
 10
0.0
 20
0.0
 30
0.0
  9
$EXTMIN
 10
240.342098555795
 20
133.4136370600379
 30
-0.0015258207003583
  9
$EXTMAX
 10
638.8467772299591
 20
764.6783727277015
 30
0.0000000349246037
  9
$LIMMIN
 10
0.0
 20
0.0
  9
$LIMMAX
 10
420.0
 20
297.0
  9
$ORTHOMODE
 70
     0
  9
$REGENMODE
 70
     1
  9
$FILLMODE
 70
     1
  9
$QTEXTMODE
 70
     0
  9
$MIRRTEXT
 70
     0
  9
$LTSCALE
 40
1.0
  9
$ATTMODE
 70
     1
  9
$TEXTSIZE
 40
2.5
  9
$TRACEWID
 40
1.0
  9
$TEXTSTYLE
  7
Standard
  9
$CLAYER
  8
0
  9
$CELTYPE
  6
ByLayer
  9
$CECOLOR
 62
   256
  9
$CELTSCALE
 40
1.0
  9
$DISPSILH
 70
     0
  9
$DIMSCALE
 40
1.0
  9
$DIMASZ
 40
2.5
  9
$DIMEXO
 40
0.625
  9
$DIMDLI
 40
3.75
  9
$DIMRND
 40
0.0
  9
$DIMDLE
 40
0.0
  9
$DIMEXE
 40
1.25
  9
$DIMTP
 40
0.0
  9
$DIMTM
 40
0.0
  9
$DIMTXT
 40
2.5
  9
$DIMCEN
 40
2.5
  9
$DIMTSZ
 40
0.0
  9
$DIMTOL
 70
     0
  9
$DIMLIM
 70
     0
  9
$DIMTIH
 70
     0
  9
$DIMTOH
 70
     0
  9
$DIMSE1
 70
     0
  9
$DIMSE2
 70
     0
  9
$DIMTAD
 70
     1
  9
$DIMZIN
 70
     8
  9
$DIMBLK
  1

  9
$DIMASO
 70
     1
  9
$DIMSHO
 70
     1
  9
$DIMPOST
  1

  9
$DIMAPOST
  1

  9
$DIMALT
 70
     0
  9
$DIMALTD
 70
     3
  9
$DIMALTF
 40
0.03937007874016
  9
$DIMLFAC
 40
1.0
  9
$DIMTOFL
 70
     1
  9
$DIMTVP
 40
0.0
  9
$DIMTIX
 70
     0
  9
$DIMSOXD
 70
     0
  9
$DIMSAH
 70
     0
  9
$DIMBLK1
  1

  9
$DIMBLK2
  1

  9
$DIMSTYLE
  2
ISO-25
  9
$DIMCLRD
 70
     0
  9
$DIMCLRE
 70
     0
  9
$DIMCLRT
 70
     0
  9
$DIMTFAC
 40
1.0
  9
$DIMGAP
 40
0.625
  9
$DIMJUST
 70
     0
  9
$DIMSD1
 70
     0
  9
$DIMSD2
 70
     0
  9
$DIMTOLJ
 70
     0
  9
$DIMTZIN
 70
     8
  9
$DIMALTZ
 70
     0
  9
$DIMALTTZ
 70
     0
  9
$DIMUPT
 70
     0
  9
$DIMDEC
 70
     2
  9
$DIMTDEC
 70
     2
  9
$DIMALTU
 70
     2
  9
$DIMALTTD
 70
     3
  9
$DIMTXSTY
  7
Standard
  9
$DIMAUNIT
 70
     0
  9
$DIMADEC
 70
     0
  9
$DIMALTRND
 40
0.0
  9
$DIMAZIN
 70
     0
  9
$DIMDSEP
 70
    44
  9
$DIMATFIT
 70
     3
  9
$DIMFRAC
 70
     0
  9
$DIMLDRBLK
  1

  9
$DIMLUNIT
 70
     2
  9
$DIMLWD
 70
    -2
  9
$DIMLWE
 70
    -2
  9
$DIMTMOVE
 70
     0
  9
$LUNITS
 70
     2
  9
$LUPREC
 70
     4
  9
$SKETCHINC
 40
1.0
  9
$FILLETRAD
 40
0.0
  9
$AUNITS
 70
     0
  9
$AUPREC
 70
     0
  9
$MENU
  1
.
  9
$ELEVATION
 40
0.0
  9
$PELEVATION
 40
0.0
  9
$THICKNESS
 40
0.0
  9
$LIMCHECK
 70
     0
  9
$CHAMFERA
 40
0.0
  9
$CHAMFERB
 40
0.0
  9
$CHAMFERC
 40
0.0
  9
$CHAMFERD
 40
0.0
  9
$SKPOLY
 70
     0
  9
$TDCREATE
 40
2457869.280614120
  9
$TDUCREATE
 40
2457869.197280787
  9
$TDUPDATE
 40
2457869.362005683
  9
$TDUUPDATE
 40
2457869.278672350
  9
$TDINDWG
 40
0.0813920139
  9
$TDUSRTIMER
 40
0.0813918287
  9
$USRTIMER
 70
     1
  9
$ANGBASE
 50
0.0
  9
$ANGDIR
 70
     0
  9
$PDMODE
 70
     0
  9
$PDSIZE
 40
0.0
  9
$PLINEWID
 40
0.0
  9
$SPLFRAME
 70
     0
  9
$SPLINETYPE
 70
     6
  9
$SPLINESEGS
 70
     8
  9
$HANDSEED
  5
909E
  9
$SURFTAB1
 70
     6
  9
$SURFTAB2
 70
     6
  9
$SURFTYPE
 70
     6
  9
$SURFU
 70
     6
  9
$SURFV
 70
     6
  9
$UCSBASE
  2

  9
$UCSNAME
  2

  9
$UCSORG
 10
0.0
 20
0.0
 30
0.0
  9
$UCSXDIR
 10
1.0
 20
0.0
 30
0.0
  9
$UCSYDIR
 10
0.0
 20
1.0
 30
0.0
  9
$UCSORTHOREF
  2

  9
$UCSORTHOVIEW
 70
     0
  9
$UCSORGTOP
 10
0.0
 20
0.0
 30
0.0
  9
$UCSORGBOTTOM
 10
0.0
 20
0.0
 30
0.0
  9
$UCSORGLEFT
 10
0.0
 20
0.0
 30
0.0
  9
$UCSORGRIGHT
 10
0.0
 20
0.0
 30
0.0
  9
$UCSORGFRONT
 10
0.0
 20
0.0
 30
0.0
  9
$UCSORGBACK
 10
0.0
 20
0.0
 30
0.0
  9
$PUCSBASE
  2

  9
$PUCSNAME
  2

  9
$PUCSORG
 10
0.0
 20
0.0
 30
0.0
  9
$PUCSXDIR
 10
1.0
 20
0.0
 30
0.0
  9
$PUCSYDIR
 10
0.0
 20
1.0
 30
0.0
  9
$PUCSORTHOREF
  2

  9
$PUCSORTHOVIEW
 70
     0
  9
$PUCSORGTOP
 10
0.0
 20
0.0
 30
0.0
  9
$PUCSORGBOTTOM
 10
0.0
 20
0.0
 30
0.0
  9
$PUCSORGLEFT
 10
0.0
 20
0.0
 30
0.0
  9
$PUCSORGRIGHT
 10
0.0
 20
0.0
 30
0.0
  9
$PUCSORGFRONT
 10
0.0
 20
0.0
 30
0.0
  9
$PUCSORGBACK
 10
0.0
 20
0.0
 30
0.0
  9
$USERI1
 70
     0
  9
$USERI2
 70
     0
  9
$USERI3
 70
     0
  9
$USERI4
 70
     0
  9
$USERI5
 70
     0
  9
$USERR1
 40
0.0
  9
$USERR2
 40
0.0
  9
$USERR3
 40
0.0
  9
$USERR4
 40
0.0
  9
$USERR5
 40
0.0
  9
$WORLDVIEW
 70
     1
  9
$SHADEDGE
 70
     3
  9
$SHADEDIF
 70
    70
  9
$TILEMODE
 70
     1
  9
$MAXACTVP
 70
    64
  9
$PINSBASE
 10
0.0
 20
0.0
 30
0.0
  9
$PLIMCHECK
 70
     0
  9
$PEXTMIN
 10
1.000000000000000E+20
 20
1.000000000000000E+20
 30
1.000000000000000E+20
  9
$PEXTMAX
 10
-1.000000000000000E+20
 20
-1.000000000000000E+20
 30
-1.000000000000000E+20
  9
$PLIMMIN
 10
0.0
 20
0.0
  9
$PLIMMAX
 10
420.0
 20
297.0
  9
$UNITMODE
 70
     0
  9
$VISRETAIN
 70
     1
  9
$PLINEGEN
 70
     0
  9
$PSLTSCALE
 70
     1
  9
$TREEDEPTH
 70
  3020
  9
$CMLSTYLE
  2
Standard
  9
$CMLJUST
 70
     0
  9
$CMLSCALE
 40
20.0
  9
$PROXYGRAPHICS
 70
     1
  9
$MEASUREMENT
 70
     1
  9
$CELWEIGHT
370
    -1
  9
$ENDCAPS
280
     0
  9
$JOINSTYLE
280
     0
  9
$LWDISPLAY
290
     0
  9
$INSUNITS
 70
     4
  9
$HYPERLINKBASE
  1

  9
$STYLESHEET
  1

  9
$XEDIT
290
     1
  9
$CEPSNTYPE
380
     0
  9
$PSTYLEMODE
290
     1
  9
$FINGERPRINTGUID
  2
{9DFB5F12-FE38-410F-B4C1-738DA96BFA2A}
  9
$VERSIONGUID
  2
{6082E26C-5562-4C7C-BC3C-E2C32B6E6488}
  9
$EXTNAMES
290
     1
  9
$PSVPSCALE
 40
0.0
  9
$OLESTARTUP
290
     0
  9
$SORTENTS
280
   127
  9
$INDEXCTL
280
     0
  9
$HIDETEXT
280
     1
  9
$XCLIPFRAME
290
     0
  9
$HALOGAP
280
     0
  9
$OBSCOLOR
 70
   257
  9
$OBSLTYPE
280
     0
  9
$INTERSECTIONDISPLAY
280
     0
  9
$INTERSECTIONCOLOR
 70
   257
  9
$DIMASSOC
280
     2
  9
$PROJECTNAME
  1

  0
ENDSEC
  0
SECTION
  2
CLASSES
  0
CLASS
  1
ACDBDICTIONARYWDFLT
  2
AcDbDictionaryWithDefault
  3
ObjectDBX Classes
 90
        0
 91
        1
280
     0
281
     0
  0
CLASS
  1
MATERIAL
  2
AcDbMaterial
  3
ObjectDBX Classes
 90
     1153
 91
        3
280
     0
281
     0
  0
CLASS
  1
VISUALSTYLE
  2
AcDbVisualStyle
  3
ObjectDBX Classes
 90
     4095
 91
       19
280
     0
281
     0
  0
CLASS
  1
SCALE
  2
AcDbScale
  3
ObjectDBX Classes
 90
     1153
 91
       17
280
     0
281
     0
  0
CLASS
  1
TABLESTYLE
  2
AcDbTableStyle
  3
ObjectDBX Classes
 90
     4095
 91
        1
280
     0
281
     0
  0
CLASS
  1
MLEADERSTYLE
  2
AcDbMLeaderStyle
  3
ACDB_MLEADERSTYLE_CLASS
 90
     4095
 91
        1
280
     0
281
     0
  0
CLASS
  1
SORTENTSTABLE
  2
AcDbSortentsTable
  3
ObjectDBX Classes
 90
        0
 91
      151
280
     0
281
     0
  0
CLASS
  1
AEC_REFEDIT_STATUS_TRACKER
  2
AecDbRefEditStatusTracker
  3
AecArchBase60|Product Desc: Autodesk Architectural Desktop 2007 |Company: Autodesk,Inc. |WEB Address: www.autodesk.com
 90
      129
 91
        1
280
     0
281
     0
  0
CLASS
  1
NPOCOLLECTION
  2
AcDbImpNonPersistentObjectsCollection
  3
ObjectDBX Classes
 90
     1153
 91
        1
280
     0
281
     0
  0
CLASS
  1
DICTIONARYVAR
  2
AcDbDictionaryVar
  3
ObjectDBX Classes
 90
        0
 91
      269
280
     0
281
     0
  0
CLASS
  1
CELLSTYLEMAP
  2
AcDbCellStyleMap
  3
ObjectDBX Classes
 90
     1152
 91
       31
280
     0
281
     0
  0
CLASS
  1
DIMASSOC
  2
AcDbDimAssoc
  3
"AcDbDimAssoc|Product Desc:     AcDim ARX App For Dimension|Company:          Autodesk, Inc.|WEB Address:      www.autodesk.com"
 90
        0
 91
        2
280
     0
281
     0
  0
ENDSEC
  0
SECTION
  2
TABLES
  0
TABLE
  2
VPORT
  5
8
330
0
100
AcDbSymbolTable
 70
     1
  0
VPORT
  5
52
330
8
100
AcDbSymbolTableRecord
100
AcDbViewportTableRecord
  2
*Active
 70
     0
 10
0.0
 20
0.0
 11
1.0
 21
1.0
 12
439.5944378928771
 22
449.0460048938697
 13
0.0
 23
0.0
 14
10.0
 24
10.0
 15
10.0
 25
10.0
 16
0.0
 26
0.0
 36
1.0
 17
0.0
 27
0.0
 37
0.0
 40
635.3682984130655
 41
1.888286334056398
 42
50.0
 43
0.0
 44
0.0
 50
0.0
 51
0.0
 71
     0
 72
  1000
 73
     1
 74
     3
 75
     0
 76
     0
 77
     0
 78
     0
281
     0
 65
     1
110
0.0
120
0.0
130
0.0
111
1.0
121
0.0
131
0.0
112
0.0
122
1.0
132
0.0
 79
     0
146
0.0
  0
ENDTAB
  0
TABLE
  2
LTYPE
  5
5
330
0
100
AcDbSymbolTable
 70
     2
  0
LTYPE
  5
56
330
5
100
AcDbSymbolTableRecord
100
AcDbLinetypeTableRecord
  2
ByBlock
 70
     0
  3

 72
    65
 73
     0
 40
0.0
  0
LTYPE
  5
57
330
5
100
AcDbSymbolTableRecord
100
AcDbLinetypeTableRecord
  2
ByLayer
 70
     0
  3

 72
    65
 73
     0
 40
0.0
  0
LTYPE
  5
58
330
5
100
AcDbSymbolTableRecord
100
AcDbLinetypeTableRecord
  2
Continuous
 70
     0
  3
Solid line
 72
    65
 73
     0
 40
0.0
  0
LTYPE
  5
8F7C
330
5
100
AcDbSymbolTableRecord
100
AcDbLinetypeTableRecord
  2
JIS_02_0.7
 70
     0
  3
HIDDEN0.75 _ _ _ _ _ _ _ _ _ _ _ _ _ _ _ _ _
 72
    65
 73
     2
 40
1.35
 49
0.75
 74
     0
 49
-0.6
 74
     0
  0
ENDTAB
  0
TABLE
  2
LAYER
  5
2
102
{ACAD_XDICTIONARY
360
8F8F
102
}
330
0
100
AcDbSymbolTable
 70
     8
  0
LAYER
  5
4F
330
2
100
AcDbSymbolTableRecord
100
AcDbLayerTableRecord
  2
0
 70
     0
 62
     7
  6
Continuous
370
    -3
390
F
  0
LAYER
  5
8F7D
330
2
100
AcDbSymbolTableRecord
100
AcDbLayerTableRecord
  2
F_01 sichtbar
 70
     0
 62
     7
  6
Continuous
370
    -3
390
F
1001
AcAecLayerStandard
1000

1000

  0
LAYER
  5
8F7E
330
2
100
AcDbSymbolTableRecord
100
AcDbLayerTableRecord
  2
F_31 Ansichtsfenster
 70
     0
 62
    12
  6
Continuous
290
     0
370
    40
390
F
1001
AcAecLayerStandard
1000

1000

  0
LAYER
  5
8F7F
330
2
100
AcDbSymbolTableRecord
100
AcDbLayerTableRecord
  2
F_02 unsichtbar
 70
     0
 62
     8
  6
JIS_02_0.7
370
    -3
390
F
1001
AcAecLayerStandard
1000

1000

  0
LAYER
  5
8F80
330
2
100
AcDbSymbolTableRecord
100
AcDbLayerTableRecord
  2
F_15 Schr-Mauer hell
 70
     0
 62
   254
  6
Continuous
370
    -3
390
F
1001
AcAecLayerStandard
1000

1000

  0
LAYER
  5
8F81
330
2
100
AcDbSymbolTableRecord
100
AcDbLayerTableRecord
  2
F_18 Schr-Holz hell
 70
     0
 62
    41
  6
Continuous
370
    -3
390
F
1001
AcAecLayerStandard
1000

1000

  0
LAYER
  5
8F82
330
2
100
AcDbSymbolTableRecord
100
AcDbLayerTableRecord
  2
F_24 Schr-Messing hell
 70
     0
 62
    51
420
 16645510
  6
Continuous
370
    -3
390
F
1001
AcAecLayerStandard
1000

1000

  0
LAYER
  5
8F83
102
{ACAD_XDICTIONARY
360
8F84
102
}
330
2
100
AcDbSymbolTableRecord
100
AcDbLayerTableRecord
  2
F_11 Schraffur
 70
     0
 62
    11
  6
Continuous
370
    -3
390
F
1001
AcAecLayerStandard
1000

1000

  0
ENDTAB
  0
TABLE
  2
STYLE
  5
3
330
0
100
AcDbSymbolTable
 70
     3
  0
STYLE
  5
50
330
3
100
AcDbSymbolTableRecord
100
AcDbTextStyleTableRecord
  2
Standard
 70
     0
 40
0.0
 41
1.0
 50
0.0
 71
     0
 42
2.5
  3
txt
  4

  0
STYLE
  5
55
330
3
100
AcDbSymbolTableRecord
100
AcDbTextStyleTableRecord
  2
Annotative
 70
     0
 40
0.0
 41
1.0
 50
0.0
 71
     0
 42
0.2
  3
txt
  4

1001
AcadAnnotative
1000
AnnotativeData
1002
{
1070
     1
1070
     1
1002
}
  0
STYLE
  5
8F85
330
3
100
AcDbSymbolTableRecord
100
AcDbTextStyleTableRecord
  2
Arial
 70
     0
 40
0.0
 41
1.0
 50
0.0
 71
     0
 42
3.0
  3
ARIALN.TTF
  4

1001
AcadAnnotative
1000
AnnotativeData
1002
{
1070
     1
1070
     1
1002
}
1001
ACAD
1000
Arial Narrow
1071
       34
  0
ENDTAB
  0
TABLE
  2
VIEW
  5
6
330
0
100
AcDbSymbolTable
 70
     0
  0
ENDTAB
  0
TABLE
  2
UCS
  5
7
330
0
100
AcDbSymbolTable
 70
     0
  0
ENDTAB
  0
TABLE
  2
APPID
  5
9
330
0
100
AcDbSymbolTable
 70
     8
  0
APPID
  5
51
330
9
100
AcDbSymbolTableRecord
100
AcDbRegAppTableRecord
  2
ACAD
 70
     0
  0
APPID
  5
59
330
9
100
AcDbSymbolTableRecord
100
AcDbRegAppTableRecord
  2
AcadAnnotative
 70
     0
  0
APPID
  5
8F8B
330
9
100
AcDbSymbolTableRecord
100
AcDbRegAppTableRecord
  2
AcAecLayerStandard
 70
     0
  0
APPID
  5
8F8C
330
9
100
AcDbSymbolTableRecord
100
AcDbRegAppTableRecord
  2
ACAD_PSEXT
 70
     0
  0
APPID
  5
8F8D
330
9
100
AcDbSymbolTableRecord
100
AcDbRegAppTableRecord
  2
ACAD_DSTYLE_DIMJAG
 70
     0
  0
APPID
  5
8F8E
330
9
100
AcDbSymbolTableRecord
100
AcDbRegAppTableRecord
  2
ACAD_DSTYLE_DIMTALN
 70
     0
  0
APPID
  5
909B
330
9
100
AcDbSymbolTableRecord
100
AcDbRegAppTableRecord
  2
ACAD_DSTYLE_DIMJOGGED_JOGANGLE_SYMBOL
 70
     0
  0
APPID
  5
909D
330
9
100
AcDbSymbolTableRecord
100
AcDbRegAppTableRecord
  2
ACAD_MLEADERVER
 70
     0
  0
ENDTAB
  0
TABLE
  2
DIMSTYLE
  5
A
330
0
100
AcDbSymbolTable
 70
     7
100
AcDbDimStyleTable
 71
     0
  0
DIMSTYLE
105
53
330
A
100
AcDbSymbolTableRecord
100
AcDbDimStyleTableRecord
  2
ISO-25
 70
     0
 41
2.5
 42
0.625
 43
3.75
 44
1.25
 73
     0
 74
     0
 77
     1
 78
     8
140
2.5
141
2.5
143
0.03937007874016
147
0.625
171
     3
172
     1
271
     2
272
     2
274
     3
278
    44
283
     0
284
     8
340
50
1001
ACAD_DSTYLE_DIMJOGGED_JOGANGLE_SYMBOL
1070
   384
1040
1.570796326794896
  0
DIMSTYLE
105
54
330
A
100
AcDbSymbolTableRecord
100
AcDbDimStyleTableRecord
  2
Annotative
 70
     0
340
50
1001
AcadAnnotative
1000
AnnotativeData
1002
{
1070
     1
1070
     1
1002
}
  0
DIMSTYLE
105
8F86
330
A
100
AcDbSymbolTableRecord
100
AcDbDimStyleTableRecord
  2
MST 1-1
 70
     0
 41
2.0
 42
2.0
 43
2.0
 44
1.0
 46
2.0
 73
     0
 74
     0
 77
     3
 78
     8
 79
     2
140
3.0
141
2.5
143
0.03937007874016
147
1.0
171
     3
176
   256
177
   256
178
     3
179
     1
271
     1
272
     1
274
     3
279
     2
284
     8
340
8F85
342
8F76
1001
ACAD_DSTYLE_DIMJAG
1070
   388
1040
1.5
1001
ACAD_DSTYLE_DIMTALN
1070
   392
1070
     0
  0
DIMSTYLE
105
8F87
330
A
100
AcDbSymbolTableRecord
100
AcDbDimStyleTableRecord
  2
MST 1-2
 70
     0
 40
2.0
 41
2.0
 42
2.0
 43
2.0
 44
1.0
 46
2.0
 73
     0
 74
     0
 77
     3
 78
     8
 79
     2
140
3.0
141
1.0
143
0.03937007874016
147
1.0
171
     3
176
   256
177
   256
178
     3
179
     1
271
     1
272
     1
274
     3
279
     2
284
     8
340
8F85
342
8F76
  0
DIMSTYLE
105
8F88
330
A
100
AcDbSymbolTableRecord
100
AcDbDimStyleTableRecord
  2
MST 1-5
 70
     0
 40
5.0
 41
1.5
 42
2.0
 43
2.0
 44
1.0
 46
2.0
 73
     0
 74
     0
 77
     3
 78
     8
 79
     2
140
3.0
141
1.0
143
0.03937007874016
147
1.0
171
     3
176
   256
177
   256
178
     3
179
     1
271
     1
272
     1
274
     3
279
     2
284
     8
340
8F85
342
8F76
  0
DIMSTYLE
105
8F89
330
A
100
AcDbSymbolTableRecord
100
AcDbDimStyleTableRecord
  2
MST 1-10
 70
     0
 40
10.0
 41
2.0
 42
2.0
 43
2.0
 44
2.0
 46
2.0
 73
     0
 74
     0
 77
     3
 78
     8
 79
     2
140
3.0
141
1.0
143
0.03937007874016
147
1.0
171
     3
176
   256
177
   256
178
     3
179
     1
271
     1
272
     1
274
     3
279
     2
284
     8
340
8F85
342
8F76
1001
ACAD_DSTYLE_DIMJAG
1070
   388
1040
1.5
1001
ACAD_DSTYLE_DIMTALN
1070
   392
1070
     0
  0
DIMSTYLE
105
8F8A
330
A
100
AcDbSymbolTableRecord
100
AcDbDimStyleTableRecord
  2
MST 1-20
 70
     0
 40
20.0
 41
2.0
 42
2.0
 43
2.0
 44
1.0
 46
2.0
 73
     0
 74
     0
 77
     3
 78
     8
 79
     2
140
3.0
141
1.0
143
0.03937007874016
147
1.0
171
     3
176
   256
177
   256
178
     3
179
     1
271
     1
272
     1
274
     3
279
     2
284
     8
340
8F85
342
8F76
  0
ENDTAB
  0
TABLE
  2
BLOCK_RECORD
  5
1
330
0
100
AcDbSymbolTable
 70
     3
  0
BLOCK_RECORD
  5
67
330
1
100
AcDbSymbolTableRecord
100
AcDbBlockTableRecord
  2
*Model_Space
340
6A
  0
BLOCK_RECORD
  5
63
330
1
100
AcDbSymbolTableRecord
100
AcDbBlockTableRecord
  2
*Paper_Space
340
66
  0
BLOCK_RECORD
  5
6B
330
1
100
AcDbSymbolTableRecord
100
AcDbBlockTableRecord
  2
*Paper_Space0
340
6E
  0
BLOCK_RECORD
  5
8F76
102
{ACAD_XDICTIONARY
360
8F77
102
}
330
1
100
AcDbSymbolTableRecord
100
AcDbBlockTableRecord
  2
_ArchTick
340
0
310
2800000020000000200000000100080000000000000400000000000000000000000000000000000000000000000080000080000000808000800000008000800080800000C0C0C000C0DCC000F0CAA6000020400000206000002080000020A0000020C0000020E00000400000004020000040400000406000004080000040A0
310
000040C0000040E00000600000006020000060400000606000006080000060A0000060C0000060E00000800000008020000080400000806000008080000080A0000080C0000080E00000A0000000A0200000A0400000A0600000A0800000A0A00000A0C00000A0E00000C0000000C0200000C0400000C0600000C0800000C0
310
A00000C0C00000C0E00000E0000000E0200000E0400000E0600000E0800000E0A00000E0C00000E0E00040000000400020004000400040006000400080004000A0004000C0004000E00040200000402020004020400040206000402080004020A0004020C0004020E000404000004040200040404000404060004040800040
310
40A0004040C0004040E00040600000406020004060400040606000406080004060A0004060C0004060E00040800000408020004080400040806000408080004080A0004080C0004080E00040A0000040A0200040A0400040A0600040A0800040A0A00040A0C00040A0E00040C0000040C0200040C0400040C0600040C08000
310
40C0A00040C0C00040C0E00040E0000040E0200040E0400040E0600040E0800040E0A00040E0C00040E0E00080000000800020008000400080006000800080008000A0008000C0008000E00080200000802020008020400080206000802080008020A0008020C0008020E00080400000804020008040400080406000804080
310
008040A0008040C0008040E00080600000806020008060400080606000806080008060A0008060C0008060E00080800000808020008080400080806000808080008080A0008080C0008080E00080A0000080A0200080A0400080A0600080A0800080A0A00080A0C00080A0E00080C0000080C0200080C0400080C0600080C0
310
800080C0A00080C0C00080C0E00080E0000080E0200080E0400080E0600080E0800080E0A00080E0C00080E0E000C0000000C0002000C0004000C0006000C0008000C000A000C000C000C000E000C0200000C0202000C0204000C0206000C0208000C020A000C020C000C020E000C0400000C0402000C0404000C0406000C0
310
408000C040A000C040C000C040E000C0600000C0602000C0604000C0606000C0608000C060A000C060C000C060E000C0800000C0802000C0804000C0806000C0808000C080A000C080C000C080E000C0A00000C0A02000C0A04000C0A06000C0A08000C0A0A000C0A0C000C0A0E000C0C00000C0C02000C0C04000C0C06000
310
C0C08000C0C0A000F0FBFF00A4A0A000808080000000FF0000FF000000FFFF00FF000000FF00FF00FFFF0000FFFFFF00FFFFFF00FFFFFFFFFFFFFFFFFFFFFFFFFFFFFFFFFFFFFFFFFFFFFFFFFFFFFFFFFFFF00FF00FFFFFFFFFFFFFFFFFFFFFFFFFFFFFFFFFFFFFFFFFFFFFFFFFFFFFFFF00FFFFFF00FFFFFFFFFFFFFFFFFF
310
FFFFFFFFFFFFFFFFFFFFFFFFFFFFFFFFFF00FFFFFFFFFF00FFFFFFFFFFFFFFFFFFFFFFFFFFFFFFFFFFFFFFFFFFFFFFFFFFFF00FFFFFFFFFF00FFFFFFFFFFFFFFFFFFFFFFFFFFFFFFFFFFFFFFFFFFFFFFFFFFFF00FFFFFFFFFF00FFFFFFFFFFFFFFFFFFFFFFFFFFFFFFFFFFFFFFFFFFFFFFFFFFFF00FFFFFFFFFF00FFFFFFFF
310
FFFFFFFFFFFFFFFFFFFFFFFFFFFFFFFFFFFFFFFFFFFF00FFFFFFFFFF00FFFFFFFFFFFFFFFFFFFFFFFFFFFFFFFFFFFFFFFFFFFFFFFFFFFF00FFFFFFFFFF00FFFFFFFFFFFFFFFFFFFFFFFFFFFFFFFFFFFFFFFFFFFFFFFFFFFF00FFFFFFFFFF00FFFFFFFFFFFFFFFFFFFFFFFFFFFFFFFFFFFFFFFFFFFFFFFFFFFF00FFFFFFFFFF
310
00FFFFFFFFFFFFFFFFFFFFFFFFFFFFFFFFFFFFFFFFFFFFFFFFFFFF00FFFFFFFFFF00FFFFFFFFFFFFFFFFFFFFFFFFFFFFFFFFFFFFFFFFFFFFFFFFFFFF00FFFFFFFFFF00FFFFFFFFFFFFFFFFFFFFFFFFFFFFFFFFFFFFFFFFFFFFFFFFFFFF00FFFFFFFFFF00FFFFFFFFFFFFFFFFFFFFFFFFFFFFFFFFFFFFFFFFFFFFFFFFFFFF00
310
FFFFFFFFFF00FFFFFFFFFFFFFFFFFFFFFFFFFFFFFFFFFFFFFFFFFFFFFFFFFFFF00FFFFFFFFFF00FFFFFFFFFFFFFFFFFFFFFFFFFFFFFFFFFFFFFFFFFFFFFFFFFFFF00FFFFFFFFFF00FFFFFFFFFFFFFFFFFFFFFFFFFFFFFFFFFFFFFFFFFFFFFFFFFFFF00FFFFFFFFFF00FFFFFFFFFFFFFFFFFFFFFFFFFFFFFFFFFFFFFFFFFFFF
310
FFFFFFFF00FFFFFFFFFF00FFFFFFFFFFFFFFFFFFFFFFFFFFFFFFFFFFFFFFFFFFFFFFFFFFFF00FFFFFFFFFF00FFFFFFFFFFFFFFFFFFFFFFFFFFFFFFFFFFFFFFFFFFFFFFFFFFFF00FFFFFFFFFF00FFFFFFFFFFFFFFFFFFFFFFFFFFFFFFFFFFFFFFFFFFFFFFFFFFFF00FFFFFFFFFF00FFFFFFFFFFFFFFFFFFFFFFFFFFFFFFFFFF
310
FFFFFFFFFFFFFFFFFF00FFFFFFFFFF00FFFFFFFFFFFFFFFFFFFFFFFFFFFFFFFFFFFFFFFFFFFFFFFFFFFF00FFFFFFFFFF00FFFFFFFFFFFFFFFFFFFFFFFFFFFFFFFFFFFFFFFFFFFFFFFFFFFF00FFFFFFFFFF00FFFFFFFFFFFFFFFFFFFFFFFFFFFFFFFFFFFFFFFFFFFFFFFFFFFF00FFFFFFFFFF00FFFFFFFFFFFFFFFFFFFFFFFF
310
FFFFFFFFFFFFFFFFFFFFFFFFFFFF00FFFFFFFFFF00FFFFFFFFFFFFFFFFFFFFFFFFFFFFFFFFFFFFFFFFFFFFFFFFFFFF00FFFFFFFFFF00FFFFFFFFFFFFFFFFFFFFFFFFFFFFFFFFFFFFFFFFFFFFFFFFFFFF00FFFFFFFFFF00FFFFFFFFFFFFFFFFFFFFFFFFFFFFFFFFFFFFFFFFFFFFFFFFFFFF00FFFFFF00FFFFFFFFFFFFFFFFFF
310
FFFFFFFFFFFFFFFFFFFFFFFFFFFFFFFFFFFFFF00FF00FFFFFFFFFFFFFFFFFFFFFFFFFFFFFFFFFFFFFFFFFFFFFFFFFFFFFFFFFFFF00FFFFFF
  0
ENDTAB
  0
ENDSEC
  0
SECTION
  2
BLOCKS
  0
BLOCK
  5
68
330
67
100
AcDbEntity
  8
0
100
AcDbBlockBegin
  2
*Model_Space
 70
     0
 10
0.0
 20
0.0
 30
0.0
  3
*Model_Space
  1

  0
ENDBLK
  5
69
330
67
100
AcDbEntity
  8
0
100
AcDbBlockEnd
  0
BLOCK
  5
64
330
63
100
AcDbEntity
 67
     1
  8
0
100
AcDbBlockBegin
  2
*Paper_Space
 70
     0
 10
0.0
 20
0.0
 30
0.0
  3
*Paper_Space
  1

  0
ENDBLK
  5
65
330
63
100
AcDbEntity
 67
     1
  8
0
100
AcDbBlockEnd
  0
BLOCK
  5
6C
330
6B
100
AcDbEntity
 67
     1
  8
0
100
AcDbBlockBegin
  2
*Paper_Space0
 70
     0
 10
0.0
 20
0.0
 30
0.0
  3
*Paper_Space0
  1

  0
ENDBLK
  5
6D
330
6B
100
AcDbEntity
 67
     1
  8
0
100
AcDbBlockEnd
  0
BLOCK
  5
8F79
330
8F76
100
AcDbEntity
  8
0
100
AcDbBlockBegin
  2
_ArchTick
 70
     0
 10
0.0
 20
0.0
 30
0.0
  3
_ArchTick
  1

  0
LWPOLYLINE
  5
8F7A
330
8F76
100
AcDbEntity
  8
0
  6
ByBlock
 62
     7
100
AcDbPolyline
 90
        2
 70
     0
 43
0.15
 10
-0.5
 20
-0.5
 10
0.5
 20
0.5
  0
ENDBLK
  5
8F7B
330
8F76
100
AcDbEntity
  8
0
100
AcDbBlockEnd
  0
ENDSEC
  0
SECTION
  2
ENTITIES
  0
HATCH
  5
8FFE
330
67
100
AcDbEntity
  8
F_18 Schr-Holz hell
370
    13
100
AcDbHatch
 10
0.0
 20
0.0
 30
0.0
210
0.0
220
0.0
230
1.0
  2
SOLID
 70
     1
 71
     0
 91
        1
 92
        1
 93
       21
 72
     1
 10
422.3860934616659
 20
655.538240938451
 11
422.3860934616659
 21
458.5382407807482
 72
     1
 10
422.3860934616659
 20
458.5382407807482
 11
407.3861000455708
 21
458.5382407807482
 72
     1
 10
407.3861000455708
 20
458.5382407807482
 11
407.3861001737077
 21
327.5382407807483
 72
     1
 10
407.3861001737077
 20
327.5382407807483
 11
419.3861000455708
 21
327.5382407807483
 72
     1
 10
419.3861000455708
 20
327.5382407807483
 11
419.3861000455708
 21
330.5382407807483
 72
     1
 10
419.3861000455708
 20
330.5382407807483
 11
432.3861000455708
 21
330.5382407807483
 72
     1
 10
432.3861000455708
 20
330.5382407807483
 11
433.3861000455708
 21
331.5382407807483
 72
     1
 10
433.3861000455708
 20
331.5382407807483
 11
433.3861000455708
 21
335.0382407807483
 72
     1
 10
433.3861000455708
 20
335.0382407807483
 11
430.8861000455708
 21
335.0382407807483
 72
     1
 10
430.8861000455708
 20
335.0382407807483
 11
430.8861000455708
 21
344.216481240117
 72
     1
 10
430.8861000455708
 20
344.216481240117
 11
430.8861000455708
 21
360.0382407807483
 72
     1
 10
430.8861000455708
 20
360.0382407807483
 11
433.3861000455708
 21
360.0382407807483
 72
     1
 10
433.3861000455708
 20
360.0382407807483
 11
433.3861000455708
 21
360.5382407807483
 72
     1
 10
433.3861000455708
 20
360.5382407807483
 11
438.3861000455708
 21
360.5382407807483
 72
     1
 10
438.3861000455708
 20
360.5382407807483
 11
438.4120558350096
 21
368.5382407807483
 72
     1
 10
438.4120558350096
 20
368.5382407807483
 11
442.3861000455708
 21
368.5382407807483
 72
     1
 10
442.3861000455708
 20
368.5382407807483
 11
442.3861000455708
 21
360.5382407807483
 72
     1
 10
442.3861000455708
 20
360.5382407807483
 11
446.3861000455708
 21
360.5382407807483
 72
     1
 10
446.3861000455708
 20
360.5382407807483
 11
447.3860934616659
 21
361.5382473646568
 72
     1
 10
447.3860934616659
 20
361.5382473646568
 11
447.3860934616659
 21
655.538240938451
 72
     1
 10
447.3860934616659
 20
655.538240938451
 11
422.3860934616659
 21
655.538240938451
 97
        0
 75
     0
 76
     1
 98
        1
 10
-33437.09153592757
 20
-15499.51861636783
450
        0
451
        0
460
0.0
461
0.0
452
        1
462
1.0
453
        2
463
0.0
 63
     5
421
      255
463
1.0
 63
     7
421
 16777215
470
LINEAR
1001
ACAD
1010
0.0
1020
0.0
1030
0.0
  0
HATCH
  5
8FFF
330
67
100
AcDbEntity
  8
F_18 Schr-Holz hell
370
    13
100
AcDbHatch
 10
0.0
 20
0.0
 30
0.0
210
0.0
220
0.0
230
1.0
  2
SOLID
 70
     1
 71
     0
 91
        1
 92
        1
 93
        5
 72
     1
 10
364.3861000455709
 20
327.5382407807483
 11
364.3861000455709
 21
319.5382407807483
 72
     2
 10
366.3861000455709
 20
319.5382407807483
 40
2.0
 50
180.0
 51
270.0
 73
     1
 72
     1
 10
366.3861000455709
 20
317.5382407807483
 11
419.3861000455708
 21
317.5382407807483
 72
     1
 10
419.3861000455708
 20
317.5382407807483
 11
419.3861000455708
 21
327.5382407807483
 72
     1
 10
419.3861000455708
 20
327.5382407807483
 11
364.3861000455709
 21
327.5382407807483
 97
        0
 75
     0
 76
     1
 98
        1
 10
-33437.09153592757
 20
-15499.51861636783
450
        0
451
        0
460
0.0
461
0.0
452
        1
462
1.0
453
        2
463
0.0
 63
     5
421
      255
463
1.0
 63
     7
421
 16777215
470
LINEAR
1001
ACAD
1010
0.0
1020
0.0
1030
0.0
  0
HATCH
  5
9000
330
67
100
AcDbEntity
  8
F_15 Schr-Mauer hell
370
    13
100
AcDbHatch
 10
0.0
 20
0.0
 30
0.0
210
0.0
220
0.0
230
1.0
  2
SOLID
 70
     1
 71
     0
 91
        1
 92
        1
 93
        4
 72
     1
 10
240.442473881636
 20
532.538240938451
 11
240.4424738816433
 21
342.5382407807501
 72
     1
 10
240.4424738816433
 20
342.5382407807483
 11
402.3861264454662
 21
342.5382407807501
 72
     1
 10
402.3861264454662
 20
342.538240780752
 11
402.3861264454662
 21
532.538240938451
 72
     1
 10
402.3861264454662
 20
532.538240938451
 11
240.442473881636
 21
532.538240938451
 97
        0
 75
     0
 76
     1
 98
        1
 10
191.2971320067136
 20
494.126742098535
450
        0
451
        0
460
0.0
461
0.0
452
        1
462
1.0
453
        2
463
0.0
 63
     5
421
      255
463
1.0
 63
     7
421
 16777215
470
LINEAR
1001
ACAD
1010
0.0
1020
0.0
1030
0.0
  0
HATCH
  5
9001
330
67
100
AcDbEntity
  8
F_01 sichtbar
370
    13
100
AcDbHatch
 10
0.0
 20
0.0
 30
0.0
210
0.0
220
0.0
230
1.0
  2
CROSS
 70
     0
 71
     0
 91
        2
 92
        1
 93
        5
 72
     1
 10
402.3861264454662
 20
339.5382407807483
 11
303.0690456287321
 21
339.5382407807483
 72
     1
 10
303.0690456287321
 20
339.5382407807483
 11
303.0690456287321
 21
327.5382407807465
 72
     1
 10
303.0690456287321
 20
327.5382407807483
 11
364.3861081383347
 21
327.5382420422029
 72
     1
 10
364.3861081383347
 20
327.5382420422029
 11
402.3861264454662
 21
327.5382420422029
 72
     1
 10
402.3861264454662
 20
327.5382420422029
 11
402.3861264454662
 21
339.5382407807501
 97
        0
 92
        1
 93
        4
 72
     1
 10
303.0690456287321
 20
339.5382407807483
 11
240.4424738816433
 21
339.5382407807483
 72
     1
 10
240.4424738816433
 20
339.5382407807483
 11
240.4424738816433
 21
327.5382407807465
 72
     1
 10
240.4424738816433
 20
327.5382407807483
 11
303.0690456287321
 21
327.5382407807483
 72
     1
 10
303.0690456287321
 20
327.5382407807483
 11
303.0690456287321
 21
339.5382407807501
 97
        0
 75
     0
 76
     1
 52
0.0
 41
1.0
 77
     0
 78
     2
 53
0.0
 43
-33437.09153592757
 44
-14071.5101532965
 45
6.349999999999999
 46
6.349999999999999
 79
     2
 49
3.174999999999999
 49
-9.525
 53
90.0
 43
-33435.50403592757
 44
-14073.0976532965
 45
-6.349999999999999
 46
6.349999999999999
 79
     2
 49
3.174999999999999
 49
-9.525
 98
        2
 10
317.0181716677526
 20
329.5572434565475
 10
289.1488841844821
 20
328.9312934543814
1001
ACAD
1010
0.0
1020
0.0
1030
0.0
  0
POLYLINE
  5
9002
330
67
100
AcDbEntity
  8
F_01 sichtbar
370
    13
100
AcDb2dPolyline
 66
     1
 10
0.0
 20
0.0
 30
0.0
  0
VERTEX
  5
9003
330
9002
100
AcDbEntity
  8
F_01 sichtbar
370
    13
100
AcDbVertex
100
AcDb2dVertex
 10
240.4424738816433
 20
339.5382407807483
 30
0.0
  0
VERTEX
  5
9004
330
9002
100
AcDbEntity
  8
F_01 sichtbar
370
    13
100
AcDbVertex
100
AcDb2dVertex
 10
402.3861264454662
 20
339.5382407807483
 30
0.0
  0
VERTEX
  5
9005
330
9002
100
AcDbEntity
  8
F_01 sichtbar
370
    13
100
AcDbVertex
100
AcDb2dVertex
 10
402.3861264454662
 20
327.5382407807483
 30
0.0
  0
VERTEX
  5
9006
330
9002
100
AcDbEntity
  8
F_01 sichtbar
370
    13
100
AcDbVertex
100
AcDb2dVertex
 10
240.4424738816433
 20
327.5382407807483
 30
0.0
  0
SEQEND
  5
9007
330
9002
100
AcDbEntity
  8
F_01 sichtbar
370
    13
  0
POLYLINE
  5
9008
330
67
100
AcDbEntity
  8
F_01 sichtbar
370
    13
100
AcDb2dPolyline
 66
     1
 10
0.0
 20
0.0
 30
0.0
  0
VERTEX
  5
9009
330
9008
100
AcDbEntity
  8
F_01 sichtbar
370
    13
100
AcDbVertex
100
AcDb2dVertex
 10
240.4424738816433
 20
342.5382407807483
 30
0.0
  0
VERTEX
  5
900A
330
9008
100
AcDbEntity
  8
F_01 sichtbar
370
    13
100
AcDbVertex
100
AcDb2dVertex
 10
402.3861264454662
 20
342.538240780752
 30
0.0
  0
VERTEX
  5
900B
330
9008
100
AcDbEntity
  8
F_01 sichtbar
370
    13
100
AcDbVertex
100
AcDb2dVertex
 10
402.3861264454662
 20
532.538240938451
 30
0.0
  0
VERTEX
  5
900C
330
9008
100
AcDbEntity
  8
F_01 sichtbar
370
    13
100
AcDbVertex
100
AcDb2dVertex
 10
240.4424738816433
 20
532.538240938451
 30
0.0
  0
SEQEND
  5
900D
330
9008
100
AcDbEntity
  8
F_01 sichtbar
370
    13
  0
HATCH
  5
900E
330
67
100
AcDbEntity
  8
F_01 sichtbar
370
    13
100
AcDbHatch
 10
0.0
 20
0.0
 30
0.0
210
0.0
220
0.0
230
1.0
  2
HEX
 70
     0
 71
     0
 91
        1
 92
        7
 72
     0
 73
     1
 93
        4
 10
402.3861264454808
 20
655.538240938451
 10
240.4424738816433
 20
655.538240938451
 10
240.4424738816433
 20
565.538240938451
 10
402.3861264454735
 20
565.538240938451
 97
        0
 75
     0
 76
     1
 52
0.0
 41
2.0
 77
     0
 78
     3
 53
0.0
 43
-33437.09153592757
 44
-14068.5101532965
 45
0.0
 46
10.99852
 79
     2
 49
6.349999999999999
 49
-12.7
 53
120.0
 43
-33437.09153592757
 44
-14068.5101532965
 45
-9.524997724031223
 46
-5.499259999999996
 79
     2
 49
6.349999999999993
 49
-12.69999999999998
 53
60.0
 43
-33430.74153592757
 44
-14068.5101532965
 45
-9.524997724031223
 46
5.49926
 79
     2
 49
6.349999999999999
 49
-12.7
 47
0.536036505142345
 98
        1
 10
324.6382071000826
 20
609.9572654664044
1001
ACAD
1010
0.0
1020
0.0
1030
0.0
  0
POLYLINE
  5
900F
330
67
100
AcDbEntity
  8
F_01 sichtbar
370
    13
100
AcDb2dPolyline
 66
     1
 10
0.0
 20
0.0
 30
0.0
  0
VERTEX
  5
9010
330
900F
100
AcDbEntity
  8
F_01 sichtbar
370
    13
100
AcDbVertex
100
AcDb2dVertex
 10
240.4424738816433
 20
535.538240938451
 30
0.0
  0
VERTEX
  5
9011
330
900F
100
AcDbEntity
  8
F_01 sichtbar
370
    13
100
AcDbVertex
100
AcDb2dVertex
 10
402.3861264454735
 20
535.538240938451
 30
0.0
  0
VERTEX
  5
9012
330
900F
100
AcDbEntity
  8
F_01 sichtbar
370
    13
100
AcDbVertex
100
AcDb2dVertex
 10
402.3861264454808
 20
655.538240938451
 30
0.0
  0
VERTEX
  5
9013
330
900F
100
AcDbEntity
  8
F_01 sichtbar
370
    13
100
AcDbVertex
100
AcDb2dVertex
 10
240.4424738816433
 20
655.538240938451
 30
0.0
  0
SEQEND
  5
9014
330
900F
100
AcDbEntity
  8
F_01 sichtbar
370
    13
  0
POLYLINE
  5
9015
330
67
100
AcDbEntity
  8
F_01 sichtbar
370
    13
100
AcDb2dPolyline
 66
     1
 10
0.0
 20
0.0
 30
0.0
  0
VERTEX
  5
9016
330
9015
100
AcDbEntity
  8
F_01 sichtbar
370
    13
100
AcDbVertex
100
AcDb2dVertex
 10
402.3861264454735
 20
565.538240938451
 30
0.0
  0
VERTEX
  5
9017
330
9015
100
AcDbEntity
  8
F_01 sichtbar
370
    13
100
AcDbVertex
100
AcDb2dVertex
 10
240.4424738816433
 20
565.538240938451
 30
0.0
  0
SEQEND
  5
9018
330
9015
100
AcDbEntity
  8
F_01 sichtbar
370
    13
  0
LINE
  5
9019
330
67
100
AcDbEntity
  8
F_02 unsichtbar
370
    13
100
AcDbLine
 10
402.3861264454808
 20
534.038240938451
 30
0.0
 11
240.4424738816506
 21
534.038240938451
 31
0.0
  0
LINE
  5
901A
330
67
100
AcDbEntity
  8
F_02 unsichtbar
370
    13
100
AcDbLine
 10
402.3861264454808
 20
341.0382407807483
 30
0.0
 11
240.4424738816506
 21
341.0382407807483
 31
0.0
  0
POLYLINE
  5
901B
330
67
100
AcDbEntity
  8
F_31 Ansichtsfenster
370
    13
100
AcDb2dPolyline
 66
     1
 10
0.0
 20
0.0
 30
0.0
  0
VERTEX
  5
901C
330
901B
100
AcDbEntity
  8
F_31 Ansichtsfenster
370
    13
100
AcDbVertex
100
AcDb2dVertex
 10
240.4424738816433
 20
327.5382407807483
 30
0.0
  0
VERTEX
  5
901D
330
901B
100
AcDbEntity
  8
F_31 Ansichtsfenster
370
    13
100
AcDbVertex
100
AcDb2dVertex
 10
240.4424738816433
 20
655.538240938451
 30
0.0
  0
SEQEND
  5
901E
330
901B
100
AcDbEntity
  8
F_31 Ansichtsfenster
370
    13
  0
HATCH
  5
901F
330
67
100
AcDbEntity
  8
F_01 sichtbar
370
    13
100
AcDbHatch
 10
0.0
 20
0.0
 30
0.0
210
0.0
220
0.0
230
1.0
  2
BATT_INSULATION
 70
     0
 71
     0
 91
        1
 92
        1
 93
        4
 72
     1
 10
402.3861264454735
 20
565.538240938451
 11
402.3861264454735
 21
535.538240938451
 72
     1
 10
402.3861264454735
 20
535.538240938451
 11
240.4424738816433
 21
535.538240938451
 72
     1
 10
240.4424738816433
 20
535.538240938451
 11
240.4424738816433
 21
565.5382409384528
 72
     1
 10
240.4424738816433
 20
565.538240938451
 11
402.3861264454735
 21
565.5382409384492
 97
        0
 75
     0
 76
     2
 52
180.0
 41
32.77964320184142
 77
     0
 78
   528
 53
0.000000000000007
 43
12057.5806599053
 44
1823.366380969844
 45
10.95203936981043
 46
-36.87709860207159
 79
     2
 49
0.0
 49
-10.95203936981043
 53
345.9236
 43
12052.10462383057
 44
1819.268925569613
 45
10.95202660980681
 46
0.000004046117522
 79
     2
 49
2.663936043727233
 49
-1058.697838380723
 53
345.9236
 43
12052.10462383057
 44
1782.391826967538
 45
10.95202660980681
 46
0.000004046117522
 79
     2
 49
2.663936043727233
 49
-1058.697838380723
 53
345.9236
 43
12052.10462383057
 44
1745.514728365469
 45
10.95202660980681
 46
0.000004046117522
 79
     2
 49
2.663936043727233
 49
-1058.697838380723
 53
345.9236
 43
12052.10462383057
 44
1708.637629763394
 45
10.95202660980681
 46
0.000004046117522
 79
     2
 49
2.663936043727233
 49
-1058.697838380723
 53
345.9236
 43
12052.10462383057
 44
1671.760531161326
 45
10.95202660980681
 46
0.000004046117522
 79
     2
 49
2.663936043727233
 49
-1058.697838380723
 53
345.9236
 43
12052.10462383057
 44
1634.883432559258
 45
10.95202660980681
 46
0.000004046117522
 79
     2
 49
2.663936043727233
 49
-1058.697838380723
 53
345.9236
 43
12052.10462383057
 44
1598.006333957182
 45
10.95202660980681
 46
0.000004046117522
 79
     2
 49
2.663936043727233
 49
-1058.697838380723
 53
334.9544
 43
12053.38030920506
 44
1788.451799606267
 45
10.9520365279484
 46
-0.0000117218229823
 79
     2
 49
4.636287175181992
 49
-2957.102061108974
 53
334.9544
 43
12053.38030920506
 44
1751.574701004192
 45
10.9520365279484
 46
-0.0000117218229823
 79
     2
 49
4.636287175181992
 49
-2957.102061108974
 53
334.9544
 43
12053.38030920506
 44
1714.697602402124
 45
10.9520365279484
 46
-0.0000117218229823
 79
     2
 49
4.636287175181992
 49
-2957.102061108974
 53
334.9544
 43
12053.38030920506
 44
1677.820503800048
 45
10.9520365279484
 46
-0.0000117218229823
 79
     2
 49
4.636287175181992
 49
-2957.102061108974
 53
334.9544
 43
12053.38030920506
 44
1640.943405197981
 45
10.9520365279484
 46
-0.0000117218229823
 79
     2
 49
4.636287175181992
 49
-2957.102061108974
 53
334.9544
 43
12053.38030920506
 44
1604.066306595905
 45
10.9520365279484
 46
-0.0000117218229823
 79
     2
 49
4.636287175181992
 49
-2957.102061108974
 53
334.9544
 43
12053.38030920506
 44
1567.189207993837
 45
10.9520365279484
 46
-0.0000117218229823
 79
     2
 49
4.636287175181992
 49
-2957.102061108974
 53
334.9544
 43
12053.38030920506
 44
1530.312109391761
 45
10.9520365279484
 46
-0.0000117218229823
 79
     2
 49
4.636287175181992
 49
-2957.102061108974
 53
334.9544
 43
12053.38030920506
 44
1493.435994178992
 45
10.9520365279484
 46
-0.0000117218229823
 79
     2
 49
4.636287175181992
 49
-2957.102061108974
 53
334.9544
 43
12053.38030920506
 44
1456.558895576916
 45
10.9520365279484
 46
-0.0000117218229823
 79
     2
 49
4.636287175181992
 49
-2957.102061108974
 53
334.9544
 43
12053.38030920506
 44
1419.681796974848
 45
10.9520365279484
 46
-0.0000117218229823
 79
     2
 49
4.636287175181992
 49
-2957.102061108974
 53
334.9544
 43
12053.38030920506
 44
1382.804698372773
 45
10.9520365279484
 46
-0.0000117218229823
 79
     2
 49
4.636287175181992
 49
-2957.102061108974
 53
334.9544
 43
12053.38030920506
 44
1345.927599770704
 45
10.9520365279484
 46
-0.0000117218229823
 79
     2
 49
4.636287175181992
 49
-2957.102061108974
 53
334.9544
 43
12053.38030920506
 44
1309.050501168636
 45
10.9520365279484
 46
-0.0000117218229823
 79
     2
 49
4.636287175181992
 49
-2957.102061108974
 53
334.9544
 43
12053.38030920506
 44
1272.173402566561
 45
10.9520365279484
 46
-0.0000117218229823
 79
     2
 49
4.636287175181992
 49
-2957.102061108974
 53
334.9544
 43
12053.38030920506
 44
1235.296303964485
 45
10.9520365279484
 46
-0.0000117218229823
 79
     2
 49
4.636287175181992
 49
-2957.102061108974
 53
334.9544
 43
12053.38030920506
 44
1198.419205362417
 45
10.9520365279484
 46
-0.0000117218229823
 79
     2
 49
4.636287175181992
 49
-2957.102061108974
 53
334.9544
 43
12053.38030920506
 44
1161.542106760349
 45
10.9520365279484
 46
-0.0000117218229823
 79
     2
 49
4.636287175181992
 49
-2957.102061108974
 53
334.9544
 43
12053.38030920506
 44
1124.665008158274
 45
10.9520365279484
 46
-0.0000117218229823
 79
     2
 49
4.636287175181992
 49
-2957.102061108974
 53
334.9544
 43
12053.38030920506
 44
1087.787909556198
 45
10.9520365279484
 46
-0.0000117218229823
 79
     2
 49
4.636287175181992
 49
-2957.102061108974
 53
334.9544
 43
12053.38030920506
 44
1050.91081095413
 45
10.9520365279484
 46
-0.0000117218229823
 79
     2
 49
4.636287175181992
 49
-2957.102061108974
 53
334.9544
 43
12053.38030920506
 44
1014.033712352062
 45
10.9520365279484
 46
-0.0000117218229823
 79
     2
 49
4.636287175181992
 49
-2957.102061108974
 53
334.9544
 43
12053.38030920506
 44
977.1566137499867
 45
10.9520365279484
 46
-0.0000117218229823
 79
     2
 49
4.636287175181992
 49
-2957.102061108974
 53
334.9544
 43
12053.38030920506
 44
940.2795151479113
 45
10.9520365279484
 46
-0.0000117218229823
 79
     2
 49
4.636287175181992
 49
-2957.102061108974
 53
334.9544
 43
12053.38030920506
 44
903.4024165458431
 45
10.9520365279484
 46
-0.0000117218229823
 79
     2
 49
4.636287175181992
 49
-2957.102061108974
 53
334.9544
 43
12053.38030920506
 44
866.5253179437749
 45
10.9520365279484
 46
-0.0000117218229823
 79
     2
 49
4.636287175181992
 49
-2957.102061108974
 53
334.9544
 43
12053.38030920506
 44
829.6482193416995
 45
10.9520365279484
 46
-0.0000117218229823
 79
     2
 49
4.636287175181992
 49
-2957.102061108974
 53
334.9544
 43
12053.38030920506
 44
792.7711207396314
 45
10.9520365279484
 46
-0.0000117218229823
 79
     2
 49
4.636287175181992
 49
-2957.102061108974
 53
334.9544
 43
12053.38030920506
 44
755.894022137556
 45
10.9520365279484
 46
-0.0000117218229823
 79
     2
 49
4.636287175181992
 49
-2957.102061108974
 53
334.9544
 43
12053.38030920506
 44
719.0169235354805
 45
10.9520365279484
 46
-0.0000117218229823
 79
     2
 49
4.636287175181992
 49
-2957.102061108974
 53
334.9544
 43
12053.38030920506
 44
682.1398249334124
 45
10.9520365279484
 46
-0.0000117218229823
 79
     2
 49
4.636287175181992
 49
-2957.102061108974
 53
334.9544
 43
12053.38030920506
 44
645.2627263313443
 45
10.9520365279484
 46
-0.0000117218229823
 79
     2
 49
4.636287175181992
 49
-2957.102061108974
 53
334.9544
 43
12053.38030920506
 44
608.3856277292689
 45
10.9520365279484
 46
-0.0000117218229823
 79
     2
 49
4.636287175181992
 49
-2957.102061108974
 53
334.9544
 43
12053.38030920506
 44
571.5085291271971
 45
10.9520365279484
 46
-0.0000117218229823
 79
     2
 49
4.636287175181992
 49
-2957.102061108974
 53
307.5647
 43
12054.68857754488
 44
1818.6209375828
 45
10.95203172566192
 46
-0.0000024731155069
 79
     2
 49
4.503300162712156
 49
-1809.889024393901
 53
307.5647
 43
12054.68857754488
 44
1781.743773421444
 45
10.95203172566192
 46
-0.0000024731155069
 79
     2
 49
4.503300162712156
 49
-1809.889024393901
 53
307.5647
 43
12054.68857754488
 44
1744.866674819368
 45
10.95203172566192
 46
-0.0000024731155069
 79
     2
 49
4.503300162712156
 49
-1809.889024393901
 53
307.5647
 43
12054.68857754488
 44
1707.9895762173
 45
10.95203172566192
 46
-0.0000024731155069
 79
     2
 49
4.503300162712156
 49
-1809.889024393901
 53
307.5647
 43
12054.68857754488
 44
1671.112477615224
 45
10.95203172566192
 46
-0.0000024731155069
 79
     2
 49
4.503300162712156
 49
-1809.889024393901
 53
307.5647
 43
12054.68857754488
 44
1634.235379013149
 45
10.95203172566192
 46
-0.0000024731155069
 79
     2
 49
4.503300162712156
 49
-1809.889024393901
 53
307.5647
 43
12054.68857754488
 44
1597.358280411081
 45
10.95203172566192
 46
-0.0000024731155069
 79
     2
 49
4.503300162712156
 49
-1809.889024393901
 53
307.5647
 43
12054.68857754488
 44
1560.481181809013
 45
10.95203172566192
 46
-0.0000024731155069
 79
     2
 49
4.503300162712156
 49
-1809.889024393901
 53
307.5647
 43
12054.68857754488
 44
1523.604083206937
 45
10.95203172566192
 46
-0.0000024731155069
 79
     2
 49
4.503300162712156
 49
-1809.889024393901
 53
307.5647
 43
12054.68857754488
 44
1486.726001215571
 45
10.95203172566192
 46
-0.0000024731155069
 79
     2
 49
4.503300162712156
 49
-1809.889024393901
 53
307.5647
 43
12054.68857754488
 44
1449.848902613503
 45
10.95203172566192
 46
-0.0000024731155069
 79
     2
 49
4.503300162712156
 49
-1809.889024393901
 53
307.5647
 43
12054.68857754488
 44
1412.971804011428
 45
10.95203172566192
 46
-0.0000024731155069
 79
     2
 49
4.503300162712156
 49
-1809.889024393901
 53
307.5647
 43
12054.68857754488
 44
1376.094705409352
 45
10.95203172566192
 46
-0.0000024731155069
 79
     2
 49
4.503300162712156
 49
-1809.889024393901
 53
307.5647
 43
12054.68857754488
 44
1339.217606807284
 45
10.95203172566192
 46
-0.0000024731155069
 79
     2
 49
4.503300162712156
 49
-1809.889024393901
 53
307.5647
 43
12054.68857754488
 44
1302.340508205216
 45
10.95203172566192
 46
-0.0000024731155069
 79
     2
 49
4.503300162712156
 49
-1809.889024393901
 53
307.5647
 43
12054.68857754488
 44
1265.46340960314
 45
10.95203172566192
 46
-0.0000024731155069
 79
     2
 49
4.503300162712156
 49
-1809.889024393901
 53
307.5647
 43
12054.68857754488
 44
1228.586311001072
 45
10.95203172566192
 46
-0.0000024731155069
 79
     2
 49
4.503300162712156
 49
-1809.889024393901
 53
307.5647
 43
12054.68857754488
 44
1191.709212398997
 45
10.95203172566192
 46
-0.0000024731155069
 79
     2
 49
4.503300162712156
 49
-1809.889024393901
 53
307.5647
 43
12054.68857754488
 44
1154.832113796929
 45
10.95203172566192
 46
-0.0000024731155069
 79
     2
 49
4.503300162712156
 49
-1809.889024393901
 53
307.5647
 43
12054.68857754488
 44
1117.955015194853
 45
10.95203172566192
 46
-0.0000024731155069
 79
     2
 49
4.503300162712156
 49
-1809.889024393901
 53
307.5647
 43
12054.68857754488
 44
1081.077916592785
 45
10.95203172566192
 46
-0.0000024731155069
 79
     2
 49
4.503300162712156
 49
-1809.889024393901
 53
307.5647
 43
12054.68857754488
 44
1044.20081799071
 45
10.95203172566192
 46
-0.0000024731155069
 79
     2
 49
4.503300162712156
 49
-1809.889024393901
 53
307.5647
 43
12054.68857754488
 44
1007.323719388641
 45
10.95203172566192
 46
-0.0000024731155069
 79
     2
 49
4.503300162712156
 49
-1809.889024393901
 53
307.5647
 43
12054.68857754488
 44
970.4466207865735
 45
10.95203172566192
 46
-0.0000024731155069
 79
     2
 49
4.503300162712156
 49
-1809.889024393901
 53
307.5647
 43
12054.68857754488
 44
933.569522184498
 45
10.95203172566192
 46
-0.0000024731155069
 79
     2
 49
4.503300162712156
 49
-1809.889024393901
 53
307.5647
 43
12054.68857754488
 44
896.6924235824226
 45
10.95203172566192
 46
-0.0000024731155069
 79
     2
 49
4.503300162712156
 49
-1809.889024393901
 53
307.5647
 43
12054.68857754488
 44
859.8153249803544
 45
10.95203172566192
 46
-0.0000024731155069
 79
     2
 49
4.503300162712156
 49
-1809.889024393901
 53
307.5647
 43
12054.68857754488
 44
822.9382263782863
 45
10.95203172566192
 46
-0.0000024731155069
 79
     2
 49
4.503300162712156
 49
-1809.889024393901
 53
307.5647
 43
12054.68857754488
 44
786.0611277762109
 45
10.95203172566192
 46
-0.0000024731155069
 79
     2
 49
4.503300162712156
 49
-1809.889024393901
 53
307.5647
 43
12054.68857754488
 44
749.1840291741391
 45
10.95203172566192
 46
-0.0000024731155069
 79
     2
 49
4.503300162712156
 49
-1809.889024393901
 53
307.5647
 43
12054.68857754488
 44
712.3069305720673
 45
10.95203172566192
 46
-0.0000024731155069
 79
     2
 49
4.503300162712156
 49
-1809.889024393901
 53
307.5647
 43
12054.68857754488
 44
675.4298319699919
 45
10.95203172566192
 46
-0.0000024731155069
 79
     2
 49
4.503300162712156
 49
-1809.889024393901
 53
307.5647
 43
12054.68857754488
 44
638.5527333679274
 45
10.95203172566192
 46
-0.0000024731155069
 79
     2
 49
4.503300162712156
 49
-1809.889024393901
 53
307.5647
 43
12054.68857754488
 44
601.6756347658557
 45
10.95203172566192
 46
-0.0000024731155069
 79
     2
 49
4.503300162712156
 49
-1809.889024393901
 53
307.5647
 43
12054.68857754488
 44
564.7985361637802
 45
10.95203172566192
 46
-0.0000024731155069
 79
     2
 49
4.503300162712156
 49
-1809.889024393901
 53
307.5647
 43
12054.68857754488
 44
527.9214375617121
 45
10.95203172566192
 46
-0.0000024731155069
 79
     2
 49
4.503300162712156
 49
-1809.889024393901
 53
307.5647
 43
12054.68857754488
 44
491.0443389596403
 45
10.95203172566192
 46
-0.0000024731155069
 79
     2
 49
4.503300162712156
 49
-1809.889024393901
 53
307.5647
 43
12054.68857754488
 44
454.1672403575685
 45
10.95203172566192
 46
-0.0000024731155069
 79
     2
 49
4.503300162712156
 49
-1809.889024393901
 53
307.5647
 43
12054.68857754488
 44
417.2901417554967
 45
10.95203172566192
 46
-0.0000024731155069
 79
     2
 49
4.503300162712156
 49
-1809.889024393901
 53
292.9384
 43
12047.63765990235
 44
1807.037103369916
 45
10.95204222721493
 46
-0.0000045639384487
 79
     2
 49
8.386475035331912
 49
-1593.356600854789
 53
292.9384
 43
12047.63765990235
 44
1770.160103106773
 45
10.95204222721493
 46
-0.0000045639384487
 79
     2
 49
8.386475035331912
 49
-1593.356600854789
 53
292.9384
 43
12047.63765990235
 44
1733.283004504697
 45
10.95204222721493
 46
-0.0000045639384487
 79
     2
 49
8.386475035331912
 49
-1593.356600854789
 53
292.9384
 43
12047.63765990235
 44
1696.405905902629
 45
10.95204222721493
 46
-0.0000045639384487
 79
     2
 49
8.386475035331912
 49
-1593.356600854789
 53
292.9384
 43
12047.63765990235
 44
1659.528807300561
 45
10.95204222721493
 46
-0.0000045639384487
 79
     2
 49
8.386475035331912
 49
-1593.356600854789
 53
292.9384
 43
12047.63765990235
 44
1622.651708698486
 45
10.95204222721493
 46
-0.0000045639384487
 79
     2
 49
8.386475035331912
 49
-1593.356600854789
 53
292.9384
 43
12047.63765990235
 44
1585.774610096418
 45
10.95204222721493
 46
-0.0000045639384487
 79
     2
 49
8.386475035331912
 49
-1593.356600854789
 53
292.9384
 43
12047.63765990235
 44
1548.897511494342
 45
10.95204222721493
 46
-0.0000045639384487
 79
     2
 49
8.386475035331912
 49
-1593.356600854789
 53
292.9384
 43
12047.63765990235
 44
1512.020412892274
 45
10.95204222721493
 46
-0.0000045639384487
 79
     2
 49
8.386475035331912
 49
-1593.356600854789
 53
292.9384
 43
12047.63765990235
 44
1475.141675308045
 45
10.95204222721493
 46
-0.0000045639384487
 79
     2
 49
8.386475035331912
 49
-1593.356600854789
 53
292.9384
 43
12047.63765990235
 44
1438.264576705969
 45
10.95204222721493
 46
-0.0000045639384487
 79
     2
 49
8.386475035331912
 49
-1593.356600854789
 53
292.9384
 43
12047.63765990235
 44
1401.387478103894
 45
10.95204222721493
 46
-0.0000045639384487
 79
     2
 49
8.386475035331912
 49
-1593.356600854789
 53
292.9384
 43
12047.63765990235
 44
1364.510379501826
 45
10.95204222721493
 46
-0.0000045639384487
 79
     2
 49
8.386475035331912
 49
-1593.356600854789
 53
292.9384
 43
12047.63765990235
 44
1327.633280899757
 45
10.95204222721493
 46
-0.0000045639384487
 79
     2
 49
8.386475035331912
 49
-1593.356600854789
 53
292.9384
 43
12047.63765990235
 44
1290.756182297682
 45
10.95204222721493
 46
-0.0000045639384487
 79
     2
 49
8.386475035331912
 49
-1593.356600854789
 53
292.9384
 43
12047.63765990235
 44
1253.879083695614
 45
10.95204222721493
 46
-0.0000045639384487
 79
     2
 49
8.386475035331912
 49
-1593.356600854789
 53
292.9384
 43
12047.63765990235
 44
1217.001985093539
 45
10.95204222721493
 46
-0.0000045639384487
 79
     2
 49
8.386475035331912
 49
-1593.356600854789
 53
292.9384
 43
12047.63765990235
 44
1180.12488649147
 45
10.95204222721493
 46
-0.0000045639384487
 79
     2
 49
8.386475035331912
 49
-1593.356600854789
 53
292.9384
 43
12047.63765990235
 44
1143.247787889402
 45
10.95204222721493
 46
-0.0000045639384487
 79
     2
 49
8.386475035331912
 49
-1593.356600854789
 53
292.9384
 43
12047.63765990235
 44
1106.370689287327
 45
10.95204222721493
 46
-0.0000045639384487
 79
     2
 49
8.386475035331912
 49
-1593.356600854789
 53
292.9384
 43
12047.63765990235
 44
1069.493590685251
 45
10.95204222721493
 46
-0.0000045639384487
 79
     2
 49
8.386475035331912
 49
-1593.356600854789
 53
292.9384
 43
12047.63765990235
 44
1032.616492083183
 45
10.95204222721493
 46
-0.0000045639384487
 79
     2
 49
8.386475035331912
 49
-1593.356600854789
 53
292.9384
 43
12047.63765990235
 44
995.7393934811152
 45
10.95204222721493
 46
-0.0000045639384487
 79
     2
 49
8.386475035331912
 49
-1593.356600854789
 53
292.9384
 43
12047.63765990235
 44
958.8622948790398
 45
10.95204222721493
 46
-0.0000045639384487
 79
     2
 49
8.386475035331912
 49
-1593.356600854789
 53
292.9384
 43
12047.63765990235
 44
921.9851962769643
 45
10.95204222721493
 46
-0.0000045639384487
 79
     2
 49
8.386475035331912
 49
-1593.356600854789
 53
292.9384
 43
12047.63765990235
 44
885.1080976748962
 45
10.95204222721493
 46
-0.0000045639384487
 79
     2
 49
8.386475035331912
 49
-1593.356600854789
 53
292.9384
 43
12047.63765990235
 44
848.2309990728207
 45
10.95204222721493
 46
-0.0000045639384487
 79
     2
 49
8.386475035331912
 49
-1593.356600854789
 53
292.9384
 43
12047.63765990235
 44
811.3539004707527
 45
10.95204222721493
 46
-0.0000045639384487
 79
     2
 49
8.386475035331912
 49
-1593.356600854789
 53
292.9384
 43
12047.63765990235
 44
774.4768018686772
 45
10.95204222721493
 46
-0.0000045639384487
 79
     2
 49
8.386475035331912
 49
-1593.356600854789
 53
292.9384
 43
12047.63765990235
 44
737.5997032666091
 45
10.95204222721493
 46
-0.0000045639384487
 79
     2
 49
8.386475035331912
 49
-1593.356600854789
 53
292.9384
 43
12047.63765990235
 44
700.722604664541
 45
10.95204222721493
 46
-0.0000045639384487
 79
     2
 49
8.386475035331912
 49
-1593.356600854789
 53
292.9384
 43
12047.63765990235
 44
663.8455060624655
 45
10.95204222721493
 46
-0.0000045639384487
 79
     2
 49
8.386475035331912
 49
-1593.356600854789
 53
292.9384
 43
12047.63765990235
 44
626.9684074603937
 45
10.95204222721493
 46
-0.0000045639384487
 79
     2
 49
8.386475035331912
 49
-1593.356600854789
 53
292.9384
 43
12047.63765990235
 44
590.0913088583219
 45
10.95204222721493
 46
-0.0000045639384487
 79
     2
 49
8.386475035331912
 49
-1593.356600854789
 53
292.9384
 43
12047.63765990235
 44
553.2142102562501
 45
10.95204222721493
 46
-0.0000045639384487
 79
     2
 49
8.386475035331912
 49
-1593.356600854789
 53
292.9384
 43
12047.63765990235
 44
516.3371116541784
 45
10.95204222721493
 46
-0.0000045639384487
 79
     2
 49
8.386475035331912
 49
-1593.356600854789
 53
292.9384
 43
12047.63765990235
 44
479.4600130521103
 45
10.95204222721493
 46
-0.0000045639384487
 79
     2
 49
8.386475035331912
 49
-1593.356600854789
 53
292.9384
 43
12047.63765990235
 44
442.5829144500385
 45
10.95204222721493
 46
-0.0000045639384487
 79
     2
 49
8.386475035331912
 49
-1593.356600854789
 53
292.9384
 43
12047.63765990235
 44
405.705815847963
 45
10.95204222721493
 46
-0.0000045639384487
 79
     2
 49
8.386475035331912
 49
-1593.356600854789
 53
292.9384
 43
12047.63765990235
 44
368.828717245895
 45
10.95204222721493
 46
-0.0000045639384487
 79
     2
 49
8.386475035331912
 49
-1593.356600854789
 53
285.109
 43
12052.43242026259
 44
1791.965285662856
 45
0.0000000992044029
 46
-36.87707611878427
 79
     2
 49
3.638966530766021
 49
-416.5337124354709
 53
285.109
 43
12063.3844596324
 44
1791.965285662856
 45
0.0000000992044029
 46
-36.87707611878427
 79
     2
 49
3.638966530766021
 49
-416.5337124354709
 53
285.109
 43
12074.33649900221
 44
1791.965285662856
 45
0.0000000992044029
 46
-36.87707611878427
 79
     2
 49
3.638966530766021
 49
-416.5337124354709
 53
285.109
 43
12085.28860393131
 44
1791.965285662856
 45
0.0000000992044029
 46
-36.87707611878427
 79
     2
 49
3.638966530766021
 49
-416.5337124354709
 53
285.109
 43
12096.24061052147
 44
1791.965285662856
 45
0.0000000992044029
 46
-36.87707611878427
 79
     2
 49
3.638966530766021
 49
-416.5337124354709
 53
285.109
 43
12107.19261711164
 44
1791.965285662856
 45
0.0000000992044029
 46
-36.87707611878427
 79
     2
 49
3.638966530766021
 49
-416.5337124354709
 53
285.109
 43
12118.14462370181
 44
1791.965285662856
 45
0.0000000992044029
 46
-36.87707611878427
 79
     2
 49
3.638966530766021
 49
-416.5337124354709
 53
285.109
 43
12129.09663029198
 44
1791.965285662856
 45
0.0000000992044029
 46
-36.87707611878427
 79
     2
 49
3.638966530766021
 49
-416.5337124354709
 53
285.109
 43
12140.04863688214
 44
1791.965285662856
 45
0.0000000992044029
 46
-36.87707611878427
 79
     2
 49
3.638966530766021
 49
-416.5337124354709
 53
285.109
 43
12151.00064347231
 44
1791.965285662856
 45
0.0000000992044029
 46
-36.87707611878427
 79
     2
 49
3.638966530766021
 49
-416.5337124354709
 53
276.7473999999999
 43
12050.9058067194
 44
1799.31362939798
 45
0.0000035818718473
 46
-36.87716375543
 79
     2
 49
7.399774995313284
 49
-4560.119085052519
 53
276.7473999999999
 43
12061.8578460892
 44
1799.31362939798
 45
0.0000035818718473
 46
-36.87716375543
 79
     2
 49
7.399774995313284
 49
-4560.119085052519
 53
276.7473999999999
 43
12072.80988545901
 44
1799.31362939798
 45
0.0000035818718473
 46
-36.87716375543
 79
     2
 49
7.399774995313284
 49
-4560.119085052519
 53
276.7473999999999
 43
12083.7620559474
 44
1799.31362939798
 45
0.0000035818718473
 46
-36.87716375543
 79
     2
 49
7.399774995313284
 49
-4560.119085052519
 53
276.7473999999999
 43
12094.71406253757
 44
1799.31362939798
 45
0.0000035818718473
 46
-36.87716375543
 79
     2
 49
7.399774995313284
 49
-4560.119085052519
 53
276.7473999999999
 43
12105.66606912773
 44
1799.31362939798
 45
0.0000035818718473
 46
-36.87716375543
 79
     2
 49
7.399774995313284
 49
-4560.119085052519
 53
276.7473999999999
 43
12116.6180757179
 44
1799.31362939798
 45
0.0000035818718473
 46
-36.87716375543
 79
     2
 49
7.399774995313284
 49
-4560.119085052519
 53
276.7473999999999
 43
12127.57008230807
 44
1799.31362939798
 45
0.0000035818718473
 46
-36.87716375543
 79
     2
 49
7.399774995313284
 49
-4560.119085052519
 53
276.7473999999999
 43
12138.52208889824
 44
1799.31362939798
 45
0.0000035818718473
 46
-36.87716375543
 79
     2
 49
7.399774995313284
 49
-4560.119085052519
 53
276.7473999999999
 43
12149.4740954884
 44
1799.31362939798
 45
0.0000035818718473
 46
-36.87716375543
 79
     2
 49
7.399774995313284
 49
-4560.119085052519
 53
276.7473999999999
 43
12160.42610207857
 44
1799.31362939798
 45
0.0000035818718473
 46
-36.87716375543
 79
     2
 49
7.399774995313284
 49
-4560.119085052519
 53
276.7473999999999
 43
12171.37810866874
 44
1799.31362939798
 45
0.0000035818718473
 46
-36.87716375543
 79
     2
 49
7.399774995313284
 49
-4560.119085052519
 53
276.7473999999999
 43
12182.3301152589
 44
1799.31362939798
 45
0.0000035818718473
 46
-36.87716375543
 79
     2
 49
7.399774995313284
 49
-4560.119085052519
 53
276.7473999999999
 43
12193.28212184907
 44
1799.31362939798
 45
0.0000035818718473
 46
-36.87716375543
 79
     2
 49
7.399774995313284
 49
-4560.119085052519
 53
276.7473999999999
 43
12204.23445623567
 44
1799.31362939798
 45
0.0000035818718473
 46
-36.87716375543
 79
     2
 49
7.399774995313284
 49
-4560.119085052519
 53
276.7473999999999
 43
12215.18646282584
 44
1799.31362939798
 45
0.0000035818718473
 46
-36.87716375543
 79
     2
 49
7.399774995313284
 49
-4560.119085052519
 53
276.7473999999999
 43
12226.138469416
 44
1799.31362939798
 45
0.0000035818718473
 46
-36.87716375543
 79
     2
 49
7.399774995313284
 49
-4560.119085052519
 53
276.7473999999999
 43
12237.09047600617
 44
1799.31362939798
 45
0.0000035818718473
 46
-36.87716375543
 79
     2
 49
7.399774995313284
 49
-4560.119085052519
 53
276.7473999999999
 43
12248.04248259633
 44
1799.31362939798
 45
0.0000035818718473
 46
-36.87716375543
 79
     2
 49
7.399774995313284
 49
-4560.119085052519
 53
276.7473999999999
 43
12258.99448918651
 44
1799.31362939798
 45
0.0000035818718473
 46
-36.87716375543
 79
     2
 49
7.399774995313284
 49
-4560.119085052519
 53
276.7473999999999
 43
12269.94649577667
 44
1799.31362939798
 45
0.0000035818718473
 46
-36.87716375543
 79
     2
 49
7.399774995313284
 49
-4560.119085052519
 53
276.7473999999999
 43
12280.89850236684
 44
1799.31362939798
 45
0.0000035818718473
 46
-36.87716375543
 79
     2
 49
7.399774995313284
 49
-4560.119085052519
 53
276.7473999999999
 43
12291.85050895701
 44
1799.31362939798
 45
0.0000035818718473
 46
-36.87716375543
 79
     2
 49
7.399774995313284
 49
-4560.119085052519
 53
276.7473999999999
 43
12302.80251554717
 44
1799.31362939798
 45
0.0000035818718473
 46
-36.87716375543
 79
     2
 49
7.399774995313284
 49
-4560.119085052519
 53
276.7473999999999
 43
12313.75484993378
 44
1799.31362939798
 45
0.0000035818718473
 46
-36.87716375543
 79
     2
 49
7.399774995313284
 49
-4560.119085052519
 53
276.7473999999999
 43
12324.70685652394
 44
1799.31362939798
 45
0.0000035818718473
 46
-36.87716375543
 79
     2
 49
7.399774995313284
 49
-4560.119085052519
 53
276.7473999999999
 43
12335.65886311411
 44
1799.31362939798
 45
0.0000035818718473
 46
-36.87716375543
 79
     2
 49
7.399774995313284
 49
-4560.119085052519
 53
276.7473999999999
 43
12346.61086970428
 44
1799.31362939798
 45
0.0000035818718473
 46
-36.87716375543
 79
     2
 49
7.399774995313284
 49
-4560.119085052519
 53
276.7473999999999
 43
12357.56287629445
 44
1799.31362939798
 45
0.0000035818718473
 46
-36.87716375543
 79
     2
 49
7.399774995313284
 49
-4560.119085052519
 53
276.7473999999999
 43
12368.51488288461
 44
1799.31362939798
 45
0.0000035818718473
 46
-36.87716375543
 79
     2
 49
7.399774995313284
 49
-4560.119085052519
 53
276.7473999999999
 43
12379.46656167834
 44
1799.31362939798
 45
0.0000035818718473
 46
-36.87716375543
 79
     2
 49
7.399774995313284
 49
-4560.119085052519
 53
276.7473999999999
 43
12390.41824047208
 44
1799.31362939798
 45
0.0000035818718473
 46
-36.87716375543
 79
     2
 49
7.399774995313284
 49
-4560.119085052519
 53
276.7473999999999
 43
12401.36991926581
 44
1799.31362939798
 45
0.0000035818718473
 46
-36.87716375543
 79
     2
 49
7.399774995313284
 49
-4560.119085052519
 53
276.7473999999999
 43
12412.32159805955
 44
1799.31362939798
 45
0.0000035818718473
 46
-36.87716375543
 79
     2
 49
7.399774995313284
 49
-4560.119085052519
 53
276.7473999999999
 43
12423.27655481761
 44
1799.31362939798
 45
0.0000035818718473
 46
-36.87716375543
 79
     2
 49
7.399774995313284
 49
-4560.119085052519
 53
276.7473999999999
 43
12434.22823361134
 44
1799.31362939798
 45
0.0000035818718473
 46
-36.87716375543
 79
     2
 49
7.399774995313284
 49
-4560.119085052519
 53
276.7473999999999
 43
12445.17991240507
 44
1799.31362939798
 45
0.0000035818718473
 46
-36.87716375543
 79
     2
 49
7.399774995313284
 49
-4560.119085052519
 53
276.7473999999999
 43
12456.13159119881
 44
1799.31362939798
 45
0.0000035818718473
 46
-36.87716375543
 79
     2
 49
7.399774995313284
 49
-4560.119085052519
 53
276.7473999999999
 43
12467.08326999254
 44
1799.31362939798
 45
0.0000035818718473
 46
-36.87716375543
 79
     2
 49
7.399774995313284
 49
-4560.119085052519
 53
276.7473999999999
 43
12478.03494878628
 44
1799.31362939798
 45
0.0000035818718473
 46
-36.87716375543
 79
     2
 49
7.399774995313284
 49
-4560.119085052519
 53
276.7473999999999
 43
12488.98662758001
 44
1799.31362939798
 45
0.0000035818718473
 46
-36.87716375543
 79
     2
 49
7.399774995313284
 49
-4560.119085052519
 53
276.7473999999999
 43
12499.93830637375
 44
1799.31362939798
 45
0.0000035818718473
 46
-36.87716375543
 79
     2
 49
7.399774995313284
 49
-4560.119085052519
 53
276.7473999999999
 43
12510.88998516749
 44
1799.31362939798
 45
0.0000035818718473
 46
-36.87716375543
 79
     2
 49
7.399774995313284
 49
-4560.119085052519
 53
276.7473999999999
 43
12521.84494192554
 44
1799.31362939798
 45
0.0000035818718473
 46
-36.87716375543
 79
     2
 49
7.399774995313284
 49
-4560.119085052519
 53
276.7473999999999
 43
12532.79662071928
 44
1799.31362939798
 45
0.0000035818718473
 46
-36.87716375543
 79
     2
 49
7.399774995313284
 49
-4560.119085052519
 53
276.7473999999999
 43
12543.74829951301
 44
1799.31362939798
 45
0.0000035818718473
 46
-36.87716375543
 79
     2
 49
7.399774995313284
 49
-4560.119085052519
 53
276.7473999999999
 43
12554.69997830675
 44
1799.31362939798
 45
0.0000035818718473
 46
-36.87716375543
 79
     2
 49
7.399774995313284
 49
-4560.119085052519
 53
276.7473999999999
 43
12565.65165710048
 44
1799.31362939798
 45
0.0000035818718473
 46
-36.87716375543
 79
     2
 49
7.399774995313284
 49
-4560.119085052519
 53
276.7473999999999
 43
12576.60333589422
 44
1799.31362939798
 45
0.0000035818718473
 46
-36.87716375543
 79
     2
 49
7.399774995313284
 49
-4560.119085052519
 53
276.1416
 43
12046.77518979311
 44
1815.051365556694
 45
-0.0000356891682921
 46
-36.87700042616381
 79
     2
 49
8.060547042976009
 49
-2551.147945737283
 53
276.1416
 43
12057.72721769006
 44
1815.051365556694
 45
-0.0000356891682921
 46
-36.87700042616381
 79
     2
 49
8.060547042976009
 49
-2551.147945737283
 53
276.1416
 43
12068.67925705987
 44
1815.051365556694
 45
-0.0000356891682921
 46
-36.87700042616381
 79
     2
 49
8.060547042976009
 49
-2551.147945737283
 53
276.1416
 43
12079.6311653111
 44
1815.051365556694
 45
-0.0000356891682921
 46
-36.87700042616381
 79
     2
 49
8.060547042976009
 49
-2551.147945737283
 53
276.1416
 43
12090.5834996977
 44
1815.051365556694
 45
-0.0000356891682921
 46
-36.87700042616381
 79
     2
 49
8.060547042976009
 49
-2551.147945737283
 53
276.1416
 43
12101.53550628786
 44
1815.051365556694
 45
-0.0000356891682921
 46
-36.87700042616381
 79
     2
 49
8.060547042976009
 49
-2551.147945737283
 53
276.1416
 43
12112.48751287803
 44
1815.051365556694
 45
-0.0000356891682921
 46
-36.87700042616381
 79
     2
 49
8.060547042976009
 49
-2551.147945737283
 53
276.1416
 43
12123.43951946821
 44
1815.051365556694
 45
-0.0000356891682921
 46
-36.87700042616381
 79
     2
 49
8.060547042976009
 49
-2551.147945737283
 53
276.1416
 43
12134.39152605837
 44
1815.051365556694
 45
-0.0000356891682921
 46
-36.87700042616381
 79
     2
 49
8.060547042976009
 49
-2551.147945737283
 53
276.1416
 43
12145.34353264854
 44
1815.051365556694
 45
-0.0000356891682921
 46
-36.87700042616381
 79
     2
 49
8.060547042976009
 49
-2551.147945737283
 53
276.1416
 43
12156.29553923871
 44
1815.051365556694
 45
-0.0000356891682921
 46
-36.87700042616381
 79
     2
 49
8.060547042976009
 49
-2551.147945737283
 53
276.1416
 43
12167.24754582887
 44
1815.051365556694
 45
-0.0000356891682921
 46
-36.87700042616381
 79
     2
 49
8.060547042976009
 49
-2551.147945737283
 53
276.1416
 43
12178.19955241904
 44
1815.051365556694
 45
-0.0000356891682921
 46
-36.87700042616381
 79
     2
 49
8.060547042976009
 49
-2551.147945737283
 53
276.1416
 43
12189.1515590092
 44
1815.051365556694
 45
-0.0000356891682921
 46
-36.87700042616381
 79
     2
 49
8.060547042976009
 49
-2551.147945737283
 53
276.1416
 43
12200.10356559937
 44
1815.051365556694
 45
-0.0000356891682921
 46
-36.87700042616381
 79
     2
 49
8.060547042976009
 49
-2551.147945737283
 53
276.1416
 43
12211.05589998597
 44
1815.051365556694
 45
-0.0000356891682921
 46
-36.87700042616381
 79
     2
 49
8.060547042976009
 49
-2551.147945737283
 53
276.1416
 43
12222.00790657614
 44
1815.051365556694
 45
-0.0000356891682921
 46
-36.87700042616381
 79
     2
 49
8.060547042976009
 49
-2551.147945737283
 53
276.1416
 43
12232.9599131663
 44
1815.051365556694
 45
-0.0000356891682921
 46
-36.87700042616381
 79
     2
 49
8.060547042976009
 49
-2551.147945737283
 53
276.1416
 43
12243.91191975647
 44
1815.051365556694
 45
-0.0000356891682921
 46
-36.87700042616381
 79
     2
 49
8.060547042976009
 49
-2551.147945737283
 53
276.1416
 43
12254.86392634664
 44
1815.051365556694
 45
-0.0000356891682921
 46
-36.87700042616381
 79
     2
 49
8.060547042976009
 49
-2551.147945737283
 53
276.1416
 43
12265.8159329368
 44
1815.051365556694
 45
-0.0000356891682921
 46
-36.87700042616381
 79
     2
 49
8.060547042976009
 49
-2551.147945737283
 53
276.1416
 43
12276.76793952697
 44
1815.051365556694
 45
-0.0000356891682921
 46
-36.87700042616381
 79
     2
 49
8.060547042976009
 49
-2551.147945737283
 53
276.1416
 43
12287.71994611714
 44
1815.051365556694
 45
-0.0000356891682921
 46
-36.87700042616381
 79
     2
 49
8.060547042976009
 49
-2551.147945737283
 53
276.1416
 43
12298.67195270731
 44
1815.051365556694
 45
-0.0000356891682921
 46
-36.87700042616381
 79
     2
 49
8.060547042976009
 49
-2551.147945737283
 53
276.1416
 43
12309.62395929748
 44
1815.051365556694
 45
-0.0000356891682921
 46
-36.87700042616381
 79
     2
 49
8.060547042976009
 49
-2551.147945737283
 53
83.85800000000008
 43
12056.57160414861
 44
1807.037103369916
 45
10.9520277214346
 46
-0.0000684758235829
 79
     2
 49
8.060547042975894
 49
-2551.147945737253
 53
83.85800000000008
 43
12056.57160414861
 44
1770.160103106773
 45
10.9520277214346
 46
-0.0000684758235829
 79
     2
 49
8.060547042975894
 49
-2551.147945737253
 53
83.85800000000008
 43
12056.57160414861
 44
1733.283004504697
 45
10.9520277214346
 46
-0.0000684758235829
 79
     2
 49
8.060547042975894
 49
-2551.147945737253
 53
83.85800000000008
 43
12056.57160414861
 44
1696.405905902629
 45
10.9520277214346
 46
-0.0000684758235829
 79
     2
 49
8.060547042975894
 49
-2551.147945737253
 53
83.85800000000008
 43
12056.57160414861
 44
1659.528807300561
 45
10.9520277214346
 46
-0.0000684758235829
 79
     2
 49
8.060547042975894
 49
-2551.147945737253
 53
83.85800000000008
 43
12056.57160414861
 44
1622.651708698486
 45
10.9520277214346
 46
-0.0000684758235829
 79
     2
 49
8.060547042975894
 49
-2551.147945737253
 53
83.85800000000008
 43
12056.57160414861
 44
1585.774610096418
 45
10.9520277214346
 46
-0.0000684758235829
 79
     2
 49
8.060547042975894
 49
-2551.147945737253
 53
83.85800000000008
 43
12056.57160414861
 44
1548.897511494342
 45
10.9520277214346
 46
-0.0000684758235829
 79
     2
 49
8.060547042975894
 49
-2551.147945737253
 53
83.85800000000008
 43
12056.57160414861
 44
1512.020412892274
 45
10.9520277214346
 46
-0.0000684758235829
 79
     2
 49
8.060547042975894
 49
-2551.147945737253
 53
83.85800000000008
 43
12056.57160414861
 44
1475.141675308045
 45
10.9520277214346
 46
-0.0000684758235829
 79
     2
 49
8.060547042975894
 49
-2551.147945737253
 53
83.85800000000008
 43
12056.57160414861
 44
1438.264576705969
 45
10.9520277214346
 46
-0.0000684758235829
 79
     2
 49
8.060547042975894
 49
-2551.147945737253
 53
83.85800000000008
 43
12056.57160414861
 44
1401.387478103894
 45
10.9520277214346
 46
-0.0000684758235829
 79
     2
 49
8.060547042975894
 49
-2551.147945737253
 53
83.85800000000008
 43
12056.57160414861
 44
1364.510379501826
 45
10.9520277214346
 46
-0.0000684758235829
 79
     2
 49
8.060547042975894
 49
-2551.147945737253
 53
83.85800000000008
 43
12056.57160414861
 44
1327.633280899757
 45
10.9520277214346
 46
-0.0000684758235829
 79
     2
 49
8.060547042975894
 49
-2551.147945737253
 53
83.85800000000008
 43
12056.57160414861
 44
1290.756182297682
 45
10.9520277214346
 46
-0.0000684758235829
 79
     2
 49
8.060547042975894
 49
-2551.147945737253
 53
83.85800000000008
 43
12056.57160414861
 44
1253.879083695614
 45
10.9520277214346
 46
-0.0000684758235829
 79
     2
 49
8.060547042975894
 49
-2551.147945737253
 53
83.85800000000008
 43
12056.57160414861
 44
1217.001985093539
 45
10.9520277214346
 46
-0.0000684758235829
 79
     2
 49
8.060547042975894
 49
-2551.147945737253
 53
83.85800000000008
 43
12056.57160414861
 44
1180.12488649147
 45
10.9520277214346
 46
-0.0000684758235829
 79
     2
 49
8.060547042975894
 49
-2551.147945737253
 53
83.85800000000008
 43
12056.57160414861
 44
1143.247787889402
 45
10.9520277214346
 46
-0.0000684758235829
 79
     2
 49
8.060547042975894
 49
-2551.147945737253
 53
83.85800000000008
 43
12056.57160414861
 44
1106.370689287327
 45
10.9520277214346
 46
-0.0000684758235829
 79
     2
 49
8.060547042975894
 49
-2551.147945737253
 53
83.85800000000008
 43
12056.57160414861
 44
1069.493590685251
 45
10.9520277214346
 46
-0.0000684758235829
 79
     2
 49
8.060547042975894
 49
-2551.147945737253
 53
83.85800000000008
 43
12056.57160414861
 44
1032.616492083183
 45
10.9520277214346
 46
-0.0000684758235829
 79
     2
 49
8.060547042975894
 49
-2551.147945737253
 53
83.85800000000008
 43
12056.57160414861
 44
995.7393934811152
 45
10.9520277214346
 46
-0.0000684758235829
 79
     2
 49
8.060547042975894
 49
-2551.147945737253
 53
83.85800000000008
 43
12056.57160414861
 44
958.8622948790398
 45
10.9520277214346
 46
-0.0000684758235829
 79
     2
 49
8.060547042975894
 49
-2551.147945737253
 53
83.85800000000008
 43
12056.57160414861
 44
921.9851962769643
 45
10.9520277214346
 46
-0.0000684758235829
 79
     2
 49
8.060547042975894
 49
-2551.147945737253
 53
83.85800000000008
 43
12056.57160414861
 44
885.1080976748962
 45
10.9520277214346
 46
-0.0000684758235829
 79
     2
 49
8.060547042975894
 49
-2551.147945737253
 53
83.85800000000008
 43
12056.57160414861
 44
848.2309990728207
 45
10.9520277214346
 46
-0.0000684758235829
 79
     2
 49
8.060547042975894
 49
-2551.147945737253
 53
83.85800000000008
 43
12056.57160414861
 44
811.3539004707527
 45
10.9520277214346
 46
-0.0000684758235829
 79
     2
 49
8.060547042975894
 49
-2551.147945737253
 53
83.85800000000008
 43
12056.57160414861
 44
774.4768018686772
 45
10.9520277214346
 46
-0.0000684758235829
 79
     2
 49
8.060547042975894
 49
-2551.147945737253
 53
83.85800000000008
 43
12056.57160414861
 44
737.5997032666091
 45
10.9520277214346
 46
-0.0000684758235829
 79
     2
 49
8.060547042975894
 49
-2551.147945737253
 53
83.85800000000008
 43
12056.57160414861
 44
700.722604664541
 45
10.9520277214346
 46
-0.0000684758235829
 79
     2
 49
8.060547042975894
 49
-2551.147945737253
 53
83.85800000000008
 43
12056.57160414861
 44
663.8455060624655
 45
10.9520277214346
 46
-0.0000684758235829
 79
     2
 49
8.060547042975894
 49
-2551.147945737253
 53
83.85800000000008
 43
12056.57160414861
 44
626.9684074603937
 45
10.9520277214346
 46
-0.0000684758235829
 79
     2
 49
8.060547042975894
 49
-2551.147945737253
 53
83.85800000000008
 43
12056.57160414861
 44
590.0913088583219
 45
10.9520277214346
 46
-0.0000684758235829
 79
     2
 49
8.060547042975894
 49
-2551.147945737253
 53
83.85800000000008
 43
12056.57160414861
 44
553.2142102562501
 45
10.9520277214346
 46
-0.0000684758235829
 79
     2
 49
8.060547042975894
 49
-2551.147945737253
 53
83.85800000000008
 43
12056.57160414861
 44
516.3371116541784
 45
10.9520277214346
 46
-0.0000684758235829
 79
     2
 49
8.060547042975894
 49
-2551.147945737253
 53
83.85800000000008
 43
12056.57160414861
 44
479.4600130521103
 45
10.9520277214346
 46
-0.0000684758235829
 79
     2
 49
8.060547042975894
 49
-2551.147945737253
 53
83.85800000000008
 43
12056.57160414861
 44
442.5829144500385
 45
10.9520277214346
 46
-0.0000684758235829
 79
     2
 49
8.060547042975894
 49
-2551.147945737253
 53
83.85800000000008
 43
12056.57160414861
 44
405.705815847963
 45
10.9520277214346
 46
-0.0000684758235829
 79
     2
 49
8.060547042975894
 49
-2551.147945737253
 53
83.85800000000008
 43
12056.57160414861
 44
368.828717245895
 45
10.9520277214346
 46
-0.0000684758235829
 79
     2
 49
8.060547042975894
 49
-2551.147945737253
 53
83.85800000000008
 43
12056.57160414861
 44
331.9516186438232
 45
10.9520277214346
 46
-0.0000684758235829
 79
     2
 49
8.060547042975894
 49
-2551.147945737253
 53
83.85800000000008
 43
12056.57160414861
 44
295.0745200417514
 45
10.9520277214346
 46
-0.0000684758235829
 79
     2
 49
8.060547042975894
 49
-2551.147945737253
 53
83.85800000000008
 43
12056.57160414861
 44
258.1974214396796
 45
10.9520277214346
 46
-0.0000684758235829
 79
     2
 49
8.060547042975894
 49
-2551.147945737253
 53
83.85800000000008
 43
12056.57160414861
 44
221.3203228376078
 45
10.9520277214346
 46
-0.0000684758235829
 79
     2
 49
8.060547042975894
 49
-2551.147945737253
 53
83.85800000000008
 43
12056.57160414861
 44
184.443224235536
 45
10.9520277214346
 46
-0.0000684758235829
 79
     2
 49
8.060547042975894
 49
-2551.147945737253
 53
83.85800000000008
 43
12056.57160414861
 44
147.5661256334642
 45
10.9520277214346
 46
-0.0000684758235829
 79
     2
 49
8.060547042975894
 49
-2551.147945737253
 53
83.85800000000008
 43
12056.57160414861
 44
110.6890270313924
 45
10.9520277214346
 46
-0.0000684758235829
 79
     2
 49
8.060547042975894
 49
-2551.147945737253
 53
83.85800000000008
 43
12056.57160414861
 44
73.81192842931705
 45
10.9520277214346
 46
-0.0000684758235829
 79
     2
 49
8.060547042975894
 49
-2551.147945737253
 53
83.85800000000008
 43
12056.57160414861
 44
36.93482982725254
 45
10.9520277214346
 46
-0.0000684758235829
 79
     2
 49
8.060547042975894
 49
-2551.147945737253
 53
83.85800000000008
 43
12056.57160414861
 44
0.0577312251807598
 45
10.9520277214346
 46
-0.0000684758235829
 79
     2
 49
8.060547042975894
 49
-2551.147945737253
 53
83.85800000000008
 43
12056.57160414861
 44
-36.81936737689466
 45
10.9520277214346
 46
-0.0000684758235829
 79
     2
 49
8.060547042975894
 49
-2551.147945737253
 53
83.85800000000008
 43
12056.57160414861
 44
-73.69646597896644
 45
10.9520277214346
 46
-0.0000684758235829
 79
     2
 49
8.060547042975894
 49
-2551.147945737253
 53
83.85800000000008
 43
12056.57160414861
 44
-110.5735645810382
 45
10.9520277214346
 46
-0.0000684758235829
 79
     2
 49
8.060547042975894
 49
-2551.147945737253
 53
83.85800000000008
 43
12056.57160414861
 44
-147.45066318311
 45
10.9520277214346
 46
-0.0000684758235829
 79
     2
 49
8.060547042975894
 49
-2551.147945737253
 53
83.85800000000008
 43
12056.57160414861
 44
-184.3277617851781
 45
10.9520277214346
 46
-0.0000684758235829
 79
     2
 49
8.060547042975894
 49
-2551.147945737253
 53
83.85800000000008
 43
12056.57160414861
 44
-221.2048603872499
 45
10.9520277214346
 46
-0.0000684758235829
 79
     2
 49
8.060547042975894
 49
-2551.147945737253
 53
83.85800000000008
 43
12056.57160414861
 44
-258.0819589893254
 45
10.9520277214346
 46
-0.0000684758235829
 79
     2
 49
8.060547042975894
 49
-2551.147945737253
 53
83.85800000000008
 43
12056.57160414861
 44
-294.9590575913935
 45
10.9520277214346
 46
-0.0000684758235829
 79
     2
 49
8.060547042975894
 49
-2551.147945737253
 53
83.85800000000008
 43
12056.57160414861
 44
-331.8361561934653
 45
10.9520277214346
 46
-0.0000684758235829
 79
     2
 49
8.060547042975894
 49
-2551.147945737253
 53
83.85800000000008
 43
12056.57160414861
 44
-368.7132547955371
 45
10.9520277214346
 46
-0.0000684758235829
 79
     2
 49
8.060547042975894
 49
-2551.147945737253
 53
83.85800000000008
 43
12056.57160414861
 44
-405.5903533976088
 45
10.9520277214346
 46
-0.0000684758235829
 79
     2
 49
8.060547042975894
 49
-2551.147945737253
 53
83.85800000000008
 43
12056.57160414861
 44
-442.4674519996806
 45
10.9520277214346
 46
-0.0000684758235829
 79
     2
 49
8.060547042975894
 49
-2551.147945737253
 53
83.85800000000008
 43
12056.57160414861
 44
-479.3445506017524
 45
10.9520277214346
 46
-0.0000684758235829
 79
     2
 49
8.060547042975894
 49
-2551.147945737253
 53
83.85800000000008
 43
12056.57160414861
 44
-516.2216492038242
 45
10.9520277214346
 46
-0.0000684758235829
 79
     2
 49
8.060547042975894
 49
-2551.147945737253
 53
83.85800000000008
 43
12056.57160414861
 44
-553.098747805896
 45
10.9520277214346
 46
-0.0000684758235829
 79
     2
 49
8.060547042975894
 49
-2551.147945737253
 53
83.85800000000008
 43
12056.57160414861
 44
-589.9758464079714
 45
10.9520277214346
 46
-0.0000684758235829
 79
     2
 49
8.060547042975894
 49
-2551.147945737253
 53
83.85800000000008
 43
12056.57160414861
 44
-626.8529450100395
 45
10.9520277214346
 46
-0.0000684758235829
 79
     2
 49
8.060547042975894
 49
-2551.147945737253
 53
83.85800000000008
 43
12056.57160414861
 44
-663.7300436121076
 45
10.9520277214346
 46
-0.0000684758235829
 79
     2
 49
8.060547042975894
 49
-2551.147945737253
 53
83.85800000000008
 43
12056.57160414861
 44
-700.6071422141831
 45
10.9520277214346
 46
-0.0000684758235829
 79
     2
 49
8.060547042975894
 49
-2551.147945737253
 53
83.25300000000003
 43
12052.43242026259
 44
1791.965285662856
 45
10.95204383447483
 46
0.0000798601498432
 79
     2
 49
7.399774995313283
 49
-4560.119085052519
 53
83.25300000000003
 43
12052.43242026259
 44
1755.088350959002
 45
10.95204383447483
 46
0.0000798601498432
 79
     2
 49
7.399774995313283
 49
-4560.119085052519
 53
83.25300000000003
 43
12052.43242026259
 44
1718.211252356926
 45
10.95204383447483
 46
0.0000798601498432
 79
     2
 49
7.399774995313283
 49
-4560.119085052519
 53
83.25300000000003
 43
12052.43242026259
 44
1681.334153754858
 45
10.95204383447483
 46
0.0000798601498432
 79
     2
 49
7.399774995313283
 49
-4560.119085052519
 53
83.25300000000003
 43
12052.43242026259
 44
1644.45705515279
 45
10.95204383447483
 46
0.0000798601498432
 79
     2
 49
7.399774995313283
 49
-4560.119085052519
 53
83.25300000000003
 43
12052.43242026259
 44
1607.579956550715
 45
10.95204383447483
 46
0.0000798601498432
 79
     2
 49
7.399774995313283
 49
-4560.119085052519
 53
83.25300000000003
 43
12052.43242026259
 44
1570.702857948639
 45
10.95204383447483
 46
0.0000798601498432
 79
     2
 49
7.399774995313283
 49
-4560.119085052519
 53
83.25300000000003
 43
12052.43242026259
 44
1533.825759346571
 45
10.95204383447483
 46
0.0000798601498432
 79
     2
 49
7.399774995313283
 49
-4560.119085052519
 53
83.25300000000003
 43
12052.43242026259
 44
1496.948660744496
 45
10.95204383447483
 46
0.0000798601498432
 79
     2
 49
7.399774995313283
 49
-4560.119085052519
 53
83.25300000000003
 43
12052.43242026259
 44
1460.072873328154
 45
10.95204383447483
 46
0.0000798601498432
 79
     2
 49
7.399774995313283
 49
-4560.119085052519
 53
83.25300000000003
 43
12052.43242026259
 44
1423.195774726086
 45
10.95204383447483
 46
0.0000798601498432
 79
     2
 49
7.399774995313283
 49
-4560.119085052519
 53
83.25300000000003
 43
12052.43242026259
 44
1386.31867612401
 45
10.95204383447483
 46
0.0000798601498432
 79
     2
 49
7.399774995313283
 49
-4560.119085052519
 53
83.25300000000003
 43
12052.43242026259
 44
1349.441577521942
 45
10.95204383447483
 46
0.0000798601498432
 79
     2
 49
7.399774995313283
 49
-4560.119085052519
 53
83.25300000000003
 43
12052.43242026259
 44
1312.564478919867
 45
10.95204383447483
 46
0.0000798601498432
 79
     2
 49
7.399774995313283
 49
-4560.119085052519
 53
83.25300000000003
 43
12052.43242026259
 44
1275.687380317791
 45
10.95204383447483
 46
0.0000798601498432
 79
     2
 49
7.399774995313283
 49
-4560.119085052519
 53
83.25300000000003
 43
12052.43242026259
 44
1238.810281715723
 45
10.95204383447483
 46
0.0000798601498432
 79
     2
 49
7.399774995313283
 49
-4560.119085052519
 53
83.25300000000003
 43
12052.43242026259
 44
1201.933183113655
 45
10.95204383447483
 46
0.0000798601498432
 79
     2
 49
7.399774995313283
 49
-4560.119085052519
 53
83.25300000000003
 43
12052.43242026259
 44
1165.056084511579
 45
10.95204383447483
 46
0.0000798601498432
 79
     2
 49
7.399774995313283
 49
-4560.119085052519
 53
83.25300000000003
 43
12052.43242026259
 44
1128.178985909511
 45
10.95204383447483
 46
0.0000798601498432
 79
     2
 49
7.399774995313283
 49
-4560.119085052519
 53
83.25300000000003
 43
12052.43242026259
 44
1091.301887307436
 45
10.95204383447483
 46
0.0000798601498432
 79
     2
 49
7.399774995313283
 49
-4560.119085052519
 53
83.25300000000003
 43
12052.43242026259
 44
1054.424788705368
 45
10.95204383447483
 46
0.0000798601498432
 79
     2
 49
7.399774995313283
 49
-4560.119085052519
 53
83.25300000000003
 43
12052.43242026259
 44
1017.5476901033
 45
10.95204383447483
 46
0.0000798601498432
 79
     2
 49
7.399774995313283
 49
-4560.119085052519
 53
83.25300000000003
 43
12052.43242026259
 44
980.6705915012244
 45
10.95204383447483
 46
0.0000798601498432
 79
     2
 49
7.399774995313283
 49
-4560.119085052519
 53
83.25300000000003
 43
12052.43242026259
 44
943.793492899149
 45
10.95204383447483
 46
0.0000798601498432
 79
     2
 49
7.399774995313283
 49
-4560.119085052519
 53
83.25300000000003
 43
12052.43242026259
 44
906.9163942970808
 45
10.95204383447483
 46
0.0000798601498432
 79
     2
 49
7.399774995313283
 49
-4560.119085052519
 53
83.25300000000003
 43
12052.43242026259
 44
870.0392956950091
 45
10.95204383447483
 46
0.0000798601498432
 79
     2
 49
7.399774995313283
 49
-4560.119085052519
 53
83.25300000000003
 43
12052.43242026259
 44
833.1621970929372
 45
10.95204383447483
 46
0.0000798601498432
 79
     2
 49
7.399774995313283
 49
-4560.119085052519
 53
83.25300000000003
 43
12052.43242026259
 44
796.2850984908655
 45
10.95204383447483
 46
0.0000798601498432
 79
     2
 49
7.399774995313283
 49
-4560.119085052519
 53
83.25300000000003
 43
12052.43242026259
 44
759.4079998887937
 45
10.95204383447483
 46
0.0000798601498432
 79
     2
 49
7.399774995313283
 49
-4560.119085052519
 53
83.25300000000003
 43
12052.43242026259
 44
722.5309012867219
 45
10.95204383447483
 46
0.0000798601498432
 79
     2
 49
7.399774995313283
 49
-4560.119085052519
 53
83.25300000000003
 43
12052.43242026259
 44
685.6538026846501
 45
10.95204383447483
 46
0.0000798601498432
 79
     2
 49
7.399774995313283
 49
-4560.119085052519
 53
83.25300000000003
 43
12052.43242026259
 44
648.7767040825783
 45
10.95204383447483
 46
0.0000798601498432
 79
     2
 49
7.399774995313283
 49
-4560.119085052519
 53
83.25300000000003
 43
12052.43242026259
 44
611.8996054805066
 45
10.95204383447483
 46
0.0000798601498432
 79
     2
 49
7.399774995313283
 49
-4560.119085052519
 53
83.25300000000003
 43
12052.43242026259
 44
575.0225068784384
 45
10.95204383447483
 46
0.0000798601498432
 79
     2
 49
7.399774995313283
 49
-4560.119085052519
 53
83.25300000000003
 43
12052.43242026259
 44
538.1454082763666
 45
10.95204383447483
 46
0.0000798601498432
 79
     2
 49
7.399774995313283
 49
-4560.119085052519
 53
83.25300000000003
 43
12052.43242026259
 44
501.2683096742948
 45
10.95204383447483
 46
0.0000798601498432
 79
     2
 49
7.399774995313283
 49
-4560.119085052519
 53
83.25300000000003
 43
12052.43242026259
 44
464.3912110722194
 45
10.95204383447483
 46
0.0000798601498432
 79
     2
 49
7.399774995313283
 49
-4560.119085052519
 53
83.25300000000003
 43
12052.43242026259
 44
427.5141124701512
 45
10.95204383447483
 46
0.0000798601498432
 79
     2
 49
7.399774995313283
 49
-4560.119085052519
 53
83.25300000000003
 43
12052.43242026259
 44
390.6370138680759
 45
10.95204383447483
 46
0.0000798601498432
 79
     2
 49
7.399774995313283
 49
-4560.119085052519
 53
83.25300000000003
 43
12052.43242026259
 44
353.7599152660078
 45
10.95204383447483
 46
0.0000798601498432
 79
     2
 49
7.399774995313283
 49
-4560.119085052519
 53
83.25300000000003
 43
12052.43242026259
 44
316.882816663936
 45
10.95204383447483
 46
0.0000798601498432
 79
     2
 49
7.399774995313283
 49
-4560.119085052519
 53
83.25300000000003
 43
12052.43242026259
 44
280.0057180618642
 45
10.95204383447483
 46
0.0000798601498432
 79
     2
 49
7.399774995313283
 49
-4560.119085052519
 53
83.25300000000003
 43
12052.43242026259
 44
243.1286194597924
 45
10.95204383447483
 46
0.0000798601498432
 79
     2
 49
7.399774995313283
 49
-4560.119085052519
 53
83.25300000000003
 43
12052.43242026259
 44
206.2515208577206
 45
10.95204383447483
 46
0.0000798601498432
 79
     2
 49
7.399774995313283
 49
-4560.119085052519
 53
83.25300000000003
 43
12052.43242026259
 44
169.3744222556488
 45
10.95204383447483
 46
0.0000798601498432
 79
     2
 49
7.399774995313283
 49
-4560.119085052519
 53
83.25300000000003
 43
12052.43242026259
 44
132.497323653577
 45
10.95204383447483
 46
0.0000798601498432
 79
     2
 49
7.399774995313283
 49
-4560.119085052519
 53
83.25300000000003
 43
12052.43242026259
 44
95.6202250515089
 45
10.95204383447483
 46
0.0000798601498432
 79
     2
 49
7.399774995313283
 49
-4560.119085052519
 53
83.25300000000003
 43
12052.43242026259
 44
58.74312644943348
 45
10.95204383447483
 46
0.0000798601498432
 79
     2
 49
7.399774995313283
 49
-4560.119085052519
 53
83.25300000000003
 43
12052.43242026259
 44
21.86602784736169
 45
10.95204383447483
 46
0.0000798601498432
 79
     2
 49
7.399774995313283
 49
-4560.119085052519
 53
83.25300000000003
 43
12052.43242026259
 44
-15.01107075471009
 45
10.95204383447483
 46
0.0000798601498432
 79
     2
 49
7.399774995313283
 49
-4560.119085052519
 53
83.25300000000003
 43
12052.43242026259
 44
-51.88816935678187
 45
10.95204383447483
 46
0.0000798601498432
 79
     2
 49
7.399774995313283
 49
-4560.119085052519
 53
83.25300000000003
 43
12052.43242026259
 44
-88.76526795885002
 45
10.95204383447483
 46
0.0000798601498432
 79
     2
 49
7.399774995313283
 49
-4560.119085052519
 53
83.25300000000003
 43
12052.43242026259
 44
-125.6423665609218
 45
10.95204383447483
 46
0.0000798601498432
 79
     2
 49
7.399774995313283
 49
-4560.119085052519
 53
83.25300000000003
 43
12052.43242026259
 44
-162.5194651629936
 45
10.95204383447483
 46
0.0000798601498432
 79
     2
 49
7.399774995313283
 49
-4560.119085052519
 53
83.25300000000003
 43
12052.43242026259
 44
-199.396563765069
 45
10.95204383447483
 46
0.0000798601498432
 79
     2
 49
7.399774995313283
 49
-4560.119085052519
 53
83.25300000000003
 43
12052.43242026259
 44
-236.2736623671371
 45
10.95204383447483
 46
0.0000798601498432
 79
     2
 49
7.399774995313283
 49
-4560.119085052519
 53
83.25300000000003
 43
12052.43242026259
 44
-273.1507609692126
 45
10.95204383447483
 46
0.0000798601498432
 79
     2
 49
7.399774995313283
 49
-4560.119085052519
 53
83.25300000000003
 43
12052.43242026259
 44
-310.0278595712807
 45
10.95204383447483
 46
0.0000798601498432
 79
     2
 49
7.399774995313283
 49
-4560.119085052519
 53
83.25300000000003
 43
12052.43242026259
 44
-346.9049581733525
 45
10.95204383447483
 46
0.0000798601498432
 79
     2
 49
7.399774995313283
 49
-4560.119085052519
 53
83.25300000000003
 43
12052.43242026259
 44
-383.7820567754243
 45
10.95204383447483
 46
0.0000798601498432
 79
     2
 49
7.399774995313283
 49
-4560.119085052519
 53
83.25300000000003
 43
12052.43242026259
 44
-420.659155377496
 45
10.95204383447483
 46
0.0000798601498432
 79
     2
 49
7.399774995313283
 49
-4560.119085052519
 53
83.25300000000003
 43
12052.43242026259
 44
-457.5362539795678
 45
10.95204383447483
 46
0.0000798601498432
 79
     2
 49
7.399774995313283
 49
-4560.119085052519
 53
83.25300000000003
 43
12052.43242026259
 44
-494.4133525816396
 45
10.95204383447483
 46
0.0000798601498432
 79
     2
 49
7.399774995313283
 49
-4560.119085052519
 53
83.25300000000003
 43
12052.43242026259
 44
-531.2904511837114
 45
10.95204383447483
 46
0.0000798601498432
 79
     2
 49
7.399774995313283
 49
-4560.119085052519
 53
83.25300000000003
 43
12052.43242026259
 44
-568.1675497857831
 45
10.95204383447483
 46
0.0000798601498432
 79
     2
 49
7.399774995313283
 49
-4560.119085052519
 53
83.25300000000003
 43
12052.43242026259
 44
-605.0446483878513
 45
10.95204383447483
 46
0.0000798601498432
 79
     2
 49
7.399774995313283
 49
-4560.119085052519
 53
83.25300000000003
 43
12052.43242026259
 44
-641.9217469899267
 45
10.95204383447483
 46
0.0000798601498432
 79
     2
 49
7.399774995313283
 49
-4560.119085052519
 53
83.25300000000003
 43
12052.43242026259
 44
-678.7988455919985
 45
10.95204383447483
 46
0.0000798601498432
 79
     2
 49
7.399774995313283
 49
-4560.119085052519
 53
83.25300000000003
 43
12052.43242026259
 44
-715.6759441940703
 45
10.95204383447483
 46
0.0000798601498432
 79
     2
 49
7.399774995313283
 49
-4560.119085052519
 53
83.25300000000003
 43
12052.43242026259
 44
-752.5530427961385
 45
10.95204383447483
 46
0.0000798601498432
 79
     2
 49
7.399774995313283
 49
-4560.119085052519
 53
83.25300000000003
 43
12052.43242026259
 44
-789.4301413982102
 45
10.95204383447483
 46
0.0000798601498432
 79
     2
 49
7.399774995313283
 49
-4560.119085052519
 53
83.25300000000003
 43
12052.43242026259
 44
-826.3072400002821
 45
10.95204383447483
 46
0.0000798601498432
 79
     2
 49
7.399774995313283
 49
-4560.119085052519
 53
83.25300000000003
 43
12052.43242026259
 44
-863.1843386023573
 45
10.95204383447483
 46
0.0000798601498432
 79
     2
 49
7.399774995313283
 49
-4560.119085052519
 53
83.25300000000003
 43
12052.43242026259
 44
-900.0614372044255
 45
10.95204383447483
 46
0.0000798601498432
 79
     2
 49
7.399774995313283
 49
-4560.119085052519
 53
83.25300000000003
 43
12052.43242026259
 44
-936.9385358064937
 45
10.95204383447483
 46
0.0000798601498432
 79
     2
 49
7.399774995313283
 49
-4560.119085052519
 53
83.25300000000003
 43
12052.43242026259
 44
-973.8156344085691
 45
10.95204383447483
 46
0.0000798601498432
 79
     2
 49
7.399774995313283
 49
-4560.119085052519
 53
83.25300000000003
 43
12052.43242026259
 44
-1010.692733010641
 45
10.95204383447483
 46
0.0000798601498432
 79
     2
 49
7.399774995313283
 49
-4560.119085052519
 53
83.25300000000003
 43
12052.43242026259
 44
-1047.569831612713
 45
10.95204383447483
 46
0.0000798601498432
 79
     2
 49
7.399774995313283
 49
-4560.119085052519
 53
83.25300000000003
 43
12052.43242026259
 44
-1084.446930214784
 45
10.95204383447483
 46
0.0000798601498432
 79
     2
 49
7.399774995313283
 49
-4560.119085052519
 53
83.25300000000003
 43
12052.43242026259
 44
-1121.324028816856
 45
10.95204383447483
 46
0.0000798601498432
 79
     2
 49
7.399774995313283
 49
-4560.119085052519
 53
83.25300000000003
 43
12052.43242026259
 44
-1158.201127418927
 45
10.95204383447483
 46
0.0000798601498432
 79
     2
 49
7.399774995313283
 49
-4560.119085052519
 53
83.25300000000003
 43
12052.43242026259
 44
-1195.078226020999
 45
10.95204383447483
 46
0.0000798601498432
 79
     2
 49
7.399774995313283
 49
-4560.119085052519
 53
83.25300000000003
 43
12052.43242026259
 44
-1231.955324623071
 45
10.95204383447483
 46
0.0000798601498432
 79
     2
 49
7.399774995313283
 49
-4560.119085052519
 53
83.25300000000003
 43
12052.43242026259
 44
-1268.832423225139
 45
10.95204383447483
 46
0.0000798601498432
 79
     2
 49
7.399774995313283
 49
-4560.119085052519
 53
83.25300000000003
 43
12052.43242026259
 44
-1305.709521827214
 45
10.95204383447483
 46
0.0000798601498432
 79
     2
 49
7.399774995313283
 49
-4560.119085052519
 53
83.25300000000003
 43
12052.43242026259
 44
-1342.586620429286
 45
10.95204383447483
 46
0.0000798601498432
 79
     2
 49
7.399774995313283
 49
-4560.119085052519
 53
83.25300000000003
 43
12052.43242026259
 44
-1379.463719031354
 45
10.95204383447483
 46
0.0000798601498432
 79
     2
 49
7.399774995313283
 49
-4560.119085052519
 53
83.25300000000003
 43
12052.43242026259
 44
-1416.340817633426
 45
10.95204383447483
 46
0.0000798601498432
 79
     2
 49
7.399774995313283
 49
-4560.119085052519
 53
83.25300000000003
 43
12052.43242026259
 44
-1453.217916235498
 45
10.95204383447483
 46
0.0000798601498432
 79
     2
 49
7.399774995313283
 49
-4560.119085052519
 53
83.25300000000003
 43
12052.43242026259
 44
-1490.098292801892
 45
10.95204383447483
 46
0.0000798601498432
 79
     2
 49
7.399774995313283
 49
-4560.119085052519
 53
83.25300000000003
 43
12052.43242026259
 44
-1526.975391403964
 45
10.95204383447483
 46
0.0000798601498432
 79
     2
 49
7.399774995313283
 49
-4560.119085052519
 53
83.25300000000003
 43
12052.43242026259
 44
-1563.852490006035
 45
10.95204383447483
 46
0.0000798601498432
 79
     2
 49
7.399774995313283
 49
-4560.119085052519
 53
83.25300000000003
 43
12052.43242026259
 44
-1600.729588608104
 45
10.95204383447483
 46
0.0000798601498432
 79
     2
 49
7.399774995313283
 49
-4560.119085052519
 53
83.25300000000003
 43
12052.43242026259
 44
-1637.606687210175
 45
10.95204383447483
 46
0.0000798601498432
 79
     2
 49
7.399774995313283
 49
-4560.119085052519
 53
83.25300000000003
 43
12052.43242026259
 44
-1674.483785812251
 45
10.95204383447483
 46
0.0000798601498432
 79
     2
 49
7.399774995313283
 49
-4560.119085052519
 53
83.25300000000003
 43
12052.43242026259
 44
-1711.360884414323
 45
10.95204383447483
 46
0.0000798601498432
 79
     2
 49
7.399774995313283
 49
-4560.119085052519
 53
83.25300000000003
 43
12052.43242026259
 44
-1748.237983016394
 45
10.95204383447483
 46
0.0000798601498432
 79
     2
 49
7.399774995313283
 49
-4560.119085052519
 53
83.25300000000003
 43
12052.43242026259
 44
-1785.115081618466
 45
10.95204383447483
 46
0.0000798601498432
 79
     2
 49
7.399774995313283
 49
-4560.119085052519
 53
83.25300000000003
 43
12052.43242026259
 44
-1821.992180220534
 45
10.95204383447483
 46
0.0000798601498432
 79
     2
 49
7.399774995313283
 49
-4560.119085052519
 53
83.25300000000003
 43
12052.43242026259
 44
-1858.869278822606
 45
10.95204383447483
 46
0.0000798601498432
 79
     2
 49
7.399774995313283
 49
-4560.119085052519
 53
83.25300000000003
 43
12052.43242026259
 44
-1895.746377424682
 45
10.95204383447483
 46
0.0000798601498432
 79
     2
 49
7.399774995313283
 49
-4560.119085052519
 53
83.25300000000003
 43
12052.43242026259
 44
-1932.62347602675
 45
10.95204383447483
 46
0.0000798601498432
 79
     2
 49
7.399774995313283
 49
-4560.119085052519
 53
83.25300000000003
 43
12052.43242026259
 44
-1969.500574628822
 45
10.95204383447483
 46
0.0000798601498432
 79
     2
 49
7.399774995313283
 49
-4560.119085052519
 53
83.25300000000003
 43
12052.43242026259
 44
-2006.377673230893
 45
10.95204383447483
 46
0.0000798601498432
 79
     2
 49
7.399774995313283
 49
-4560.119085052519
 53
83.25300000000003
 43
12052.43242026259
 44
-2043.254771832965
 45
10.95204383447483
 46
0.0000798601498432
 79
     2
 49
7.399774995313283
 49
-4560.119085052519
 53
83.25300000000003
 43
12052.43242026259
 44
-2080.131870435037
 45
10.95204383447483
 46
0.0000798601498432
 79
     2
 49
7.399774995313283
 49
-4560.119085052519
 53
83.25300000000003
 43
12052.43242026259
 44
-2117.008969037109
 45
10.95204383447483
 46
0.0000798601498432
 79
     2
 49
7.399774995313283
 49
-4560.119085052519
 53
83.25300000000003
 43
12052.43242026259
 44
-2153.886067639181
 45
10.95204383447483
 46
0.0000798601498432
 79
     2
 49
7.399774995313283
 49
-4560.119085052519
 53
83.25300000000003
 43
12052.43242026259
 44
-2190.763166241252
 45
10.95204383447483
 46
0.0000798601498432
 79
     2
 49
7.399774995313283
 49
-4560.119085052519
 53
83.25300000000003
 43
12052.43242026259
 44
-2227.640264843328
 45
10.95204383447483
 46
0.0000798601498432
 79
     2
 49
7.399774995313283
 49
-4560.119085052519
 53
83.25300000000003
 43
12052.43242026259
 44
-2264.517363445396
 45
10.95204383447483
 46
0.0000798601498432
 79
     2
 49
7.399774995313283
 49
-4560.119085052519
 53
83.25300000000003
 43
12052.43242026259
 44
-2301.394462047468
 45
10.95204383447483
 46
0.0000798601498432
 79
     2
 49
7.399774995313283
 49
-4560.119085052519
 53
83.25300000000003
 43
12052.43242026259
 44
-2338.271560649539
 45
10.95204383447483
 46
0.0000798601498432
 79
     2
 49
7.399774995313283
 49
-4560.119085052519
 53
83.25300000000003
 43
12052.43242026259
 44
-2375.148659251611
 45
10.95204383447483
 46
0.0000798601498432
 79
     2
 49
7.399774995313283
 49
-4560.119085052519
 53
83.25300000000003
 43
12052.43242026259
 44
-2412.025757853683
 45
10.95204383447483
 46
0.0000798601498432
 79
     2
 49
7.399774995313283
 49
-4560.119085052519
 53
83.25300000000003
 43
12052.43242026259
 44
-2448.902856455755
 45
10.95204383447483
 46
0.0000798601498432
 79
     2
 49
7.399774995313283
 49
-4560.119085052519
 53
83.25300000000003
 43
12052.43242026259
 44
-2485.779955057823
 45
10.95204383447483
 46
0.0000798601498432
 79
     2
 49
7.399774995313283
 49
-4560.119085052519
 53
83.25300000000003
 43
12052.43242026259
 44
-2522.657053659895
 45
10.95204383447483
 46
0.0000798601498432
 79
     2
 49
7.399774995313283
 49
-4560.119085052519
 53
83.25300000000003
 43
12052.43242026259
 44
-2559.53415226197
 45
10.95204383447483
 46
0.0000798601498432
 79
     2
 49
7.399774995313283
 49
-4560.119085052519
 53
83.25300000000003
 43
12052.43242026259
 44
-2596.411250864039
 45
10.95204383447483
 46
0.0000798601498432
 79
     2
 49
7.399774995313283
 49
-4560.119085052519
 53
83.25300000000003
 43
12052.43242026259
 44
-2633.28834946611
 45
10.95204383447483
 46
0.0000798601498432
 79
     2
 49
7.399774995313283
 49
-4560.119085052519
 53
83.25300000000003
 43
12052.43242026259
 44
-2670.165448068182
 45
10.95204383447483
 46
0.0000798601498432
 79
     2
 49
7.399774995313283
 49
-4560.119085052519
 53
83.25300000000003
 43
12052.43242026259
 44
-2707.042546670254
 45
10.95204383447483
 46
0.0000798601498432
 79
     2
 49
7.399774995313283
 49
-4560.119085052519
 53
74.89100000000004
 43
12050.82897123573
 44
1788.451799606267
 45
10.95202665113163
 46
-0.000003043705463
 79
     2
 49
3.63896653076602
 49
-416.5337124354707
 53
74.89100000000004
 43
12050.82897123573
 44
1751.574701004192
 45
10.95202665113163
 46
-0.000003043705463
 79
     2
 49
3.63896653076602
 49
-416.5337124354707
 53
74.89100000000004
 43
12050.82897123573
 44
1714.697602402124
 45
10.95202665113163
 46
-0.000003043705463
 79
     2
 49
3.63896653076602
 49
-416.5337124354707
 53
74.89100000000004
 43
12050.82897123573
 44
1677.820503800048
 45
10.95202665113163
 46
-0.000003043705463
 79
     2
 49
3.63896653076602
 49
-416.5337124354707
 53
74.89100000000004
 43
12050.82897123573
 44
1640.943405197981
 45
10.95202665113163
 46
-0.000003043705463
 79
     2
 49
3.63896653076602
 49
-416.5337124354707
 53
74.89100000000004
 43
12050.82897123573
 44
1604.066306595905
 45
10.95202665113163
 46
-0.000003043705463
 79
     2
 49
3.63896653076602
 49
-416.5337124354707
 53
74.89100000000004
 43
12050.82897123573
 44
1567.189207993837
 45
10.95202665113163
 46
-0.000003043705463
 79
     2
 49
3.63896653076602
 49
-416.5337124354707
 53
74.89100000000004
 43
12050.82897123573
 44
1530.312109391761
 45
10.95202665113163
 46
-0.000003043705463
 79
     2
 49
3.63896653076602
 49
-416.5337124354707
 53
74.89100000000004
 43
12050.82897123573
 44
1493.435994178992
 45
10.95202665113163
 46
-0.000003043705463
 79
     2
 49
3.63896653076602
 49
-416.5337124354707
 53
74.89100000000004
 43
12050.82897123573
 44
1456.558895576916
 45
10.95202665113163
 46
-0.000003043705463
 79
     2
 49
3.63896653076602
 49
-416.5337124354707
 53
74.89100000000004
 43
12050.82897123573
 44
1419.681796974848
 45
10.95202665113163
 46
-0.000003043705463
 79
     2
 49
3.63896653076602
 49
-416.5337124354707
 53
67.06200000000002
 43
12053.30347372139
 44
1799.31362939798
 45
10.95204222691618
 46
0.0000810236171289
 79
     2
 49
8.386475035331908
 49
-1593.356600854788
 53
67.06200000000002
 43
12053.30347372139
 44
1762.436563575557
 45
10.95204222691618
 46
0.0000810236171289
 79
     2
 49
8.386475035331908
 49
-1593.356600854788
 53
67.06200000000002
 43
12053.30347372139
 44
1725.559464973488
 45
10.95204222691618
 46
0.0000810236171289
 79
     2
 49
8.386475035331908
 49
-1593.356600854788
 53
67.06200000000002
 43
12053.30347372139
 44
1688.682366371413
 45
10.95204222691618
 46
0.0000810236171289
 79
     2
 49
8.386475035331908
 49
-1593.356600854788
 53
67.06200000000002
 43
12053.30347372139
 44
1651.805267769337
 45
10.95204222691618
 46
0.0000810236171289
 79
     2
 49
8.386475035331908
 49
-1593.356600854788
 53
67.06200000000002
 43
12053.30347372139
 44
1614.928169167269
 45
10.95204222691618
 46
0.0000810236171289
 79
     2
 49
8.386475035331908
 49
-1593.356600854788
 53
67.06200000000002
 43
12053.30347372139
 44
1578.051070565201
 45
10.95204222691618
 46
0.0000810236171289
 79
     2
 49
8.386475035331908
 49
-1593.356600854788
 53
67.06200000000002
 43
12053.30347372139
 44
1541.173971963126
 45
10.95204222691618
 46
0.0000810236171289
 79
     2
 49
8.386475035331908
 49
-1593.356600854788
 53
67.06200000000002
 43
12053.30347372139
 44
1504.296873361058
 45
10.95204222691618
 46
0.0000810236171289
 79
     2
 49
8.386475035331908
 49
-1593.356600854788
 53
67.06200000000002
 43
12053.30347372139
 44
1467.418791369684
 45
10.95204222691618
 46
0.0000810236171289
 79
     2
 49
8.386475035331908
 49
-1593.356600854788
 53
67.06200000000002
 43
12053.30347372139
 44
1430.541692767616
 45
10.95204222691618
 46
0.0000810236171289
 79
     2
 49
8.386475035331908
 49
-1593.356600854788
 53
67.06200000000002
 43
12053.30347372139
 44
1393.664594165541
 45
10.95204222691618
 46
0.0000810236171289
 79
     2
 49
8.386475035331908
 49
-1593.356600854788
 53
67.06200000000002
 43
12053.30347372139
 44
1356.787495563472
 45
10.95204222691618
 46
0.0000810236171289
 79
     2
 49
8.386475035331908
 49
-1593.356600854788
 53
67.06200000000002
 43
12053.30347372139
 44
1319.910396961404
 45
10.95204222691618
 46
0.0000810236171289
 79
     2
 49
8.386475035331908
 49
-1593.356600854788
 53
67.06200000000002
 43
12053.30347372139
 44
1283.033298359329
 45
10.95204222691618
 46
0.0000810236171289
 79
     2
 49
8.386475035331908
 49
-1593.356600854788
 53
67.06200000000002
 43
12053.30347372139
 44
1246.15619975726
 45
10.95204222691618
 46
0.0000810236171289
 79
     2
 49
8.386475035331908
 49
-1593.356600854788
 53
67.06200000000002
 43
12053.30347372139
 44
1209.279101155185
 45
10.95204222691618
 46
0.0000810236171289
 79
     2
 49
8.386475035331908
 49
-1593.356600854788
 53
67.06200000000002
 43
12053.30347372139
 44
1172.40200255311
 45
10.95204222691618
 46
0.0000810236171289
 79
     2
 49
8.386475035331908
 49
-1593.356600854788
 53
67.06200000000002
 43
12053.30347372139
 44
1135.524903951042
 45
10.95204222691618
 46
0.0000810236171289
 79
     2
 49
8.386475035331908
 49
-1593.356600854788
 53
67.06200000000002
 43
12053.30347372139
 44
1098.647805348973
 45
10.95204222691618
 46
0.0000810236171289
 79
     2
 49
8.386475035331908
 49
-1593.356600854788
 53
67.06200000000002
 43
12053.30347372139
 44
1061.770706746898
 45
10.95204222691618
 46
0.0000810236171289
 79
     2
 49
8.386475035331908
 49
-1593.356600854788
 53
67.06200000000002
 43
12053.30347372139
 44
1024.89360814483
 45
10.95204222691618
 46
0.0000810236171289
 79
     2
 49
8.386475035331908
 49
-1593.356600854788
 53
67.06200000000002
 43
12053.30347372139
 44
988.0165095427546
 45
10.95204222691618
 46
0.0000810236171289
 79
     2
 49
8.386475035331908
 49
-1593.356600854788
 53
67.06200000000002
 43
12053.30347372139
 44
951.1394109406865
 45
10.95204222691618
 46
0.0000810236171289
 79
     2
 49
8.386475035331908
 49
-1593.356600854788
 53
67.06200000000002
 43
12053.30347372139
 44
914.2623123386183
 45
10.95204222691618
 46
0.0000810236171289
 79
     2
 49
8.386475035331908
 49
-1593.356600854788
 53
67.06200000000002
 43
12053.30347372139
 44
877.3852137365429
 45
10.95204222691618
 46
0.0000810236171289
 79
     2
 49
8.386475035331908
 49
-1593.356600854788
 53
67.06200000000002
 43
12053.30347372139
 44
840.5081151344674
 45
10.95204222691618
 46
0.0000810236171289
 79
     2
 49
8.386475035331908
 49
-1593.356600854788
 53
67.06200000000002
 43
12053.30347372139
 44
803.6310165323993
 45
10.95204222691618
 46
0.0000810236171289
 79
     2
 49
8.386475035331908
 49
-1593.356600854788
 53
67.06200000000002
 43
12053.30347372139
 44
766.7539179303275
 45
10.95204222691618
 46
0.0000810236171289
 79
     2
 49
8.386475035331908
 49
-1593.356600854788
 53
67.06200000000002
 43
12053.30347372139
 44
729.8768193282557
 45
10.95204222691618
 46
0.0000810236171289
 79
     2
 49
8.386475035331908
 49
-1593.356600854788
 53
67.06200000000002
 43
12053.30347372139
 44
692.9997207261804
 45
10.95204222691618
 46
0.0000810236171289
 79
     2
 49
8.386475035331908
 49
-1593.356600854788
 53
67.06200000000002
 43
12053.30347372139
 44
656.1226221241122
 45
10.95204222691618
 46
0.0000810236171289
 79
     2
 49
8.386475035331908
 49
-1593.356600854788
 53
67.06200000000002
 43
12053.30347372139
 44
619.2455235220404
 45
10.95204222691618
 46
0.0000810236171289
 79
     2
 49
8.386475035331908
 49
-1593.356600854788
 53
67.06200000000002
 43
12053.30347372139
 44
582.3684249199686
 45
10.95204222691618
 46
0.0000810236171289
 79
     2
 49
8.386475035331908
 49
-1593.356600854788
 53
67.06200000000002
 43
12053.30347372139
 44
545.4913263178968
 45
10.95204222691618
 46
0.0000810236171289
 79
     2
 49
8.386475035331908
 49
-1593.356600854788
 53
67.06200000000002
 43
12053.30347372139
 44
508.6142277158251
 45
10.95204222691618
 46
0.0000810236171289
 79
     2
 49
8.386475035331908
 49
-1593.356600854788
 53
67.06200000000002
 43
12053.30347372139
 44
471.7371291137533
 45
10.95204222691618
 46
0.0000810236171289
 79
     2
 49
8.386475035331908
 49
-1593.356600854788
 53
67.06200000000002
 43
12053.30347372139
 44
434.8600305116852
 45
10.95204222691618
 46
0.0000810236171289
 79
     2
 49
8.386475035331908
 49
-1593.356600854788
 53
67.06200000000002
 43
12053.30347372139
 44
397.9829319096134
 45
10.95204222691618
 46
0.0000810236171289
 79
     2
 49
8.386475035331908
 49
-1593.356600854788
 53
67.06200000000002
 43
12053.30347372139
 44
361.105833307538
 45
10.95204222691618
 46
0.0000810236171289
 79
     2
 49
8.386475035331908
 49
-1593.356600854788
 53
52.43499999999998
 43
12046.77518979311
 44
1815.051365556694
 45
10.95203172552474
 46
-0.000054871588512
 79
     2
 49
4.503300162712174
 49
-1809.889024393906
 53
52.43499999999998
 43
12046.77518979311
 44
1778.174398073195
 45
10.95203172552474
 46
-0.000054871588512
 79
     2
 49
4.503300162712174
 49
-1809.889024393906
 53
52.43499999999998
 43
12046.77518979311
 44
1741.29729947112
 45
10.95203172552474
 46
-0.000054871588512
 79
     2
 49
4.503300162712174
 49
-1809.889024393906
 53
52.43499999999998
 43
12046.77518979311
 44
1704.420200869044
 45
10.95203172552474
 46
-0.000054871588512
 79
     2
 49
4.503300162712174
 49
-1809.889024393906
 53
52.43499999999998
 43
12046.77518979311
 44
1667.543102266976
 45
10.95203172552474
 46
-0.000054871588512
 79
     2
 49
4.503300162712174
 49
-1809.889024393906
 53
52.43499999999998
 43
12046.77518979311
 44
1630.666003664908
 45
10.95203172552474
 46
-0.000054871588512
 79
     2
 49
4.503300162712174
 49
-1809.889024393906
 53
52.43499999999998
 43
12046.77518979311
 44
1593.78890506284
 45
10.95203172552474
 46
-0.000054871588512
 79
     2
 49
4.503300162712174
 49
-1809.889024393906
 53
52.43499999999998
 43
12046.77518979311
 44
1556.911806460765
 45
10.95203172552474
 46
-0.000054871588512
 79
     2
 49
4.503300162712174
 49
-1809.889024393906
 53
52.43499999999998
 43
12046.77518979311
 44
1520.034707858689
 45
10.95203172552474
 46
-0.000054871588512
 79
     2
 49
4.503300162712174
 49
-1809.889024393906
 53
52.43499999999998
 43
12046.77518979311
 44
1483.156298070888
 45
10.95203172552474
 46
-0.000054871588512
 79
     2
 49
4.503300162712174
 49
-1809.889024393906
 53
52.43499999999998
 43
12046.77518979311
 44
1446.279199468819
 45
10.95203172552474
 46
-0.000054871588512
 79
     2
 49
4.503300162712174
 49
-1809.889024393906
 53
52.43499999999998
 43
12046.77518979311
 44
1409.402100866751
 45
10.95203172552474
 46
-0.000054871588512
 79
     2
 49
4.503300162712174
 49
-1809.889024393906
 53
52.43499999999998
 43
12046.77518979311
 44
1372.525002264676
 45
10.95203172552474
 46
-0.000054871588512
 79
     2
 49
4.503300162712174
 49
-1809.889024393906
 53
52.43499999999998
 43
12046.77518979311
 44
1335.6479036626
 45
10.95203172552474
 46
-0.000054871588512
 79
     2
 49
4.503300162712174
 49
-1809.889024393906
 53
52.43499999999998
 43
12046.77518979311
 44
1298.770805060532
 45
10.95203172552474
 46
-0.000054871588512
 79
     2
 49
4.503300162712174
 49
-1809.889024393906
 53
52.43499999999998
 43
12046.77518979311
 44
1261.893706458464
 45
10.95203172552474
 46
-0.000054871588512
 79
     2
 49
4.503300162712174
 49
-1809.889024393906
 53
52.43499999999998
 43
12046.77518979311
 44
1225.016607856389
 45
10.95203172552474
 46
-0.000054871588512
 79
     2
 49
4.503300162712174
 49
-1809.889024393906
 53
52.43499999999998
 43
12046.77518979311
 44
1188.13950925432
 45
10.95203172552474
 46
-0.000054871588512
 79
     2
 49
4.503300162712174
 49
-1809.889024393906
 53
52.43499999999998
 43
12046.77518979311
 44
1151.262410652245
 45
10.95203172552474
 46
-0.000054871588512
 79
     2
 49
4.503300162712174
 49
-1809.889024393906
 53
52.43499999999998
 43
12046.77518979311
 44
1114.385312050177
 45
10.95203172552474
 46
-0.000054871588512
 79
     2
 49
4.503300162712174
 49
-1809.889024393906
 53
52.43499999999998
 43
12046.77518979311
 44
1077.508213448109
 45
10.95203172552474
 46
-0.000054871588512
 79
     2
 49
4.503300162712174
 49
-1809.889024393906
 53
52.43499999999998
 43
12046.77518979311
 44
1040.631114846033
 45
10.95203172552474
 46
-0.000054871588512
 79
     2
 49
4.503300162712174
 49
-1809.889024393906
 53
52.43499999999998
 43
12046.77518979311
 44
1003.754016243958
 45
10.95203172552474
 46
-0.000054871588512
 79
     2
 49
4.503300162712174
 49
-1809.889024393906
 53
52.43499999999998
 43
12046.77518979311
 44
966.87691764189
 45
10.95203172552474
 46
-0.000054871588512
 79
     2
 49
4.503300162712174
 49
-1809.889024393906
 53
52.43499999999998
 43
12046.77518979311
 44
929.9998190398145
 45
10.95203172552474
 46
-0.000054871588512
 79
     2
 49
4.503300162712174
 49
-1809.889024393906
 53
52.43499999999998
 43
12046.77518979311
 44
893.1227204377464
 45
10.95203172552474
 46
-0.000054871588512
 79
     2
 49
4.503300162712174
 49
-1809.889024393906
 53
52.43499999999998
 43
12046.77518979311
 44
856.2456218356711
 45
10.95203172552474
 46
-0.000054871588512
 79
     2
 49
4.503300162712174
 49
-1809.889024393906
 53
52.43499999999998
 43
12046.77518979311
 44
819.3685232336029
 45
10.95203172552474
 46
-0.000054871588512
 79
     2
 49
4.503300162712174
 49
-1809.889024393906
 53
52.43499999999998
 43
12046.77518979311
 44
782.491424631531
 45
10.95203172552474
 46
-0.000054871588512
 79
     2
 49
4.503300162712174
 49
-1809.889024393906
 53
52.43499999999998
 43
12046.77518979311
 44
745.6143260294593
 45
10.95203172552474
 46
-0.000054871588512
 79
     2
 49
4.503300162712174
 49
-1809.889024393906
 53
52.43499999999998
 43
12046.77518979311
 44
708.7372274273875
 45
10.95203172552474
 46
-0.000054871588512
 79
     2
 49
4.503300162712174
 49
-1809.889024393906
 53
52.43499999999998
 43
12046.77518979311
 44
671.8601288253157
 45
10.95203172552474
 46
-0.000054871588512
 79
     2
 49
4.503300162712174
 49
-1809.889024393906
 53
52.43499999999998
 43
12046.77518979311
 44
634.9830302232476
 45
10.95203172552474
 46
-0.000054871588512
 79
     2
 49
4.503300162712174
 49
-1809.889024393906
 53
52.43499999999998
 43
12046.77518979311
 44
598.1059316211721
 45
10.95203172552474
 46
-0.000054871588512
 79
     2
 49
4.503300162712174
 49
-1809.889024393906
 53
52.43499999999998
 43
12046.77518979311
 44
561.2288330191041
 45
10.95203172552474
 46
-0.000054871588512
 79
     2
 49
4.503300162712174
 49
-1809.889024393906
 53
52.43499999999998
 43
12046.77518979311
 44
524.3517344170286
 45
10.95203172552474
 46
-0.000054871588512
 79
     2
 49
4.503300162712174
 49
-1809.889024393906
 53
52.43499999999998
 43
12046.77518979311
 44
487.4746358149568
 45
10.95203172552474
 46
-0.000054871588512
 79
     2
 49
4.503300162712174
 49
-1809.889024393906
 53
52.43499999999998
 43
12046.77518979311
 44
450.597537212885
 45
10.95203172552474
 46
-0.000054871588512
 79
     2
 49
4.503300162712174
 49
-1809.889024393906
 53
52.43499999999998
 43
12046.77518979311
 44
413.7204386108169
 45
10.95203172552474
 46
-0.000054871588512
 79
     2
 49
4.503300162712174
 49
-1809.889024393906
 53
25.04599999999999
 43
12046.62862053549
 44
1786.489282367776
 45
10.95203652759968
 46
0.0000881814618674
 79
     2
 49
4.636287175181986
 49
-2957.102061108971
 53
25.04599999999999
 43
12046.62862053549
 44
1749.612183765701
 45
10.95203652759968
 46
0.0000881814618674
 79
     2
 49
4.636287175181986
 49
-2957.102061108971
 53
25.04599999999999
 43
12046.62862053549
 44
1712.735085163626
 45
10.95203652759968
 46
0.0000881814618674
 79
     2
 49
4.636287175181986
 49
-2957.102061108971
 53
25.04599999999999
 43
12046.62862053549
 44
1675.857986561557
 45
10.95203652759968
 46
0.0000881814618674
 79
     2
 49
4.636287175181986
 49
-2957.102061108971
 53
25.04599999999999
 43
12046.62862053549
 44
1638.980887959482
 45
10.95203652759968
 46
0.0000881814618674
 79
     2
 49
4.636287175181986
 49
-2957.102061108971
 53
25.04599999999999
 43
12046.62862053549
 44
1602.103789357414
 45
10.95203652759968
 46
0.0000881814618674
 79
     2
 49
4.636287175181986
 49
-2957.102061108971
 53
25.04599999999999
 43
12046.62862053549
 44
1565.226690755346
 45
10.95203652759968
 46
0.0000881814618674
 79
     2
 49
4.636287175181986
 49
-2957.102061108971
 53
25.04599999999999
 43
12046.62862053549
 44
1528.34959215327
 45
10.95203652759968
 46
0.0000881814618674
 79
     2
 49
4.636287175181986
 49
-2957.102061108971
 53
25.04599999999999
 43
12046.62862053549
 44
1491.472493551195
 45
10.95203652759968
 46
0.0000881814618674
 79
     2
 49
4.636287175181986
 49
-2957.102061108971
 53
25.04599999999999
 43
12046.62862053549
 44
1454.595394949127
 45
10.95203652759968
 46
0.0000881814618674
 79
     2
 49
4.636287175181986
 49
-2957.102061108971
 53
25.04599999999999
 43
12046.62862053549
 44
1417.718296347051
 45
10.95203652759968
 46
0.0000881814618674
 79
     2
 49
4.636287175181986
 49
-2957.102061108971
 53
25.04599999999999
 43
12046.62862053549
 44
1380.841197744983
 45
10.95203652759968
 46
0.0000881814618674
 79
     2
 49
4.636287175181986
 49
-2957.102061108971
 53
25.04599999999999
 43
12046.62862053549
 44
1343.964099142915
 45
10.95203652759968
 46
0.0000881814618674
 79
     2
 49
4.636287175181986
 49
-2957.102061108971
 53
25.04599999999999
 43
12046.62862053549
 44
1307.087000540839
 45
10.95203652759968
 46
0.0000881814618674
 79
     2
 49
4.636287175181986
 49
-2957.102061108971
 53
25.04599999999999
 43
12046.62862053549
 44
1270.209901938771
 45
10.95203652759968
 46
0.0000881814618674
 79
     2
 49
4.636287175181986
 49
-2957.102061108971
 53
25.04599999999999
 43
12046.62862053549
 44
1233.332803336696
 45
10.95203652759968
 46
0.0000881814618674
 79
     2
 49
4.636287175181986
 49
-2957.102061108971
 53
25.04599999999999
 43
12046.62862053549
 44
1196.45570473462
 45
10.95203652759968
 46
0.0000881814618674
 79
     2
 49
4.636287175181986
 49
-2957.102061108971
 53
25.04599999999999
 43
12046.62862053549
 44
1159.578606132552
 45
10.95203652759968
 46
0.0000881814618674
 79
     2
 49
4.636287175181986
 49
-2957.102061108971
 53
25.04599999999999
 43
12046.62862053549
 44
1122.701507530484
 45
10.95203652759968
 46
0.0000881814618674
 79
     2
 49
4.636287175181986
 49
-2957.102061108971
 53
25.04599999999999
 43
12046.62862053549
 44
1085.824408928409
 45
10.95203652759968
 46
0.0000881814618674
 79
     2
 49
4.636287175181986
 49
-2957.102061108971
 53
25.04599999999999
 43
12046.62862053549
 44
1048.947310326341
 45
10.95203652759968
 46
0.0000881814618674
 79
     2
 49
4.636287175181986
 49
-2957.102061108971
 53
25.04599999999999
 43
12046.62862053549
 44
1012.070211724265
 45
10.95203652759968
 46
0.0000881814618674
 79
     2
 49
4.636287175181986
 49
-2957.102061108971
 53
25.04599999999999
 43
12046.62862053549
 44
975.1931131221972
 45
10.95203652759968
 46
0.0000881814618674
 79
     2
 49
4.636287175181986
 49
-2957.102061108971
 53
25.04599999999999
 43
12046.62862053549
 44
938.3160145201291
 45
10.95203652759968
 46
0.0000881814618674
 79
     2
 49
4.636287175181986
 49
-2957.102061108971
 53
25.04599999999999
 43
12046.62862053549
 44
901.4389159180536
 45
10.95203652759968
 46
0.0000881814618674
 79
     2
 49
4.636287175181986
 49
-2957.102061108971
 53
25.04599999999999
 43
12046.62862053549
 44
864.5618173159782
 45
10.95203652759968
 46
0.0000881814618674
 79
     2
 49
4.636287175181986
 49
-2957.102061108971
 53
25.04599999999999
 43
12046.62862053549
 44
827.68471871391
 45
10.95203652759968
 46
0.0000881814618674
 79
     2
 49
4.636287175181986
 49
-2957.102061108971
 53
25.04599999999999
 43
12046.62862053549
 44
790.8076201118383
 45
10.95203652759968
 46
0.0000881814618674
 79
     2
 49
4.636287175181986
 49
-2957.102061108971
 53
25.04599999999999
 43
12046.62862053549
 44
753.9305215097665
 45
10.95203652759968
 46
0.0000881814618674
 79
     2
 49
4.636287175181986
 49
-2957.102061108971
 53
25.04599999999999
 43
12046.62862053549
 44
717.0534229076911
 45
10.95203652759968
 46
0.0000881814618674
 79
     2
 49
4.636287175181986
 49
-2957.102061108971
 53
25.04599999999999
 43
12046.62862053549
 44
680.1763243056229
 45
10.95203652759968
 46
0.0000881814618674
 79
     2
 49
4.636287175181986
 49
-2957.102061108971
 53
25.04599999999999
 43
12046.62862053549
 44
643.2992257035512
 45
10.95203652759968
 46
0.0000881814618674
 79
     2
 49
4.636287175181986
 49
-2957.102061108971
 53
25.04599999999999
 43
12046.62862053549
 44
606.4221271014794
 45
10.95203652759968
 46
0.0000881814618674
 79
     2
 49
4.636287175181986
 49
-2957.102061108971
 53
25.04599999999999
 43
12046.62862053549
 44
569.5450284994076
 45
10.95203652759968
 46
0.0000881814618674
 79
     2
 49
4.636287175181986
 49
-2957.102061108971
 53
14.07599999999998
 43
12049.52069633997
 44
1818.6209375828
 45
10.95202660951167
 46
-0.0000805056871684
 79
     2
 49
2.663936043727242
 49
-1058.697838380728
 53
14.07599999999998
 43
12049.52069633997
 44
1781.743773421444
 45
10.95202660951167
 46
-0.0000805056871684
 79
     2
 49
2.663936043727242
 49
-1058.697838380728
 53
14.07599999999998
 43
12049.52069633997
 44
1744.866674819368
 45
10.95202660951167
 46
-0.0000805056871684
 79
     2
 49
2.663936043727242
 49
-1058.697838380728
 53
14.07599999999998
 43
12049.52069633997
 44
1707.9895762173
 45
10.95202660951167
 46
-0.0000805056871684
 79
     2
 49
2.663936043727242
 49
-1058.697838380728
 53
14.07599999999998
 43
12049.52069633997
 44
1671.112477615224
 45
10.95202660951167
 46
-0.0000805056871684
 79
     2
 49
2.663936043727242
 49
-1058.697838380728
 53
14.07599999999998
 43
12049.52069633997
 44
1634.235379013149
 45
10.95202660951167
 46
-0.0000805056871684
 79
     2
 49
2.663936043727242
 49
-1058.697838380728
 53
14.07599999999998
 43
12049.52069633997
 44
1597.358280411081
 45
10.95202660951167
 46
-0.0000805056871684
 79
     2
 49
2.663936043727242
 49
-1058.697838380728
 98
        1
 10
1571.363150554629
 20
655.7563191800909
  0
HATCH
  5
9020
330
67
100
AcDbEntity
  8
F_18 Schr-Holz hell
370
    13
100
AcDbHatch
 10
0.0
 20
0.0
 30
0.0
210
0.0
220
0.0
230
1.0
  2
SOLID
 70
     1
 71
     0
 91
        2
 92
        7
 72
     0
 73
     1
 93
        9
 10
461.8861000455781
 20
356.5382407807483
 10
435.8861000455781
 20
356.5382407807483
 10
434.8861000455781
 20
355.5382407807483
 10
434.8861000455781
 20
330.5382407807483
 10
422.8861000455781
 20
330.5382407807483
 10
421.8861000455781
 20
329.5382407807483
 10
421.8861000455781
 20
318.5382407807483
 10
422.8861000455781
 20
317.5382407807483
 10
461.8861000455781
 20
317.5382407807483
 97
        0
 92
        7
 72
     0
 73
     1
 93
        4
 10
638.7284710880685
 20
356.5382407807483
 10
461.8861000455781
 20
356.5382407807483
 10
461.8861000455781
 20
317.5382407807483
 10
638.7284710880685
 20
317.5382407807483
 97
        0
 75
     0
 76
     1
 47
0.3833587051838309
 98
        2
 10
451.769578013349
 20
348.1216370346556
 10
475.1666093402
 20
347.7382986580597
450
        0
451
        0
460
0.0
461
0.0
452
        1
462
1.0
453
        2
463
0.0
 63
     5
421
      255
463
1.0
 63
     7
421
 16777215
470
LINEAR
1001
ACAD
1010
0.0
1020
0.0
1030
0.0
  0
POLYLINE
  5
9021
330
67
100
AcDbEntity
  8
F_31 Ansichtsfenster
370
    13
100
AcDb2dPolyline
 66
     1
 10
0.0
 20
0.0
 30
0.0
  0
VERTEX
  5
9022
330
9021
100
AcDbEntity
  8
F_31 Ansichtsfenster
370
    13
100
AcDbVertex
100
AcDb2dVertex
 10
638.7284710880685
 20
317.5382407807483
 30
0.0
  0
VERTEX
  5
9023
330
9021
100
AcDbEntity
  8
F_31 Ansichtsfenster
370
    13
100
AcDbVertex
100
AcDb2dVertex
 10
638.7284710880685
 20
675.538240938451
 30
0.0
  0
SEQEND
  5
9024
330
9021
100
AcDbEntity
  8
F_31 Ansichtsfenster
370
    13
  0
MTEXT
  5
9025
330
67
100
AcDbEntity
  8
F_01 sichtbar
370
    13
100
AcDbMText
 10
363.029309861091
 20
265.5178843348112
 30
0.0
 40
15.0
 41
187.1747820159653
 71
     1
 72
     5
  1
\A1;{\fArial Narrow|b0|i0|c0|p34;Deckleiste\PEiche 10/55 mm}
 73
     1
 44
1.0
  0
LINE
  5
9026
330
67
100
AcDbEntity
  8
F_01 sichtbar
370
    13
100
AcDbLine
 10
392.8861081383347
 20
302.5382420422029
 30
0.0
 11
392.8861081383347
 21
269.2153468603501
 31
0.0
  0
SOLID
  5
9027
330
67
100
AcDbEntity
  8
F_01 sichtbar
370
    13
100
AcDbTrace
 10
390.3861081383348
 20
302.5382420422029
 30
0.0
 11
395.3861081383347
 21
302.5382420422029
 31
0.0
 12
392.8861081383347
 22
317.5382420422029
 32
0.0
 13
392.8861081383347
 23
317.5382420422029
 33
0.0
  0
LINE
  5
9028
330
67
100
AcDbEntity
  8
F_01 sichtbar
370
    13
100
AcDbLine
 10
352.1575278960427
 20
648.038240938451
 30
0.0
 11
352.1575278960427
 21
335.0382407807483
 31
0.0
  0
SOLID
  5
9029
330
67
100
AcDbEntity
  8
F_01 sichtbar
370
    13
100
AcDbTrace
 10
349.6575278960427
 20
342.5382407807483
 30
0.0
 11
354.6575278960427
 21
342.5382407807483
 31
0.0
 12
352.1575278960427
 22
327.5382407807483
 32
0.0
 13
352.1575278960427
 23
327.5382407807483
 33
0.0
  0
SOLID
  5
902A
330
67
100
AcDbEntity
  8
F_01 sichtbar
370
    13
100
AcDbTrace
 10
349.6575278960427
 20
640.538240938451
 30
0.0
 11
354.6575278960427
 21
640.538240938451
 31
0.0
 12
352.1575278960427
 22
655.538240938451
 32
0.0
 13
352.1575278960427
 23
655.538240938451
 33
0.0
  0
TEXT
  5
902B
330
67
100
AcDbEntity
  8
F_01 sichtbar
370
    13
100
AcDbText
 10
347.1575278960427
 20
252.2712278836189
 30
0.0
 40
15.0
  1
RH
 50
90.0
  7
Arial
100
AcDbText
  0
LINE
  5
902C
330
67
100
AcDbEntity
  8
F_01 sichtbar
370
    13
100
AcDbLine
 10
303.0690456287321
 20
648.038240938451
 30
0.0
 11
303.0690456287321
 21
133.4502245149269
 31
0.0
  0
SOLID
  5
902D
330
67
100
AcDbEntity
  8
F_01 sichtbar
370
    13
100
AcDbTrace
 10
300.5690456287321
 20
640.538240938451
 30
0.0
 11
305.5690456287321
 21
640.538240938451
 31
0.0
 12
303.0690456287321
 22
655.538240938451
 32
0.0
 13
303.0690456287321
 23
655.538240938451
 33
0.0
  0
LINE
  5
902E
330
67
100
AcDbEntity
  8
F_01 sichtbar
370
    13
100
AcDbLine
 10
352.1575278960427
 20
320.0382407807483
 30
0.0
 11
352.1575278960427
 21
133.4502245149269
 31
0.0
  0
TEXT
  5
902F
330
67
100
AcDbEntity
  8
F_01 sichtbar
370
    13
100
AcDbText
 10
297.685348493671
 20
258.2539202504849
 30
0.0
 40
15.0
  1
C
 50
90.0
  7
Arial
100
AcDbText
  0
SOLID
  5
9030
330
67
100
AcDbEntity
  8
F_01 sichtbar
370
    13
100
AcDbTrace
 10
349.6575278960427
 20
312.5382407807483
 30
0.0
 11
354.6575278960427
 21
312.5382407807483
 31
0.0
 12
352.1575278960427
 22
327.5382407807483
 32
0.0
 13
352.1575278960427
 23
327.5382407807483
 33
0.0
  0
TEXT
  5
9031
330
67
100
AcDbEntity
  8
F_01 sichtbar
370
    13
100
AcDbText
 10
347.1575278960427
 20
488.7210511490994
 30
0.0
 40
15.0
  1
D
 50
90.0
  7
Arial
100
AcDbText
  0
HATCH
  5
9032
330
67
100
AcDbEntity
  8
F_01 sichtbar
370
    13
100
AcDbHatch
 10
0.0
 20
0.0
 30
0.0
210
0.0
220
0.0
230
1.0
  2
JIS_WOOD
 70
     0
 71
     0
 91
        1
 92
        7
 72
     0
 73
     1
 93
       24
 10
447.3861000455708
 20
438.5382407807482
 10
436.3860934616659
 20
438.5382407807482
 10
436.3860934616659
 20
427.5382407807483
 10
432.3860934616659
 20
427.5382407807483
 10
432.3860934616659
 20
438.5382407807482
 10
422.3860934616659
 20
438.5382407807482
 10
422.3860934616659
 20
458.5382407807482
 10
407.3861000455708
 20
458.5382407807482
 10
407.3861001737077
 20
327.5382407807483
 10
419.3861000455708
 20
327.5382407807483
 10
419.3861000455708
 20
330.5382407807483
 10
432.3861000455708
 20
330.5382407807483
 10
433.3861000455708
 20
331.5382407807483
 10
433.3861000455708
 20
335.0382407807483
 10
430.8861000455708
 20
335.0382407807483
 10
430.8861000455708
 20
360.0382407807483
 10
433.3861000455708
 20
360.0382407807483
 10
433.3861000455708
 20
360.5382407807483
 10
438.3861000455708
 20
360.5382407807483
 10
438.3861000455708
 20
368.5382407807483
 10
442.3861000455708
 20
368.5382407807483
 10
442.3861000455708
 20
360.5382407807483
 10
446.3861000455708
 20
360.5382407807483
 10
447.3861000455708
 20
361.5382407807483
 97
        0
 75
     0
 76
     1
 52
0.0
 41
15.0
 77
     0
 78
     1
 53
45.0
 43
-33437.09153592757
 44
-15499.51861636783
 45
-7.499999987414763
 46
7.499999987414764
 79
     0
 47
0.643875846859281
 98
        1
 10
430.1656961633616
 20
412.0424107176949
1001
ACAD
1010
0.0
1020
0.0
1030
0.0
  0
LWPOLYLINE
  5
9033
330
67
100
AcDbEntity
  8
F_01 sichtbar
370
    13
100
AcDbPolyline
 90
       25
 70
     0
 43
0.0
 10
447.3860934616659
 20
438.5382407807482
 10
436.3860934616659
 20
438.5382407807482
 10
436.3860934616659
 20
427.5382407807483
 10
432.3860934616659
 20
427.5382407807483
 10
432.3860934616659
 20
438.5382407807482
 10
422.3860934616659
 20
438.5382407807482
 10
422.3860934616659
 20
458.5382407807482
 10
407.3861000455708
 20
458.5382407807482
 10
407.3861001737077
 20
327.5382407807483
 10
419.3861000455708
 20
327.5382407807483
 10
419.3861000455708
 20
330.5382407807483
 10
432.3861000455708
 20
330.5382407807483
 10
433.3861000455708
 20
331.5382407807483
 10
433.3861000455708
 20
335.0382407807483
 10
430.8861000455708
 20
335.0382407807483
 10
430.8861000455708
 20
360.0382407807483
 10
433.3861000455708
 20
360.0382407807483
 10
433.3861000455708
 20
360.5382407807483
 10
438.3861000455708
 20
360.5382407807483
 10
438.3861000455708
 20
368.5382407807483
 10
442.3861000455708
 20
368.5382407807483
 10
442.3861000455708
 20
360.5382407807483
 10
446.3861000455708
 20
360.5382407807483
 10
447.3861000455708
 20
361.5382407807483
 10
447.3861000455708
 20
438.5382407807482
  0
HATCH
  5
9034
330
67
100
AcDbEntity
  8
F_01 sichtbar
370
    13
100
AcDbHatch
 10
0.0
 20
0.0
 30
0.0
210
0.0
220
0.0
230
1.0
  2
JIS_WOOD
 70
     0
 71
     0
 91
        1
 92
        7
 72
     1
 73
     1
 93
       21
 10
461.8861000455781
 20
356.5382407807483
 42
0.0
 10
442.8861093406576
 20
356.5382407807483
 42
0.0
 10
442.7043078317856
 20
356.3564392336557
 42
0.0
 10
444.0501976231953
 20
355.0105497252116
 42
-2.295511712501344
 10
443.4031470446407
 20
354.667650778134
 42
0.0
 10
441.7550437673544
 20
356.3157537089173
 42
0.4142135623731789
 10
441.613622411116
 20
356.3157536940526
 42
0.0
 10
441.2361098242163
 20
355.9382410277831
 42
0.0
 10
440.3861098242105
 20
355.938240938427
 42
0.0
 10
439.5361098242192
 20
355.9382408490746
 42
0.0
 10
439.0838275795377
 20
356.3905229986667
 42
-0.8501016268507999
 10
438.0990269141821
 20
356.3253235673474
 42
0.0
 10
437.8861096560195
 20
356.5382407807483
 42
0.0
 10
435.8861000455781
 20
356.5382407807483
 42
0.0
 10
434.8861000455781
 20
355.5382407807483
 42
0.0
 10
434.8861000455781
 20
330.5382407807483
 42
0.0
 10
422.8861000455781
 20
330.5382407807483
 42
0.0
 10
421.8861000455781
 20
329.5382407807483
 42
0.0
 10
421.8861000455781
 20
318.5382407807483
 42
0.0
 10
422.8861000455781
 20
317.5382407807483
 42
0.0
 10
461.8861000455781
 20
317.5382407807483
 42
0.0
 97
        0
 75
     0
 76
     1
 52
0.0
 41
15.0
 77
     0
 78
     1
 53
45.0
 43
-33437.09153592757
 44
-15499.51861636783
 45
-7.499999987414763
 46
7.499999987414764
 79
     0
 47
0.316875376217985
 98
        1
 10
445.3684180249601
 20
329.8980077233864
1001
ACAD
1010
0.0
1020
0.0
1030
0.0
  0
POLYLINE
  5
9035
330
67
100
AcDbEntity
  8
F_01 sichtbar
370
    13
100
AcDb2dPolyline
 66
     1
 10
0.0
 20
0.0
 30
0.0
  0
VERTEX
  5
9036
330
9035
100
AcDbEntity
  8
F_01 sichtbar
370
    13
100
AcDbVertex
100
AcDb2dVertex
 10
638.7284710880757
 20
317.5382407807483
 30
0.0
  0
VERTEX
  5
9037
330
9035
100
AcDbEntity
  8
F_01 sichtbar
370
    13
100
AcDbVertex
100
AcDb2dVertex
 10
422.8861000455781
 20
317.5382407807483
 30
0.0
  0
VERTEX
  5
9038
330
9035
100
AcDbEntity
  8
F_01 sichtbar
370
    13
100
AcDbVertex
100
AcDb2dVertex
 10
421.8861000455781
 20
318.5382407807483
 30
0.0
  0
VERTEX
  5
9039
330
9035
100
AcDbEntity
  8
F_01 sichtbar
370
    13
100
AcDbVertex
100
AcDb2dVertex
 10
421.8861000455781
 20
329.5382407807483
 30
0.0
  0
VERTEX
  5
903A
330
9035
100
AcDbEntity
  8
F_01 sichtbar
370
    13
100
AcDbVertex
100
AcDb2dVertex
 10
422.8861000455781
 20
330.5382407807483
 30
0.0
  0
VERTEX
  5
903B
330
9035
100
AcDbEntity
  8
F_01 sichtbar
370
    13
100
AcDbVertex
100
AcDb2dVertex
 10
434.8861000455781
 20
330.5382407807483
 30
0.0
  0
VERTEX
  5
903C
330
9035
100
AcDbEntity
  8
F_01 sichtbar
370
    13
100
AcDbVertex
100
AcDb2dVertex
 10
434.8861000455781
 20
355.5382407807483
 30
0.0
  0
VERTEX
  5
903D
330
9035
100
AcDbEntity
  8
F_01 sichtbar
370
    13
100
AcDbVertex
100
AcDb2dVertex
 10
435.8861000455781
 20
356.5382407807483
 30
0.0
  0
VERTEX
  5
903E
330
9035
100
AcDbEntity
  8
F_01 sichtbar
370
    13
100
AcDbVertex
100
AcDb2dVertex
 10
638.728471088083
 20
356.5382407807483
 30
0.0
  0
SEQEND
  5
903F
330
9035
100
AcDbEntity
  8
F_01 sichtbar
370
    13
  0
HATCH
  5
9040
330
67
100
AcDbEntity
  8
F_01 sichtbar
370
    13
100
AcDbHatch
 10
0.0
 20
0.0
 30
0.0
210
0.0
220
0.0
230
1.0
  2
JIS_WOOD
 70
     0
 71
     0
 91
        1
 92
        7
 72
     1
 73
     1
 93
        5
 10
419.3861000455708
 20
327.5382407807483
 42
0.0
 10
364.3861000455709
 20
327.5382407807483
 42
0.0
 10
364.3861000455709
 20
319.5382407807483
 42
0.4142135623730951
 10
366.3861000455709
 20
317.5382407807483
 42
0.0
 10
419.3861000455708
 20
317.5382407807483
 42
0.0
 97
        0
 75
     0
 76
     1
 52
90.0
 41
15.0
 77
     0
 78
     1
 53
135.0
 43
-33437.09153592757
 44
-15499.51861636783
 45
-7.499999987414764
 46
-7.499999987414762
 79
     0
 47
0.1490451892715378
 98
        1
 10
390.8214351880797
 20
322.5683008507985
1001
ACAD
1010
0.0
1020
0.0
1030
0.0
  0
LWPOLYLINE
  5
9041
330
67
100
AcDbEntity
  8
F_01 sichtbar
370
    13
100
AcDbPolyline
 90
        5
 70
     1
 43
0.0
 10
364.3861000455709
 20
327.5382407807483
 10
364.3861000455709
 20
319.5382407807483
 42
0.4142135623730951
 10
366.3861000455709
 20
317.5382407807483
 10
419.3861000455708
 20
317.5382407807483
 10
419.3861000455708
 20
327.5382407807483
  0
HATCH
  5
9042
330
67
100
AcDbEntity
  8
F_11 Schraffur
370
    13
100
AcDbHatch
 10
0.0
 20
0.0
 30
0.0
210
0.0
220
0.0
230
1.0
  2
SOLID
 70
     1
 71
     0
 91
        1
 92
        7
 72
     0
 73
     1
 93
        4
 10
433.3861000455708
 20
360.0382407807483
 10
430.8861000455781
 20
360.0382407807483
 10
430.8861000455781
 20
335.0382407807483
 10
433.3861000455781
 20
335.0382407807483
 97
        0
 75
     0
 76
     1
 47
0.1231602943269245
 98
        1
 10
432.4479578818409
 20
351.7090209280868
450
        0
451
        0
460
0.0
461
0.0
452
        1
462
1.0
453
        2
463
0.0
 63
     5
421
      255
463
1.0
 63
     7
421
 16777215
470
LINEAR
1001
ACAD
1010
0.0
1020
0.0
1030
0.0
  0
LWPOLYLINE
  5
9043
330
67
100
AcDbEntity
  8
F_01 sichtbar
370
    13
100
AcDbPolyline
 90
        5
 70
     0
 43
0.0
 10
430.8861000455708
 20
360.0382407807483
 10
433.3861000455708
 20
360.0382407807483
 10
433.3861000455708
 20
335.0382407807483
 10
430.8861000455708
 20
335.0382407807483
 10
430.8861000455708
 20
360.0382407807483
  0
LWPOLYLINE
  5
9044
330
67
100
AcDbEntity
  8
F_01 sichtbar
370
    13
100
AcDbPolyline
 90
       59
 70
     1
 43
0.0
 10
442.7043078317856
 20
356.3564392336557
 10
444.0501976231953
 20
355.0105497252116
 42
-2.295511712501342
 10
443.4031470446407
 20
354.667650778134
 10
441.7550437673544
 20
356.3157537089173
 42
0.4142135623730925
 10
441.613622411116
 20
356.3157536940526
 10
441.2361098242163
 20
355.9382410277831
 10
440.3861098242105
 20
355.938240938427
 10
439.5361098242192
 20
355.9382408490746
 10
439.0838275795377
 20
356.3905229986667
 42
-0.8501016268507996
 10
438.0990269141821
 20
356.3253235673474
 10
434.8861094457734
 20
359.5382403602598
 10
434.8861092880961
 20
361.0382403602598
 10
435.3128860282577
 20
360.611463709829
 42
0.198912367379658
 10
435.4896627312464
 20
360.5382404237062
 10
438.3530966387679
 20
360.5382407247162
 42
0.1316524975873961
 10
438.4780966352463
 20
360.571734386911
 10
439.1611092956791
 20
360.9660720260072
 42
0.2679491924311224
 10
439.2861092729199
 20
361.1825783900931
 10
439.2861090515707
 20
363.2882408227961
 42
0.4142135623730951
 10
439.0361090252899
 20
363.5382407965153
 10
438.0361090252899
 20
363.5382406913923
 42
-0.5773502691896217
 10
437.8196026349232
 20
363.9132406686331
 10
438.0649764546596
 20
364.3382406944293
 10
439.0361089411944
 20
364.3382407965146
 42
0.4142135623730951
 10
439.2861089149136
 20
364.5882408227953
 10
439.2861087362089
 20
366.2882408227961
 42
0.4142135623730951
 10
439.0361087099354
 20
366.5382407965153
 10
438.0361087099354
 20
366.5382406913923
 42
-0.577350269189623
 10
437.8196023195687
 20
366.9132406686331
 10
438.0649761392906
 20
367.3382406944293
 10
439.0361086258326
 20
367.3382407965146
 42
0.4142135623730951
 10
439.2861085995519
 20
367.5882408227953
 10
439.2861085785316
 20
367.7882408227961
 42
-0.4142135623730951
 10
439.5361085522508
 20
368.0382408490768
 10
440.3861085522494
 20
368.0382409384292
 10
441.2361085522479
 20
368.0382410277816
 42
-0.4142135623730951
 10
441.4861085785287
 20
367.7882410540624
 10
441.4861085995562
 20
367.5882410540617
 42
0.4142135623730951
 10
441.7361086258369
 20
367.3382410803424
 10
442.7072411123718
 20
367.3382411824277
 10
442.9526150214569
 20
366.9132412082217
 42
-0.5773502691896199
 10
442.7361087099325
 20
366.5382411854626
 10
441.7361087099325
 20
366.5382410803431
 42
0.4142135623730951
 10
441.4861087362132
 20
366.2882410540624
 10
441.4861089149107
 20
364.5882410540616
 42
0.4142135623730951
 10
441.7361089411915
 20
364.3382410803424
 10
442.7072414277408
 20
364.3382411824277
 10
442.9526153368187
 20
363.9132412082217
 42
-0.5773502691896196
 10
442.7361090252943
 20
363.5382411854625
 10
441.7361090252943
 20
363.5382410803432
 42
0.4142135623730951
 10
441.4861090515751
 20
363.2882410540624
 10
441.4861092729243
 20
361.1825786213594
 42
0.2679491924311216
 10
441.6111092956835
 20
360.9660722835542
 10
442.2941220390257
 20
360.5717347880564
 42
0.1316524975873966
 10
442.4191220425472
 20
360.5382411521423
 10
445.2825559500688
 20
360.5382414531487
 42
0.198912367379658
 10
445.4593326376689
 20
360.6114647764371
 10
445.8861092880961
 20
361.038241516595
 10
445.8861094457733
 20
359.538241516595
  0
LWPOLYLINE
  5
9045
330
67
100
AcDbEntity
  8
F_01 sichtbar
370
    13
100
AcDbPolyline
 90
       28
 70
     1
 43
0.0
 10
444.1511852052845
 20
359.5382413342195
 10
441.0236116600335
 20
359.5382410054444
 42
0.3394542588633794
 10
440.9270190852021
 20
359.4641228998007
 10
440.8863541110823
 20
359.3123590865034
 42
-0.3394542588633798
 10
440.7897615362507
 20
359.2382409808597
 10
440.7432269338442
 20
359.2382409759703
 42
-0.3394542588633751
 10
440.6466343434203
 20
359.3123590613068
 10
440.6059693374027
 20
359.4641228660512
 42
0.3394542588633729
 10
440.5093767469861
 20
359.5382409513877
 10
440.3861094457806
 20
359.5382409384292
 10
440.2628421445752
 20
359.5382409254707
 42
0.3394542588633786
 10
440.1662495697437
 20
359.464122819827
 10
440.1255845956239
 20
359.3123590065334
 42
-0.3394542588633769
 10
440.0289920207923
 20
359.2382409008897
 10
439.9824574183858
 20
359.2382408959966
 42
-0.3394542588633807
 10
439.8858648279619
 20
359.3123589813331
 10
439.8451998219443
 20
359.4641227860775
 42
0.3394542588633759
 10
439.7486072315277
 20
359.538240871414
 10
436.6210336862695
 20
359.538240542639
 42
0.6681786379192993
 10
436.4442570358423
 20
359.1114638287582
 10
438.6185329419658
 20
356.9371883797576
 42
-0.3679559611094144
 10
439.0838275695041
 20
356.4859586043967
 10
439.5361097190962
 20
356.9382408490747
 10
440.3861097190947
 20
356.9382409384307
 10
441.2361097190933
 20
356.9382410277831
 10
441.6247136568763
 20
356.5496371717018
 42
0.4142135623730948
 10
441.7661350131147
 20
356.5496371865665
 10
444.327961945446
 20
359.1114646575042
 42
0.6681786379192982
  0
POLYLINE
  5
9046
330
67
100
AcDbEntity
  8
F_01 sichtbar
370
    13
100
AcDb2dPolyline
 66
     1
 10
0.0
 20
0.0
 30
0.0
  0
VERTEX
  5
9047
330
9046
100
AcDbEntity
  8
F_01 sichtbar
370
    13
100
AcDbVertex
100
AcDb2dVertex
 10
447.3860934616659
 20
655.538240938451
 30
0.0
  0
VERTEX
  5
9048
330
9046
100
AcDbEntity
  8
F_01 sichtbar
370
    13
100
AcDbVertex
100
AcDb2dVertex
 10
638.7284710880757
 20
655.5382409384438
 30
0.0
  0
SEQEND
  5
9049
330
9046
100
AcDbEntity
  8
F_01 sichtbar
370
    13
  0
LINE
  5
904A
330
67
100
AcDbEntity
  8
F_01 sichtbar
370
    13
100
AcDbLine
 10
461.8861000455781
 20
356.5382407807483
 30
0.0
 11
461.8861000455781
 21
317.5382407807483
 31
0.0
  0
HATCH
  5
904B
330
67
100
AcDbEntity
  8
F_01 sichtbar
370
    13
100
AcDbHatch
 10
0.0
 20
0.0
 30
0.0
210
0.0
220
0.0
230
1.0
  2
BATT_INSULATION
 70
     0
 71
     0
 91
        1
 92
        1
 93
        4
 72
     1
 10
402.3951877347845
 20
655.538240938451
 11
422.3860934616659
 21
655.538240938451
 72
     1
 10
422.3860934616659
 20
655.538240938451
 11
422.3860934616659
 21
458.5382407807482
 72
     1
 10
422.3860934616659
 20
458.5382407807482
 11
402.3951877347845
 21
458.5382407807482
 72
     1
 10
402.3951877347845
 20
458.5382407807482
 11
402.3951877347845
 21
655.538240938451
 97
        0
 75
     0
 76
     2
 52
270.0
 41
19.93002306671958
 77
     0
 78
   528
 53
90.0
 43
-362.3643214043059
 44
7643.112516296769
 45
22.42127595005953
 46
6.658839936844743
 79
     2
 49
0.0
 49
-6.658839936844742
 53
75.92359999999998
 43
-359.8730685209612
 44
7639.783086363336
 45
-0.000002460039453
 46
6.658832178762542
 79
     2
 49
1.619673114586158
 49
-643.68828573548
 53
75.92359999999998
 43
-337.4517925709024
 44
7639.783086363336
 45
-0.000002460039453
 46
6.658832178762542
 79
     2
 49
1.619673114586158
 49
-643.68828573548
 53
75.92359999999998
 43
-315.0305166208436
 44
7639.783086363336
 45
-0.000002460039453
 46
6.658832178762542
 79
     2
 49
1.619673114586158
 49
-643.68828573548
 53
75.92359999999998
 43
-292.6092406707921
 44
7639.783086363336
 45
-0.000002460039453
 46
6.658832178762542
 79
     2
 49
1.619673114586158
 49
-643.68828573548
 53
75.92359999999998
 43
-270.1879647207261
 44
7639.783086363336
 45
-0.000002460039453
 46
6.658832178762542
 79
     2
 49
1.619673114586158
 49
-643.68828573548
 53
75.92359999999998
 43
-247.7666887706746
 44
7639.783086363336
 45
-0.000002460039453
 46
6.658832178762542
 79
     2
 49
1.619673114586158
 49
-643.68828573548
 53
75.92359999999998
 43
-225.3454128206012
 44
7639.783086363336
 45
-0.000002460039453
 46
6.658832178762542
 79
     2
 49
1.619673114586158
 49
-643.68828573548
 53
64.95440000000001
 43
-341.1362559352583
 44
7640.558703071024
 45
0.0000071268683736
 46
6.65883820899263
 79
     2
 49
2.818862602510646
 49
-1797.918053154253
 53
64.95440000000001
 43
-318.7149799851923
 44
7640.558703071024
 45
0.0000071268683736
 46
6.65883820899263
 79
     2
 49
2.818862602510646
 49
-1797.918053154253
 53
64.95440000000001
 43
-296.2937040351335
 44
7640.558703071024
 45
0.0000071268683736
 46
6.65883820899263
 79
     2
 49
2.818862602510646
 49
-1797.918053154253
 53
64.95440000000001
 43
-273.8724280850675
 44
7640.558703071024
 45
0.0000071268683736
 46
6.65883820899263
 79
     2
 49
2.818862602510646
 49
-1797.918053154253
 53
64.95440000000001
 43
-251.4511521350087
 44
7640.558703071024
 45
0.0000071268683736
 46
6.65883820899263
 79
     2
 49
2.818862602510646
 49
-1797.918053154253
 53
64.95440000000001
 43
-229.0298761849572
 44
7640.558703071024
 45
0.0000071268683736
 46
6.65883820899263
 79
     2
 49
2.818862602510646
 49
-1797.918053154253
 53
64.95440000000001
 43
-206.6086002348911
 44
7640.558703071024
 45
0.0000071268683736
 46
6.65883820899263
 79
     2
 49
2.818862602510646
 49
-1797.918053154253
 53
64.95440000000001
 43
-184.1873242848323
 44
7640.558703071024
 45
0.0000071268683736
 46
6.65883820899263
 79
     2
 49
2.818862602510646
 49
-1797.918053154253
 53
64.95440000000001
 43
-161.76664623547
 44
7640.558703071024
 45
0.0000071268683736
 46
6.65883820899263
 79
     2
 49
2.818862602510646
 49
-1797.918053154253
 53
64.95440000000001
 43
-139.345370285404
 44
7640.558703071024
 45
0.0000071268683736
 46
6.65883820899263
 79
     2
 49
2.818862602510646
 49
-1797.918053154253
 53
64.95440000000001
 43
-116.9240943353525
 44
7640.558703071024
 45
0.0000071268683736
 46
6.65883820899263
 79
     2
 49
2.818862602510646
 49
-1797.918053154253
 53
64.95440000000001
 43
-94.50281838528644
 44
7640.558703071024
 45
0.0000071268683736
 46
6.65883820899263
 79
     2
 49
2.818862602510646
 49
-1797.918053154253
 53
64.95440000000001
 43
-72.08154243522767
 44
7640.558703071024
 45
0.0000071268683736
 46
6.65883820899263
 79
     2
 49
2.818862602510646
 49
-1797.918053154253
 53
64.95440000000001
 43
-49.66026648516891
 44
7640.558703071024
 45
0.0000071268683736
 46
6.65883820899263
 79
     2
 49
2.818862602510646
 49
-1797.918053154253
 53
64.95440000000001
 43
-27.23899053511014
 44
7640.558703071024
 45
0.0000071268683736
 46
6.65883820899263
 79
     2
 49
2.818862602510646
 49
-1797.918053154253
 53
64.95440000000001
 43
-4.817714585044086
 44
7640.558703071024
 45
0.0000071268683736
 46
6.65883820899263
 79
     2
 49
2.818862602510646
 49
-1797.918053154253
 53
64.95440000000001
 43
17.60356136501468
 44
7640.558703071024
 45
0.0000071268683736
 46
6.65883820899263
 79
     2
 49
2.818862602510646
 49
-1797.918053154253
 53
64.95440000000001
 43
40.02483731506617
 44
7640.558703071024
 45
0.0000071268683736
 46
6.65883820899263
 79
     2
 49
2.818862602510646
 49
-1797.918053154253
 53
64.95440000000001
 43
62.44611326513222
 44
7640.558703071024
 45
0.0000071268683736
 46
6.65883820899263
 79
     2
 49
2.818862602510646
 49
-1797.918053154253
 53
64.95440000000001
 43
84.867389215191
 44
7640.558703071024
 45
0.0000071268683736
 46
6.65883820899263
 79
     2
 49
2.818862602510646
 49
-1797.918053154253
 53
64.95440000000001
 43
107.288665165257
 44
7640.558703071024
 45
0.0000071268683736
 46
6.65883820899263
 79
     2
 49
2.818862602510646
 49
-1797.918053154253
 53
64.95440000000001
 43
129.7099411153085
 44
7640.558703071024
 45
0.0000071268683736
 46
6.65883820899263
 79
     2
 49
2.818862602510646
 49
-1797.918053154253
 53
64.95440000000001
 43
152.1312170653673
 44
7640.558703071024
 45
0.0000071268683736
 46
6.65883820899263
 79
     2
 49
2.818862602510646
 49
-1797.918053154253
 53
64.95440000000001
 43
174.552493015426
 44
7640.558703071024
 45
0.0000071268683736
 46
6.65883820899263
 79
     2
 49
2.818862602510646
 49
-1797.918053154253
 53
64.95440000000001
 43
196.9737689654921
 44
7640.558703071024
 45
0.0000071268683736
 46
6.65883820899263
 79
     2
 49
2.818862602510646
 49
-1797.918053154253
 53
64.95440000000001
 43
219.3950449155364
 44
7640.558703071024
 45
0.0000071268683736
 46
6.65883820899263
 79
     2
 49
2.818862602510646
 49
-1797.918053154253
 53
64.95440000000001
 43
241.8163208656024
 44
7640.558703071024
 45
0.0000071268683736
 46
6.65883820899263
 79
     2
 49
2.818862602510646
 49
-1797.918053154253
 53
64.95440000000001
 43
264.2375968156612
 44
7640.558703071024
 45
0.0000071268683736
 46
6.65883820899263
 79
     2
 49
2.818862602510646
 49
-1797.918053154253
 53
64.95440000000001
 43
286.6588727657272
 44
7640.558703071024
 45
0.0000071268683736
 46
6.65883820899263
 79
     2
 49
2.818862602510646
 49
-1797.918053154253
 53
64.95440000000001
 43
309.080148715786
 44
7640.558703071024
 45
0.0000071268683736
 46
6.65883820899263
 79
     2
 49
2.818862602510646
 49
-1797.918053154253
 53
64.95440000000001
 43
331.5014246658375
 44
7640.558703071024
 45
0.0000071268683736
 46
6.65883820899263
 79
     2
 49
2.818862602510646
 49
-1797.918053154253
 53
64.95440000000001
 43
353.9227006158963
 44
7640.558703071024
 45
0.0000071268683736
 46
6.65883820899263
 79
     2
 49
2.818862602510646
 49
-1797.918053154253
 53
64.95440000000001
 43
376.3439765659623
 44
7640.558703071024
 45
0.0000071268683736
 46
6.65883820899263
 79
     2
 49
2.818862602510646
 49
-1797.918053154253
 53
64.95440000000001
 43
398.7652525160211
 44
7640.558703071024
 45
0.0000071268683736
 46
6.65883820899263
 79
     2
 49
2.818862602510646
 49
-1797.918053154253
 53
37.5647
 43
-359.4790918249874
 44
7641.354130221635
 45
0.0000015036542286
 46
6.658835289202447
 79
     2
 49
2.738006498928991
 49
-1100.412526831492
 53
37.5647
 43
-337.0577760148754
 44
7641.354130221635
 45
0.0000015036542286
 46
6.658835289202447
 79
     2
 49
2.738006498928991
 49
-1100.412526831492
 53
37.5647
 43
-314.6365000648166
 44
7641.354130221635
 45
0.0000015036542286
 46
6.658835289202447
 79
     2
 49
2.738006498928991
 49
-1100.412526831492
 53
37.5647
 43
-292.2152241147505
 44
7641.354130221635
 45
0.0000015036542286
 46
6.658835289202447
 79
     2
 49
2.738006498928991
 49
-1100.412526831492
 53
37.5647
 43
-269.7939481647063
 44
7641.354130221635
 45
0.0000015036542286
 46
6.658835289202447
 79
     2
 49
2.738006498928991
 49
-1100.412526831492
 53
37.5647
 43
-247.3726722146257
 44
7641.354130221635
 45
0.0000015036542286
 46
6.658835289202447
 79
     2
 49
2.738006498928991
 49
-1100.412526831492
 53
37.5647
 43
-224.9513962645815
 44
7641.354130221635
 45
0.0000015036542286
 46
6.658835289202447
 79
     2
 49
2.738006498928991
 49
-1100.412526831492
 53
37.5647
 43
-202.5301203145154
 44
7641.354130221635
 45
0.0000015036542286
 46
6.658835289202447
 79
     2
 49
2.738006498928991
 49
-1100.412526831492
 53
37.5647
 43
-180.1088443644639
 44
7641.354130221635
 45
0.0000015036542286
 46
6.658835289202447
 79
     2
 49
2.738006498928991
 49
-1100.412526831492
 53
37.5647
 43
-157.6869705137087
 44
7641.354130221635
 45
0.0000015036542286
 46
6.658835289202447
 79
     2
 49
2.738006498928991
 49
-1100.412526831492
 53
37.5647
 43
-135.2656945636572
 44
7641.354130221635
 45
0.0000015036542286
 46
6.658835289202447
 79
     2
 49
2.738006498928991
 49
-1100.412526831492
 53
37.5647
 43
-112.8444186135839
 44
7641.354130221635
 45
0.0000015036542286
 46
6.658835289202447
 79
     2
 49
2.738006498928991
 49
-1100.412526831492
 53
37.5647
 43
-90.42314266353242
 44
7641.354130221635
 45
0.0000015036542286
 46
6.658835289202447
 79
     2
 49
2.738006498928991
 49
-1100.412526831492
 53
37.5647
 43
-68.00186671347365
 44
7641.354130221635
 45
0.0000015036542286
 46
6.658835289202447
 79
     2
 49
2.738006498928991
 49
-1100.412526831492
 53
37.5647
 43
-45.58059076341487
 44
7641.354130221635
 45
0.0000015036542286
 46
6.658835289202447
 79
     2
 49
2.738006498928991
 49
-1100.412526831492
 53
37.5647
 43
-23.15931481334883
 44
7641.354130221635
 45
0.0000015036542286
 46
6.658835289202447
 79
     2
 49
2.738006498928991
 49
-1100.412526831492
 53
37.5647
 43
-0.7380388632900577
 44
7641.354130221635
 45
0.0000015036542286
 46
6.658835289202447
 79
     2
 49
2.738006498928991
 49
-1100.412526831492
 53
37.5647
 43
21.68323708676144
 44
7641.354130221635
 45
0.0000015036542286
 46
6.658835289202447
 79
     2
 49
2.738006498928991
 49
-1100.412526831492
 53
37.5647
 43
44.10451303682748
 44
7641.354130221635
 45
0.0000015036542286
 46
6.658835289202447
 79
     2
 49
2.738006498928991
 49
-1100.412526831492
 53
37.5647
 43
66.52578898688625
 44
7641.354130221635
 45
0.0000015036542286
 46
6.658835289202447
 79
     2
 49
2.738006498928991
 49
-1100.412526831492
 53
37.5647
 43
88.94706493695229
 44
7641.354130221635
 45
0.0000015036542286
 46
6.658835289202447
 79
     2
 49
2.738006498928991
 49
-1100.412526831492
 53
37.5647
 43
111.3683408870038
 44
7641.354130221635
 45
0.0000015036542286
 46
6.658835289202447
 79
     2
 49
2.738006498928991
 49
-1100.412526831492
 53
37.5647
 43
133.7896168370625
 44
7641.354130221635
 45
0.0000015036542286
 46
6.658835289202447
 79
     2
 49
2.738006498928991
 49
-1100.412526831492
 53
37.5647
 43
156.2108927871213
 44
7641.354130221635
 45
0.0000015036542286
 46
6.658835289202447
 79
     2
 49
2.738006498928991
 49
-1100.412526831492
 53
37.5647
 43
178.6321687371874
 44
7641.354130221635
 45
0.0000015036542286
 46
6.658835289202447
 79
     2
 49
2.738006498928991
 49
-1100.412526831492
 53
37.5647
 43
201.0534446872461
 44
7641.354130221635
 45
0.0000015036542286
 46
6.658835289202447
 79
     2
 49
2.738006498928991
 49
-1100.412526831492
 53
37.5647
 43
223.4747206372976
 44
7641.354130221635
 45
0.0000015036542286
 46
6.658835289202447
 79
     2
 49
2.738006498928991
 49
-1100.412526831492
 53
37.5647
 43
245.8959965873637
 44
7641.354130221635
 45
0.0000015036542286
 46
6.658835289202447
 79
     2
 49
2.738006498928991
 49
-1100.412526831492
 53
37.5647
 43
268.3172725374225
 44
7641.354130221635
 45
0.0000015036542286
 46
6.658835289202447
 79
     2
 49
2.738006498928991
 49
-1100.412526831492
 53
37.5647
 43
290.7385484874885
 44
7641.354130221635
 45
0.0000015036542286
 46
6.658835289202447
 79
     2
 49
2.738006498928991
 49
-1100.412526831492
 53
37.5647
 43
313.1598244375327
 44
7641.354130221635
 45
0.0000015036542286
 46
6.658835289202447
 79
     2
 49
2.738006498928991
 49
-1100.412526831492
 53
37.5647
 43
335.581100387606
 44
7641.354130221635
 45
0.0000015036542286
 46
6.658835289202447
 79
     2
 49
2.738006498928991
 49
-1100.412526831492
 53
37.5647
 43
358.0023763376575
 44
7641.354130221635
 45
0.0000015036542286
 46
6.658835289202447
 79
     2
 49
2.738006498928991
 49
-1100.412526831492
 53
37.5647
 43
380.4236522877236
 44
7641.354130221635
 45
0.0000015036542286
 46
6.658835289202447
 79
     2
 49
2.738006498928991
 49
-1100.412526831492
 53
37.5647
 43
402.844928237775
 44
7641.354130221635
 45
0.0000015036542286
 46
6.658835289202447
 79
     2
 49
2.738006498928991
 49
-1100.412526831492
 53
37.5647
 43
425.2662041878338
 44
7641.354130221635
 45
0.0000015036542286
 46
6.658835289202447
 79
     2
 49
2.738006498928991
 49
-1100.412526831492
 53
37.5647
 43
447.6874801378926
 44
7641.354130221635
 45
0.0000015036542286
 46
6.658835289202447
 79
     2
 49
2.738006498928991
 49
-1100.412526831492
 53
37.5647
 43
470.1087560879586
 44
7641.354130221635
 45
0.0000015036542286
 46
6.658835289202447
 79
     2
 49
2.738006498928991
 49
-1100.412526831492
 53
37.5647
 43
492.5300320380174
 44
7641.354130221635
 45
0.0000015036542286
 46
6.658835289202447
 79
     2
 49
2.738006498928991
 49
-1100.412526831492
 53
22.93839999999997
 43
-352.4361206235499
 44
7637.067172294978
 45
0.0000027748745772
 46
6.658841674146681
 79
     2
 49
5.098976821481803
 49
-968.7608133197118
 53
22.93839999999997
 43
-330.0149044635564
 44
7637.067172294978
 45
0.0000027748745772
 46
6.658841674146681
 79
     2
 49
5.098976821481803
 49
-968.7608133197118
 53
22.93839999999997
 43
-307.5936285134976
 44
7637.067172294978
 45
0.0000027748745772
 46
6.658841674146681
 79
     2
 49
5.098976821481803
 49
-968.7608133197118
 53
22.93839999999997
 43
-285.1723525634461
 44
7637.067172294978
 45
0.0000027748745772
 46
6.658841674146681
 79
     2
 49
5.098976821481803
 49
-968.7608133197118
 53
22.93839999999997
 43
-262.7510766133873
 44
7637.067172294978
 45
0.0000027748745772
 46
6.658841674146681
 79
     2
 49
5.098976821481803
 49
-968.7608133197118
 53
22.93839999999997
 43
-240.3298006633213
 44
7637.067172294978
 45
0.0000027748745772
 46
6.658841674146681
 79
     2
 49
5.098976821481803
 49
-968.7608133197118
 53
22.93839999999997
 43
-217.9085247132625
 44
7637.067172294978
 45
0.0000027748745772
 46
6.658841674146681
 79
     2
 49
5.098976821481803
 49
-968.7608133197118
 53
22.93839999999997
 43
-195.4872487632037
 44
7637.067172294978
 45
0.0000027748745772
 46
6.658841674146681
 79
     2
 49
5.098976821481803
 49
-968.7608133197118
 53
22.93839999999997
 43
-173.0659728131522
 44
7637.067172294978
 45
0.0000027748745772
 46
6.658841674146681
 79
     2
 49
5.098976821481803
 49
-968.7608133197118
 53
22.93839999999997
 43
-150.6437003619303
 44
7637.067172294978
 45
0.0000027748745772
 46
6.658841674146681
 79
     2
 49
5.098976821481803
 49
-968.7608133197118
 53
22.93839999999997
 43
-128.2224244118715
 44
7637.067172294978
 45
0.0000027748745772
 46
6.658841674146681
 79
     2
 49
5.098976821481803
 49
-968.7608133197118
 53
22.93839999999997
 43
-105.8011484618055
 44
7637.067172294978
 45
0.0000027748745772
 46
6.658841674146681
 79
     2
 49
5.098976821481803
 49
-968.7608133197118
 53
22.93839999999997
 43
-83.37987251174672
 44
7637.067172294978
 45
0.0000027748745772
 46
6.658841674146681
 79
     2
 49
5.098976821481803
 49
-968.7608133197118
 53
22.93839999999997
 43
-60.95859656169523
 44
7637.067172294978
 45
0.0000027748745772
 46
6.658841674146681
 79
     2
 49
5.098976821481803
 49
-968.7608133197118
 53
22.93839999999997
 43
-38.53732061162919
 44
7637.067172294978
 45
0.0000027748745772
 46
6.658841674146681
 79
     2
 49
5.098976821481803
 49
-968.7608133197118
 53
22.93839999999997
 43
-16.11604466157769
 44
7637.067172294978
 45
0.0000027748745772
 46
6.658841674146681
 79
     2
 49
5.098976821481803
 49
-968.7608133197118
 53
22.93839999999997
 43
6.305231288495633
 44
7637.067172294978
 45
0.0000027748745772
 46
6.658841674146681
 79
     2
 49
5.098976821481803
 49
-968.7608133197118
 53
22.93839999999997
 43
28.72650723854713
 44
7637.067172294978
 45
0.0000027748745772
 46
6.658841674146681
 79
     2
 49
5.098976821481803
 49
-968.7608133197118
 53
22.93839999999997
 43
51.1477831886059
 44
7637.067172294978
 45
0.0000027748745772
 46
6.658841674146681
 79
     2
 49
5.098976821481803
 49
-968.7608133197118
 53
22.93839999999997
 43
73.56905913866467
 44
7637.067172294978
 45
0.0000027748745772
 46
6.658841674146681
 79
     2
 49
5.098976821481803
 49
-968.7608133197118
 53
22.93839999999997
 43
95.99033508873072
 44
7637.067172294978
 45
0.0000027748745772
 46
6.658841674146681
 79
     2
 49
5.098976821481803
 49
-968.7608133197118
 53
22.93839999999997
 43
118.4116110387895
 44
7637.067172294978
 45
0.0000027748745772
 46
6.658841674146681
 79
     2
 49
5.098976821481803
 49
-968.7608133197118
 53
22.93839999999997
 43
140.832886988841
 44
7637.067172294978
 45
0.0000027748745772
 46
6.658841674146681
 79
     2
 49
5.098976821481803
 49
-968.7608133197118
 53
22.93839999999997
 43
163.2541629388997
 44
7637.067172294978
 45
0.0000027748745772
 46
6.658841674146681
 79
     2
 49
5.098976821481803
 49
-968.7608133197118
 53
22.93839999999997
 43
185.6754388889658
 44
7637.067172294978
 45
0.0000027748745772
 46
6.658841674146681
 79
     2
 49
5.098976821481803
 49
-968.7608133197118
 53
22.93839999999997
 43
208.0967148390246
 44
7637.067172294978
 45
0.0000027748745772
 46
6.658841674146681
 79
     2
 49
5.098976821481803
 49
-968.7608133197118
 53
22.93839999999997
 43
230.5179907890761
 44
7637.067172294978
 45
0.0000027748745772
 46
6.658841674146681
 79
     2
 49
5.098976821481803
 49
-968.7608133197118
 53
22.93839999999997
 43
252.9392667391348
 44
7637.067172294978
 45
0.0000027748745772
 46
6.658841674146681
 79
     2
 49
5.098976821481803
 49
-968.7608133197118
 53
22.93839999999997
 43
275.3605426892009
 44
7637.067172294978
 45
0.0000027748745772
 46
6.658841674146681
 79
     2
 49
5.098976821481803
 49
-968.7608133197118
 53
22.93839999999997
 43
297.7818186392596
 44
7637.067172294978
 45
0.0000027748745772
 46
6.658841674146681
 79
     2
 49
5.098976821481803
 49
-968.7608133197118
 53
22.93839999999997
 43
320.2030945893184
 44
7637.067172294978
 45
0.0000027748745772
 46
6.658841674146681
 79
     2
 49
5.098976821481803
 49
-968.7608133197118
 53
22.93839999999997
 43
342.6243705393772
 44
7637.067172294978
 45
0.0000027748745772
 46
6.658841674146681
 79
     2
 49
5.098976821481803
 49
-968.7608133197118
 53
22.93839999999997
 43
365.045646489436
 44
7637.067172294978
 45
0.0000027748745772
 46
6.658841674146681
 79
     2
 49
5.098976821481803
 49
-968.7608133197118
 53
22.93839999999997
 43
387.466922439502
 44
7637.067172294978
 45
0.0000027748745772
 46
6.658841674146681
 79
     2
 49
5.098976821481803
 49
-968.7608133197118
 53
22.93839999999997
 43
409.8881983895608
 44
7637.067172294978
 45
0.0000027748745772
 46
6.658841674146681
 79
     2
 49
5.098976821481803
 49
-968.7608133197118
 53
22.93839999999997
 43
432.3094743396195
 44
7637.067172294978
 45
0.0000027748745772
 46
6.658841674146681
 79
     2
 49
5.098976821481803
 49
-968.7608133197118
 53
22.93839999999997
 43
454.730750289671
 44
7637.067172294978
 45
0.0000027748745772
 46
6.658841674146681
 79
     2
 49
5.098976821481803
 49
-968.7608133197118
 53
22.93839999999997
 43
477.1520262397371
 44
7637.067172294978
 45
0.0000027748745772
 46
6.658841674146681
 79
     2
 49
5.098976821481803
 49
-968.7608133197118
 53
22.93839999999997
 43
499.5733021897958
 44
7637.067172294978
 45
0.0000027748745772
 46
6.658841674146681
 79
     2
 49
5.098976821481803
 49
-968.7608133197118
 53
22.93839999999997
 43
521.9945781398619
 44
7637.067172294978
 45
0.0000027748745772
 46
6.658841674146681
 79
     2
 49
5.098976821481803
 49
-968.7608133197118
 53
15.10899999999998
 43
-343.272455457658
 44
7639.982386594005
 45
22.42126228022084
 46
0.0000000603162756
 79
     2
 49
2.21249165070574
 49
-253.2524971607663
 53
15.10899999999998
 43
-343.272455457658
 44
7646.64122653085
 45
22.42126228022084
 46
0.0000000603162756
 79
     2
 49
2.21249165070574
 49
-253.2524971607663
 53
15.10899999999998
 43
-343.272455457658
 44
7653.300066467695
 45
22.42126228022084
 46
0.0000000603162756
 79
     2
 49
2.21249165070574
 49
-253.2524971607663
 53
15.10899999999998
 43
-343.272455457658
 44
7659.958946264582
 45
22.42126228022084
 46
0.0000000603162756
 79
     2
 49
2.21249165070574
 49
-253.2524971607663
 53
15.10899999999998
 43
-343.272455457658
 44
7666.617766271404
 45
22.42126228022084
 46
0.0000000603162756
 79
     2
 49
2.21249165070574
 49
-253.2524971607663
 53
15.10899999999998
 43
-343.272455457658
 44
7673.276586278226
 45
22.42126228022084
 46
0.0000000603162756
 79
     2
 49
2.21249165070574
 49
-253.2524971607663
 53
15.10899999999998
 43
-343.272455457658
 44
7679.935406285046
 45
22.42126228022084
 46
0.0000000603162756
 79
     2
 49
2.21249165070574
 49
-253.2524971607663
 53
15.10899999999998
 43
-343.272455457658
 44
7686.594226291872
 45
22.42126228022084
 46
0.0000000603162756
 79
     2
 49
2.21249165070574
 49
-253.2524971607663
 53
15.10899999999998
 43
-343.272455457658
 44
7693.25304629869
 45
22.42126228022084
 46
0.0000000603162756
 79
     2
 49
2.21249165070574
 49
-253.2524971607663
 53
15.10899999999998
 43
-343.272455457658
 44
7699.911866305516
 45
22.42126228022084
 46
0.0000000603162756
 79
     2
 49
2.21249165070574
 49
-253.2524971607663
 53
6.747399999999972
 43
-347.7402484486102
 44
7639.054205559739
 45
22.42131556330144
 46
0.0000021777780818
 79
     2
 49
4.499063197150475
 49
-2772.552403711932
 53
6.747399999999972
 43
-347.7402484486102
 44
7645.713045496581
 45
22.42131556330144
 46
0.0000021777780818
 79
     2
 49
4.499063197150475
 49
-2772.552403711932
 53
6.747399999999972
 43
-347.7402484486102
 44
7652.371885433429
 45
22.42131556330144
 46
0.0000021777780818
 79
     2
 49
4.499063197150475
 49
-2772.552403711932
 53
6.747399999999972
 43
-347.7402484486102
 44
7659.03080509037
 45
22.42131556330144
 46
0.0000021777780818
 79
     2
 49
4.499063197150475
 49
-2772.552403711932
 53
6.747399999999972
 43
-347.7402484486102
 44
7665.689625097191
 45
22.42131556330144
 46
0.0000021777780818
 79
     2
 49
4.499063197150475
 49
-2772.552403711932
 53
6.747399999999972
 43
-347.7402484486102
 44
7672.348445104013
 45
22.42131556330144
 46
0.0000021777780818
 79
     2
 49
4.499063197150475
 49
-2772.552403711932
 53
6.747399999999972
 43
-347.7402484486102
 44
7679.007265110832
 45
22.42131556330144
 46
0.0000021777780818
 79
     2
 49
4.499063197150475
 49
-2772.552403711932
 53
6.747399999999972
 43
-347.7402484486102
 44
7685.666085117657
 45
22.42131556330144
 46
0.0000021777780818
 79
     2
 49
4.499063197150475
 49
-2772.552403711932
 53
6.747399999999972
 43
-347.7402484486102
 44
7692.324905124478
 45
22.42131556330144
 46
0.0000021777780818
 79
     2
 49
4.499063197150475
 49
-2772.552403711932
 53
6.747399999999972
 43
-347.7402484486102
 44
7698.983725131296
 45
22.42131556330144
 46
0.0000021777780818
 79
     2
 49
4.499063197150475
 49
-2772.552403711932
 53
6.747399999999972
 43
-347.7402484486102
 44
7705.642545138118
 45
22.42131556330144
 46
0.0000021777780818
 79
     2
 49
4.499063197150475
 49
-2772.552403711932
 53
6.747399999999972
 43
-347.7402484486102
 44
7712.30136514494
 45
22.42131556330144
 46
0.0000021777780818
 79
     2
 49
4.499063197150475
 49
-2772.552403711932
 53
6.747399999999972
 43
-347.7402484486102
 44
7718.960185151762
 45
22.42131556330144
 46
0.0000021777780818
 79
     2
 49
4.499063197150475
 49
-2772.552403711932
 53
6.747399999999972
 43
-347.7402484486102
 44
7725.619005158583
 45
22.42131556330144
 46
0.0000021777780818
 79
     2
 49
4.499063197150475
 49
-2772.552403711932
 53
6.747399999999972
 43
-347.7402484486102
 44
7732.278024465639
 45
22.42131556330144
 46
0.0000021777780818
 79
     2
 49
4.499063197150475
 49
-2772.552403711932
 53
6.747399999999972
 43
-347.7402484486102
 44
7738.936844472457
 45
22.42131556330144
 46
0.0000021777780818
 79
     2
 49
4.499063197150475
 49
-2772.552403711932
 53
6.747399999999972
 43
-347.7402484486102
 44
7745.595664479274
 45
22.42131556330144
 46
0.0000021777780818
 79
     2
 49
4.499063197150475
 49
-2772.552403711932
 53
6.747399999999972
 43
-347.7402484486102
 44
7752.2544844861
 45
22.42131556330144
 46
0.0000021777780818
 79
     2
 49
4.499063197150475
 49
-2772.552403711932
 53
6.747399999999972
 43
-347.7402484486102
 44
7758.913304492918
 45
22.42131556330144
 46
0.0000021777780818
 79
     2
 49
4.499063197150475
 49
-2772.552403711932
 53
6.747399999999972
 43
-347.7402484486102
 44
7765.572124499747
 45
22.42131556330144
 46
0.0000021777780818
 79
     2
 49
4.499063197150475
 49
-2772.552403711932
 53
6.747399999999972
 43
-347.7402484486102
 44
7772.230944506569
 45
22.42131556330144
 46
0.0000021777780818
 79
     2
 49
4.499063197150475
 49
-2772.552403711932
 53
6.747399999999972
 43
-347.7402484486102
 44
7778.889764513391
 45
22.42131556330144
 46
0.0000021777780818
 79
     2
 49
4.499063197150475
 49
-2772.552403711932
 53
6.747399999999972
 43
-347.7402484486102
 44
7785.54858452021
 45
22.42131556330144
 46
0.0000021777780818
 79
     2
 49
4.499063197150475
 49
-2772.552403711932
 53
6.747399999999972
 43
-347.7402484486102
 44
7792.20740452703
 45
22.42131556330144
 46
0.0000021777780818
 79
     2
 49
4.499063197150475
 49
-2772.552403711932
 53
6.747399999999972
 43
-347.7402484486102
 44
7798.866423834086
 45
22.42131556330144
 46
0.0000021777780818
 79
     2
 49
4.499063197150475
 49
-2772.552403711932
 53
6.747399999999972
 43
-347.7402484486102
 44
7805.525243840904
 45
22.42131556330144
 46
0.0000021777780818
 79
     2
 49
4.499063197150475
 49
-2772.552403711932
 53
6.747399999999972
 43
-347.7402484486102
 44
7812.18406384773
 45
22.42131556330144
 46
0.0000021777780818
 79
     2
 49
4.499063197150475
 49
-2772.552403711932
 53
6.747399999999972
 43
-347.7402484486102
 44
7818.842883854552
 45
22.42131556330144
 46
0.0000021777780818
 79
     2
 49
4.499063197150475
 49
-2772.552403711932
 53
6.747399999999972
 43
-347.7402484486102
 44
7825.50170386137
 45
22.42131556330144
 46
0.0000021777780818
 79
     2
 49
4.499063197150475
 49
-2772.552403711932
 53
6.747399999999972
 43
-347.7402484486102
 44
7832.160523868191
 45
22.42131556330144
 46
0.0000021777780818
 79
     2
 49
4.499063197150475
 49
-2772.552403711932
 53
6.747399999999972
 43
-347.7402484486102
 44
7838.819144574779
 45
22.42131556330144
 46
0.0000021777780818
 79
     2
 49
4.499063197150475
 49
-2772.552403711932
 53
6.747399999999972
 43
-347.7402484486102
 44
7845.477765281376
 45
22.42131556330144
 46
0.0000021777780818
 79
     2
 49
4.499063197150475
 49
-2772.552403711932
 53
6.747399999999972
 43
-347.7402484486102
 44
7852.136385987964
 45
22.42131556330144
 46
0.0000021777780818
 79
     2
 49
4.499063197150475
 49
-2772.552403711932
 53
6.747399999999972
 43
-347.7402484486102
 44
7858.795006694553
 45
22.42131556330144
 46
0.0000021777780818
 79
     2
 49
4.499063197150475
 49
-2772.552403711932
 53
6.747399999999972
 43
-347.7402484486102
 44
7865.455620403456
 45
22.42131556330144
 46
0.0000021777780818
 79
     2
 49
4.499063197150475
 49
-2772.552403711932
 53
6.747399999999972
 43
-347.7402484486102
 44
7872.114241110044
 45
22.42131556330144
 46
0.0000021777780818
 79
     2
 49
4.499063197150475
 49
-2772.552403711932
 53
6.747399999999972
 43
-347.7402484486102
 44
7878.772861816632
 45
22.42131556330144
 46
0.0000021777780818
 79
     2
 49
4.499063197150475
 49
-2772.552403711932
 53
6.747399999999972
 43
-347.7402484486102
 44
7885.431482523229
 45
22.42131556330144
 46
0.0000021777780818
 79
     2
 49
4.499063197150475
 49
-2772.552403711932
 53
6.747399999999972
 43
-347.7402484486102
 44
7892.090103229818
 45
22.42131556330144
 46
0.0000021777780818
 79
     2
 49
4.499063197150475
 49
-2772.552403711932
 53
6.747399999999972
 43
-347.7402484486102
 44
7898.748723936408
 45
22.42131556330144
 46
0.0000021777780818
 79
     2
 49
4.499063197150475
 49
-2772.552403711932
 53
6.747399999999972
 43
-347.7402484486102
 44
7905.407344642998
 45
22.42131556330144
 46
0.0000021777780818
 79
     2
 49
4.499063197150475
 49
-2772.552403711932
 53
6.747399999999972
 43
-347.7402484486102
 44
7912.065965349594
 45
22.42131556330144
 46
0.0000021777780818
 79
     2
 49
4.499063197150475
 49
-2772.552403711932
 53
6.747399999999972
 43
-347.7402484486102
 44
7918.724586056182
 45
22.42131556330144
 46
0.0000021777780818
 79
     2
 49
4.499063197150475
 49
-2772.552403711932
 53
6.747399999999972
 43
-347.7402484486102
 44
7925.385199765078
 45
22.42131556330144
 46
0.0000021777780818
 79
     2
 49
4.499063197150475
 49
-2772.552403711932
 53
6.747399999999972
 43
-347.7402484486102
 44
7932.043820471671
 45
22.42131556330144
 46
0.0000021777780818
 79
     2
 49
4.499063197150475
 49
-2772.552403711932
 53
6.747399999999972
 43
-347.7402484486102
 44
7938.702441178259
 45
22.42131556330144
 46
0.0000021777780818
 79
     2
 49
4.499063197150475
 49
-2772.552403711932
 53
6.747399999999972
 43
-347.7402484486102
 44
7945.361061884852
 45
22.42131556330144
 46
0.0000021777780818
 79
     2
 49
4.499063197150475
 49
-2772.552403711932
 53
6.747399999999972
 43
-347.7402484486102
 44
7952.01968259144
 45
22.42131556330144
 46
0.0000021777780818
 79
     2
 49
4.499063197150475
 49
-2772.552403711932
 53
6.747399999999972
 43
-347.7402484486102
 44
7958.678303298035
 45
22.42131556330144
 46
0.0000021777780818
 79
     2
 49
4.499063197150475
 49
-2772.552403711932
 53
6.141599999999983
 43
-357.3087920331036
 44
7636.542790468564
 45
22.4212162591076
 46
-0.000021699014323
 79
     2
 49
4.900812602129414
 49
-1551.097951008268
 53
6.141599999999983
 43
-357.3087920331036
 44
7643.201623429901
 45
22.4212162591076
 46
-0.000021699014323
 79
     2
 49
4.900812602129414
 49
-1551.097951008268
 53
6.141599999999983
 43
-357.3087920331036
 44
7649.860463366749
 45
22.4212162591076
 46
-0.000021699014323
 79
     2
 49
4.900812602129414
 49
-1551.097951008268
 53
6.141599999999983
 43
-357.3087920331036
 44
7656.519223583503
 45
22.4212162591076
 46
-0.000021699014323
 79
     2
 49
4.900812602129414
 49
-1551.097951008268
 53
6.141599999999983
 43
-357.3087920331036
 44
7663.178242890554
 45
22.4212162591076
 46
-0.000021699014323
 79
     2
 49
4.900812602129414
 49
-1551.097951008268
 53
6.141599999999983
 43
-357.3087920331036
 44
7669.837062897371
 45
22.4212162591076
 46
-0.000021699014323
 79
     2
 49
4.900812602129414
 49
-1551.097951008268
 53
6.141599999999983
 43
-357.3087920331036
 44
7676.49588290419
 45
22.4212162591076
 46
-0.000021699014323
 79
     2
 49
4.900812602129414
 49
-1551.097951008268
 53
6.141599999999983
 43
-357.3087920331036
 44
7683.154702911015
 45
22.4212162591076
 46
-0.000021699014323
 79
     2
 49
4.900812602129414
 49
-1551.097951008268
 53
6.141599999999983
 43
-357.3087920331036
 44
7689.813522917834
 45
22.4212162591076
 46
-0.000021699014323
 79
     2
 49
4.900812602129414
 49
-1551.097951008268
 53
6.141599999999983
 43
-357.3087920331036
 44
7696.472342924663
 45
22.4212162591076
 46
-0.000021699014323
 79
     2
 49
4.900812602129414
 49
-1551.097951008268
 53
6.141599999999983
 43
-357.3087920331036
 44
7703.131162931484
 45
22.4212162591076
 46
-0.000021699014323
 79
     2
 49
4.900812602129414
 49
-1551.097951008268
 53
6.141599999999983
 43
-357.3087920331036
 44
7709.789982938307
 45
22.4212162591076
 46
-0.000021699014323
 79
     2
 49
4.900812602129414
 49
-1551.097951008268
 53
6.141599999999983
 43
-357.3087920331036
 44
7716.448802945127
 45
22.4212162591076
 46
-0.000021699014323
 79
     2
 49
4.900812602129414
 49
-1551.097951008268
 53
6.141599999999983
 43
-357.3087920331036
 44
7723.107622951942
 45
22.4212162591076
 46
-0.000021699014323
 79
     2
 49
4.900812602129414
 49
-1551.097951008268
 53
6.141599999999983
 43
-357.3087920331036
 44
7729.766442958771
 45
22.4212162591076
 46
-0.000021699014323
 79
     2
 49
4.900812602129414
 49
-1551.097951008268
 53
6.141599999999983
 43
-357.3087920331036
 44
7736.425462265819
 45
22.4212162591076
 46
-0.000021699014323
 79
     2
 49
4.900812602129414
 49
-1551.097951008268
 53
6.141599999999983
 43
-357.3087920331036
 44
7743.084282272644
 45
22.4212162591076
 46
-0.000021699014323
 79
     2
 49
4.900812602129414
 49
-1551.097951008268
 53
6.141599999999983
 43
-357.3087920331036
 44
7749.743102279463
 45
22.4212162591076
 46
-0.000021699014323
 79
     2
 49
4.900812602129414
 49
-1551.097951008268
 53
6.141599999999983
 43
-357.3087920331036
 44
7756.401922286284
 45
22.4212162591076
 46
-0.000021699014323
 79
     2
 49
4.900812602129414
 49
-1551.097951008268
 53
6.141599999999983
 43
-357.3087920331036
 44
7763.06074229311
 45
22.4212162591076
 46
-0.000021699014323
 79
     2
 49
4.900812602129414
 49
-1551.097951008268
 53
6.141599999999983
 43
-357.3087920331036
 44
7769.719562299925
 45
22.4212162591076
 46
-0.000021699014323
 79
     2
 49
4.900812602129414
 49
-1551.097951008268
 53
6.141599999999983
 43
-357.3087920331036
 44
7776.37838230675
 45
22.4212162591076
 46
-0.000021699014323
 79
     2
 49
4.900812602129414
 49
-1551.097951008268
 53
6.141599999999983
 43
-357.3087920331036
 44
7783.037202313568
 45
22.4212162591076
 46
-0.000021699014323
 79
     2
 49
4.900812602129414
 49
-1551.097951008268
 53
6.141599999999983
 43
-357.3087920331036
 44
7789.696022320393
 45
22.4212162591076
 46
-0.000021699014323
 79
     2
 49
4.900812602129414
 49
-1551.097951008268
 53
6.141599999999983
 43
-357.3087920331036
 44
7796.354842327215
 45
22.4212162591076
 46
-0.000021699014323
 79
     2
 49
4.900812602129414
 49
-1551.097951008268
 53
173.8580000000001
 43
-352.4361206235499
 44
7642.499010396706
 45
0.0000416333007388
 46
6.658832854632235
 79
     2
 49
4.900812602129348
 49
-1551.097951008251
 53
173.8580000000001
 43
-330.0149044635564
 44
7642.499010396706
 45
0.0000416333007388
 46
6.658832854632235
 79
     2
 49
4.900812602129348
 49
-1551.097951008251
 53
173.8580000000001
 43
-307.5936285134976
 44
7642.499010396706
 45
0.0000416333007388
 46
6.658832854632235
 79
     2
 49
4.900812602129348
 49
-1551.097951008251
 53
173.8580000000001
 43
-285.1723525634461
 44
7642.499010396706
 45
0.0000416333007388
 46
6.658832854632235
 79
     2
 49
4.900812602129348
 49
-1551.097951008251
 53
173.8580000000001
 43
-262.7510766133873
 44
7642.499010396706
 45
0.0000416333007388
 46
6.658832854632235
 79
     2
 49
4.900812602129348
 49
-1551.097951008251
 53
173.8580000000001
 43
-240.3298006633213
 44
7642.499010396706
 45
0.0000416333007388
 46
6.658832854632235
 79
     2
 49
4.900812602129348
 49
-1551.097951008251
 53
173.8580000000001
 43
-217.9085247132625
 44
7642.499010396706
 45
0.0000416333007388
 46
6.658832854632235
 79
     2
 49
4.900812602129348
 49
-1551.097951008251
 53
173.8580000000001
 43
-195.4872487632037
 44
7642.499010396706
 45
0.0000416333007388
 46
6.658832854632235
 79
     2
 49
4.900812602129348
 49
-1551.097951008251
 53
173.8580000000001
 43
-173.0659728131522
 44
7642.499010396706
 45
0.0000416333007388
 46
6.658832854632235
 79
     2
 49
4.900812602129348
 49
-1551.097951008251
 53
173.8580000000001
 43
-150.6437003619303
 44
7642.499010396706
 45
0.0000416333007388
 46
6.658832854632235
 79
     2
 49
4.900812602129348
 49
-1551.097951008251
 53
173.8580000000001
 43
-128.2224244118715
 44
7642.499010396706
 45
0.0000416333007388
 46
6.658832854632235
 79
     2
 49
4.900812602129348
 49
-1551.097951008251
 53
173.8580000000001
 43
-105.8011484618055
 44
7642.499010396706
 45
0.0000416333007388
 46
6.658832854632235
 79
     2
 49
4.900812602129348
 49
-1551.097951008251
 53
173.8580000000001
 43
-83.37987251174672
 44
7642.499010396706
 45
0.0000416333007388
 46
6.658832854632235
 79
     2
 49
4.900812602129348
 49
-1551.097951008251
 53
173.8580000000001
 43
-60.95859656169523
 44
7642.499010396706
 45
0.0000416333007388
 46
6.658832854632235
 79
     2
 49
4.900812602129348
 49
-1551.097951008251
 53
173.8580000000001
 43
-38.53732061162919
 44
7642.499010396706
 45
0.0000416333007388
 46
6.658832854632235
 79
     2
 49
4.900812602129348
 49
-1551.097951008251
 53
173.8580000000001
 43
-16.11604466157769
 44
7642.499010396706
 45
0.0000416333007388
 46
6.658832854632235
 79
     2
 49
4.900812602129348
 49
-1551.097951008251
 53
173.8580000000001
 43
6.305231288495633
 44
7642.499010396706
 45
0.0000416333007388
 46
6.658832854632235
 79
     2
 49
4.900812602129348
 49
-1551.097951008251
 53
173.8580000000001
 43
28.72650723854713
 44
7642.499010396706
 45
0.0000416333007388
 46
6.658832854632235
 79
     2
 49
4.900812602129348
 49
-1551.097951008251
 53
173.8580000000001
 43
51.1477831886059
 44
7642.499010396706
 45
0.0000416333007388
 46
6.658832854632235
 79
     2
 49
4.900812602129348
 49
-1551.097951008251
 53
173.8580000000001
 43
73.56905913866467
 44
7642.499010396706
 45
0.0000416333007388
 46
6.658832854632235
 79
     2
 49
4.900812602129348
 49
-1551.097951008251
 53
173.8580000000001
 43
95.99033508873072
 44
7642.499010396706
 45
0.0000416333007388
 46
6.658832854632235
 79
     2
 49
4.900812602129348
 49
-1551.097951008251
 53
173.8580000000001
 43
118.4116110387895
 44
7642.499010396706
 45
0.0000416333007388
 46
6.658832854632235
 79
     2
 49
4.900812602129348
 49
-1551.097951008251
 53
173.8580000000001
 43
140.832886988841
 44
7642.499010396706
 45
0.0000416333007388
 46
6.658832854632235
 79
     2
 49
4.900812602129348
 49
-1551.097951008251
 53
173.8580000000001
 43
163.2541629388997
 44
7642.499010396706
 45
0.0000416333007388
 46
6.658832854632235
 79
     2
 49
4.900812602129348
 49
-1551.097951008251
 53
173.8580000000001
 43
185.6754388889658
 44
7642.499010396706
 45
0.0000416333007388
 46
6.658832854632235
 79
     2
 49
4.900812602129348
 49
-1551.097951008251
 53
173.8580000000001
 43
208.0967148390246
 44
7642.499010396706
 45
0.0000416333007388
 46
6.658832854632235
 79
     2
 49
4.900812602129348
 49
-1551.097951008251
 53
173.8580000000001
 43
230.5179907890761
 44
7642.499010396706
 45
0.0000416333007388
 46
6.658832854632235
 79
     2
 49
4.900812602129348
 49
-1551.097951008251
 53
173.8580000000001
 43
252.9392667391348
 44
7642.499010396706
 45
0.0000416333007388
 46
6.658832854632235
 79
     2
 49
4.900812602129348
 49
-1551.097951008251
 53
173.8580000000001
 43
275.3605426892009
 44
7642.499010396706
 45
0.0000416333007388
 46
6.658832854632235
 79
     2
 49
4.900812602129348
 49
-1551.097951008251
 53
173.8580000000001
 43
297.7818186392596
 44
7642.499010396706
 45
0.0000416333007388
 46
6.658832854632235
 79
     2
 49
4.900812602129348
 49
-1551.097951008251
 53
173.8580000000001
 43
320.2030945893184
 44
7642.499010396706
 45
0.0000416333007388
 46
6.658832854632235
 79
     2
 49
4.900812602129348
 49
-1551.097951008251
 53
173.8580000000001
 43
342.6243705393772
 44
7642.499010396706
 45
0.0000416333007388
 46
6.658832854632235
 79
     2
 49
4.900812602129348
 49
-1551.097951008251
 53
173.8580000000001
 43
365.045646489436
 44
7642.499010396706
 45
0.0000416333007388
 46
6.658832854632235
 79
     2
 49
4.900812602129348
 49
-1551.097951008251
 53
173.8580000000001
 43
387.466922439502
 44
7642.499010396706
 45
0.0000416333007388
 46
6.658832854632235
 79
     2
 49
4.900812602129348
 49
-1551.097951008251
 53
173.8580000000001
 43
409.8881983895608
 44
7642.499010396706
 45
0.0000416333007388
 46
6.658832854632235
 79
     2
 49
4.900812602129348
 49
-1551.097951008251
 53
173.8580000000001
 43
432.3094743396195
 44
7642.499010396706
 45
0.0000416333007388
 46
6.658832854632235
 79
     2
 49
4.900812602129348
 49
-1551.097951008251
 53
173.8580000000001
 43
454.730750289671
 44
7642.499010396706
 45
0.0000416333007388
 46
6.658832854632235
 79
     2
 49
4.900812602129348
 49
-1551.097951008251
 53
173.8580000000001
 43
477.1520262397371
 44
7642.499010396706
 45
0.0000416333007388
 46
6.658832854632235
 79
     2
 49
4.900812602129348
 49
-1551.097951008251
 53
173.8580000000001
 43
499.5733021897958
 44
7642.499010396706
 45
0.0000416333007388
 46
6.658832854632235
 79
     2
 49
4.900812602129348
 49
-1551.097951008251
 53
173.8580000000001
 43
521.9945781398619
 44
7642.499010396706
 45
0.0000416333007388
 46
6.658832854632235
 79
     2
 49
4.900812602129348
 49
-1551.097951008251
 53
173.8580000000001
 43
544.4158540899134
 44
7642.499010396706
 45
0.0000416333007388
 46
6.658832854632235
 79
     2
 49
4.900812602129348
 49
-1551.097951008251
 53
173.8580000000001
 43
566.8371300399721
 44
7642.499010396706
 45
0.0000416333007388
 46
6.658832854632235
 79
     2
 49
4.900812602129348
 49
-1551.097951008251
 53
173.8580000000001
 43
589.2584059900309
 44
7642.499010396706
 45
0.0000416333007388
 46
6.658832854632235
 79
     2
 49
4.900812602129348
 49
-1551.097951008251
 53
173.8580000000001
 43
611.679681940097
 44
7642.499010396706
 45
0.0000416333007388
 46
6.658832854632235
 79
     2
 49
4.900812602129348
 49
-1551.097951008251
 53
173.8580000000001
 43
634.1009578901557
 44
7642.499010396706
 45
0.0000416333007388
 46
6.658832854632235
 79
     2
 49
4.900812602129348
 49
-1551.097951008251
 53
173.8580000000001
 43
656.5222338402145
 44
7642.499010396706
 45
0.0000416333007388
 46
6.658832854632235
 79
     2
 49
4.900812602129348
 49
-1551.097951008251
 53
173.8580000000001
 43
678.943509790266
 44
7642.499010396706
 45
0.0000416333007388
 46
6.658832854632235
 79
     2
 49
4.900812602129348
 49
-1551.097951008251
 53
173.8580000000001
 43
701.364785740332
 44
7642.499010396706
 45
0.0000416333007388
 46
6.658832854632235
 79
     2
 49
4.900812602129348
 49
-1551.097951008251
 53
173.8580000000001
 43
723.7860616903908
 44
7642.499010396706
 45
0.0000416333007388
 46
6.658832854632235
 79
     2
 49
4.900812602129348
 49
-1551.097951008251
 53
173.8580000000001
 43
746.2073376404423
 44
7642.499010396706
 45
0.0000416333007388
 46
6.658832854632235
 79
     2
 49
4.900812602129348
 49
-1551.097951008251
 53
173.8580000000001
 43
768.6286135905084
 44
7642.499010396706
 45
0.0000416333007388
 46
6.658832854632235
 79
     2
 49
4.900812602129348
 49
-1551.097951008251
 53
173.8580000000001
 43
791.0498895405689
 44
7642.499010396706
 45
0.0000416333007388
 46
6.658832854632235
 79
     2
 49
4.900812602129348
 49
-1551.097951008251
 53
173.8580000000001
 43
813.4711654906277
 44
7642.499010396706
 45
0.0000416333007388
 46
6.658832854632235
 79
     2
 49
4.900812602129348
 49
-1551.097951008251
 53
173.8580000000001
 43
835.8924414406939
 44
7642.499010396706
 45
0.0000416333007388
 46
6.658832854632235
 79
     2
 49
4.900812602129348
 49
-1551.097951008251
 53
173.8580000000001
 43
858.3137173907525
 44
7642.499010396706
 45
0.0000416333007388
 46
6.658832854632235
 79
     2
 49
4.900812602129348
 49
-1551.097951008251
 53
173.8580000000001
 43
880.734993340804
 44
7642.499010396706
 45
0.0000416333007388
 46
6.658832854632235
 79
     2
 49
4.900812602129348
 49
-1551.097951008251
 53
173.8580000000001
 43
903.1562692908702
 44
7642.499010396706
 45
0.0000416333007388
 46
6.658832854632235
 79
     2
 49
4.900812602129348
 49
-1551.097951008251
 53
173.8580000000001
 43
925.5775452409288
 44
7642.499010396706
 45
0.0000416333007388
 46
6.658832854632235
 79
     2
 49
4.900812602129348
 49
-1551.097951008251
 53
173.8580000000001
 43
947.9988211909949
 44
7642.499010396706
 45
0.0000416333007388
 46
6.658832854632235
 79
     2
 49
4.900812602129348
 49
-1551.097951008251
 53
173.8580000000001
 43
970.4200971410392
 44
7642.499010396706
 45
0.0000416333007388
 46
6.658832854632235
 79
     2
 49
4.900812602129348
 49
-1551.097951008251
 53
173.8580000000001
 43
992.8413730911051
 44
7642.499010396706
 45
0.0000416333007388
 46
6.658832854632235
 79
     2
 49
4.900812602129348
 49
-1551.097951008251
 53
173.8580000000001
 43
1015.262649041164
 44
7642.499010396706
 45
0.0000416333007388
 46
6.658832854632235
 79
     2
 49
4.900812602129348
 49
-1551.097951008251
 53
173.8580000000001
 43
1037.683924991223
 44
7642.499010396706
 45
0.0000416333007388
 46
6.658832854632235
 79
     2
 49
4.900812602129348
 49
-1551.097951008251
 53
173.8580000000001
 43
1060.105200941281
 44
7642.499010396706
 45
0.0000416333007388
 46
6.658832854632235
 79
     2
 49
4.900812602129348
 49
-1551.097951008251
 53
173.8580000000001
 43
1082.526476891347
 44
7642.499010396706
 45
0.0000416333007388
 46
6.658832854632235
 79
     2
 49
4.900812602129348
 49
-1551.097951008251
 53
173.8580000000001
 43
1104.947752841406
 44
7642.499010396706
 45
0.0000416333007388
 46
6.658832854632235
 79
     2
 49
4.900812602129348
 49
-1551.097951008251
 53
173.8580000000001
 43
1127.369028791457
 44
7642.499010396706
 45
0.0000416333007388
 46
6.658832854632235
 79
     2
 49
4.900812602129348
 49
-1551.097951008251
 53
173.8580000000001
 43
1149.790304741524
 44
7642.499010396706
 45
0.0000416333007388
 46
6.658832854632235
 79
     2
 49
4.900812602129348
 49
-1551.097951008251
 53
173.8580000000001
 43
1172.211580691582
 44
7642.499010396706
 45
0.0000416333007388
 46
6.658832854632235
 79
     2
 49
4.900812602129348
 49
-1551.097951008251
 53
173.253
 43
-343.272455457658
 44
7639.982386594005
 45
-0.0000485549711043
 46
6.658842651360698
 79
     2
 49
4.499063197150475
 49
-2772.552403711932
 53
173.253
 43
-320.8512791577177
 44
7639.982386594005
 45
-0.0000485549711043
 46
6.658842651360698
 79
     2
 49
4.499063197150475
 49
-2772.552403711932
 53
173.253
 43
-298.4300032076517
 44
7639.982386594005
 45
-0.0000485549711043
 46
6.658842651360698
 79
     2
 49
4.499063197150475
 49
-2772.552403711932
 53
173.253
 43
-276.0087272575929
 44
7639.982386594005
 45
-0.0000485549711043
 46
6.658842651360698
 79
     2
 49
4.499063197150475
 49
-2772.552403711932
 53
173.253
 43
-253.5874513075341
 44
7639.982386594005
 45
-0.0000485549711043
 46
6.658842651360698
 79
     2
 49
4.499063197150475
 49
-2772.552403711932
 53
173.253
 43
-231.1661753574754
 44
7639.982386594005
 45
-0.0000485549711043
 46
6.658842651360698
 79
     2
 49
4.499063197150475
 49
-2772.552403711932
 53
173.253
 43
-208.7448994074093
 44
7639.982386594005
 45
-0.0000485549711043
 46
6.658842651360698
 79
     2
 49
4.499063197150475
 49
-2772.552403711932
 53
173.253
 43
-186.3236234573578
 44
7639.982386594005
 45
-0.0000485549711043
 46
6.658842651360698
 79
     2
 49
4.499063197150475
 49
-2772.552403711932
 53
173.253
 43
-163.9023475072917
 44
7639.982386594005
 45
-0.0000485549711043
 46
6.658842651360698
 79
     2
 49
4.499063197150475
 49
-2772.552403711932
 53
173.253
 43
-141.4818687581664
 44
7639.982386594005
 45
-0.0000485549711043
 46
6.658842651360698
 79
     2
 49
4.499063197150475
 49
-2772.552403711932
 53
173.253
 43
-119.0605928081077
 44
7639.982386594005
 45
-0.0000485549711043
 46
6.658842651360698
 79
     2
 49
4.499063197150475
 49
-2772.552403711932
 53
173.253
 43
-96.63931685804165
 44
7639.982386594005
 45
-0.0000485549711043
 46
6.658842651360698
 79
     2
 49
4.499063197150475
 49
-2772.552403711932
 53
173.253
 43
-74.21804090798286
 44
7639.982386594005
 45
-0.0000485549711043
 46
6.658842651360698
 79
     2
 49
4.499063197150475
 49
-2772.552403711932
 53
173.253
 43
-51.7967649579241
 44
7639.982386594005
 45
-0.0000485549711043
 46
6.658842651360698
 79
     2
 49
4.499063197150475
 49
-2772.552403711932
 53
173.253
 43
-29.37548900785805
 44
7639.982386594005
 45
-0.0000485549711043
 46
6.658842651360698
 79
     2
 49
4.499063197150475
 49
-2772.552403711932
 53
173.253
 43
-6.954213057799279
 44
7639.982386594005
 45
-0.0000485549711043
 46
6.658842651360698
 79
     2
 49
4.499063197150475
 49
-2772.552403711932
 53
173.253
 43
15.46706289225949
 44
7639.982386594005
 45
-0.0000485549711043
 46
6.658842651360698
 79
     2
 49
4.499063197150475
 49
-2772.552403711932
 53
173.253
 43
37.88833884231826
 44
7639.982386594005
 45
-0.0000485549711043
 46
6.658842651360698
 79
     2
 49
4.499063197150475
 49
-2772.552403711932
 53
173.253
 43
60.30961479237703
 44
7639.982386594005
 45
-0.0000485549711043
 46
6.658842651360698
 79
     2
 49
4.499063197150475
 49
-2772.552403711932
 53
173.253
 43
82.73089074244309
 44
7639.982386594005
 45
-0.0000485549711043
 46
6.658842651360698
 79
     2
 49
4.499063197150475
 49
-2772.552403711932
 53
173.253
 43
105.1521666925018
 44
7639.982386594005
 45
-0.0000485549711043
 46
6.658842651360698
 79
     2
 49
4.499063197150475
 49
-2772.552403711932
 53
173.253
 43
127.5734426425533
 44
7639.982386594005
 45
-0.0000485549711043
 46
6.658842651360698
 79
     2
 49
4.499063197150475
 49
-2772.552403711932
 53
173.253
 43
149.9947185926194
 44
7639.982386594005
 45
-0.0000485549711043
 46
6.658842651360698
 79
     2
 49
4.499063197150475
 49
-2772.552403711932
 53
173.253
 43
172.4159945426781
 44
7639.982386594005
 45
-0.0000485549711043
 46
6.658842651360698
 79
     2
 49
4.499063197150475
 49
-2772.552403711932
 53
173.253
 43
194.8372704927442
 44
7639.982386594005
 45
-0.0000485549711043
 46
6.658842651360698
 79
     2
 49
4.499063197150475
 49
-2772.552403711932
 53
173.253
 43
217.2585464427884
 44
7639.982386594005
 45
-0.0000485549711043
 46
6.658842651360698
 79
     2
 49
4.499063197150475
 49
-2772.552403711932
 53
173.253
 43
239.6798223928545
 44
7639.982386594005
 45
-0.0000485549711043
 46
6.658842651360698
 79
     2
 49
4.499063197150475
 49
-2772.552403711932
 53
173.253
 43
262.1010983429132
 44
7639.982386594005
 45
-0.0000485549711043
 46
6.658842651360698
 79
     2
 49
4.499063197150475
 49
-2772.552403711932
 53
173.253
 43
284.522374292972
 44
7639.982386594005
 45
-0.0000485549711043
 46
6.658842651360698
 79
     2
 49
4.499063197150475
 49
-2772.552403711932
 53
173.253
 43
306.9436502430235
 44
7639.982386594005
 45
-0.0000485549711043
 46
6.658842651360698
 79
     2
 49
4.499063197150475
 49
-2772.552403711932
 53
173.253
 43
329.3649261930895
 44
7639.982386594005
 45
-0.0000485549711043
 46
6.658842651360698
 79
     2
 49
4.499063197150475
 49
-2772.552403711932
 53
173.253
 43
351.7862021431483
 44
7639.982386594005
 45
-0.0000485549711043
 46
6.658842651360698
 79
     2
 49
4.499063197150475
 49
-2772.552403711932
 53
173.253
 43
374.2074780932144
 44
7639.982386594005
 45
-0.0000485549711043
 46
6.658842651360698
 79
     2
 49
4.499063197150475
 49
-2772.552403711932
 53
173.253
 43
396.6287540432659
 44
7639.982386594005
 45
-0.0000485549711043
 46
6.658842651360698
 79
     2
 49
4.499063197150475
 49
-2772.552403711932
 53
173.253
 43
419.0500299933246
 44
7639.982386594005
 45
-0.0000485549711043
 46
6.658842651360698
 79
     2
 49
4.499063197150475
 49
-2772.552403711932
 53
173.253
 43
441.4713059433834
 44
7639.982386594005
 45
-0.0000485549711043
 46
6.658842651360698
 79
     2
 49
4.499063197150475
 49
-2772.552403711932
 53
173.253
 43
463.8925818934494
 44
7639.982386594005
 45
-0.0000485549711043
 46
6.658842651360698
 79
     2
 49
4.499063197150475
 49
-2772.552403711932
 53
173.253
 43
486.3138578435082
 44
7639.982386594005
 45
-0.0000485549711043
 46
6.658842651360698
 79
     2
 49
4.499063197150475
 49
-2772.552403711932
 53
173.253
 43
508.735133793567
 44
7639.982386594005
 45
-0.0000485549711043
 46
6.658842651360698
 79
     2
 49
4.499063197150475
 49
-2772.552403711932
 53
173.253
 43
531.1564097436257
 44
7639.982386594005
 45
-0.0000485549711043
 46
6.658842651360698
 79
     2
 49
4.499063197150475
 49
-2772.552403711932
 53
173.253
 43
553.5776856936845
 44
7639.982386594005
 45
-0.0000485549711043
 46
6.658842651360698
 79
     2
 49
4.499063197150475
 49
-2772.552403711932
 53
173.253
 43
575.9989616437506
 44
7639.982386594005
 45
-0.0000485549711043
 46
6.658842651360698
 79
     2
 49
4.499063197150475
 49
-2772.552403711932
 53
173.253
 43
598.4202375938093
 44
7639.982386594005
 45
-0.0000485549711043
 46
6.658842651360698
 79
     2
 49
4.499063197150475
 49
-2772.552403711932
 53
173.253
 43
620.8415135438681
 44
7639.982386594005
 45
-0.0000485549711043
 46
6.658842651360698
 79
     2
 49
4.499063197150475
 49
-2772.552403711932
 53
173.253
 43
643.2627894939196
 44
7639.982386594005
 45
-0.0000485549711043
 46
6.658842651360698
 79
     2
 49
4.499063197150475
 49
-2772.552403711932
 53
173.253
 43
665.6840654439856
 44
7639.982386594005
 45
-0.0000485549711043
 46
6.658842651360698
 79
     2
 49
4.499063197150475
 49
-2772.552403711932
 53
173.253
 43
688.1053413940371
 44
7639.982386594005
 45
-0.0000485549711043
 46
6.658842651360698
 79
     2
 49
4.499063197150475
 49
-2772.552403711932
 53
173.253
 43
710.5266173441105
 44
7639.982386594005
 45
-0.0000485549711043
 46
6.658842651360698
 79
     2
 49
4.499063197150475
 49
-2772.552403711932
 53
173.253
 43
732.9478932941619
 44
7639.982386594005
 45
-0.0000485549711043
 46
6.658842651360698
 79
     2
 49
4.499063197150475
 49
-2772.552403711932
 53
173.253
 43
755.3691692442207
 44
7639.982386594005
 45
-0.0000485549711043
 46
6.658842651360698
 79
     2
 49
4.499063197150475
 49
-2772.552403711932
 53
173.253
 43
777.7904451942795
 44
7639.982386594005
 45
-0.0000485549711043
 46
6.658842651360698
 79
     2
 49
4.499063197150475
 49
-2772.552403711932
 53
173.253
 43
800.2117211443474
 44
7639.982386594005
 45
-0.0000485549711043
 46
6.658842651360698
 79
     2
 49
4.499063197150475
 49
-2772.552403711932
 53
173.253
 43
822.6329970943917
 44
7639.982386594005
 45
-0.0000485549711043
 46
6.658842651360698
 79
     2
 49
4.499063197150475
 49
-2772.552403711932
 53
173.253
 43
845.0542730444649
 44
7639.982386594005
 45
-0.0000485549711043
 46
6.658842651360698
 79
     2
 49
4.499063197150475
 49
-2772.552403711932
 53
173.253
 43
867.4755489945164
 44
7639.982386594005
 45
-0.0000485549711043
 46
6.658842651360698
 79
     2
 49
4.499063197150475
 49
-2772.552403711932
 53
173.253
 43
889.8968249445825
 44
7639.982386594005
 45
-0.0000485549711043
 46
6.658842651360698
 79
     2
 49
4.499063197150475
 49
-2772.552403711932
 53
173.253
 43
912.3181008946412
 44
7639.982386594005
 45
-0.0000485549711043
 46
6.658842651360698
 79
     2
 49
4.499063197150475
 49
-2772.552403711932
 53
173.253
 43
934.7393768447073
 44
7639.982386594005
 45
-0.0000485549711043
 46
6.658842651360698
 79
     2
 49
4.499063197150475
 49
-2772.552403711932
 53
173.253
 43
957.1606527947515
 44
7639.982386594005
 45
-0.0000485549711043
 46
6.658842651360698
 79
     2
 49
4.499063197150475
 49
-2772.552403711932
 53
173.253
 43
979.5819287448175
 44
7639.982386594005
 45
-0.0000485549711043
 46
6.658842651360698
 79
     2
 49
4.499063197150475
 49
-2772.552403711932
 53
173.253
 43
1002.003204694876
 44
7639.982386594005
 45
-0.0000485549711043
 46
6.658842651360698
 79
     2
 49
4.499063197150475
 49
-2772.552403711932
 53
173.253
 43
1024.424480644942
 44
7639.982386594005
 45
-0.0000485549711043
 46
6.658842651360698
 79
     2
 49
4.499063197150475
 49
-2772.552403711932
 53
173.253
 43
1046.845756594986
 44
7639.982386594005
 45
-0.0000485549711043
 46
6.658842651360698
 79
     2
 49
4.499063197150475
 49
-2772.552403711932
 53
173.253
 43
1069.26703254506
 44
7639.982386594005
 45
-0.0000485549711043
 46
6.658842651360698
 79
     2
 49
4.499063197150475
 49
-2772.552403711932
 53
173.253
 43
1091.688308495111
 44
7639.982386594005
 45
-0.0000485549711043
 46
6.658842651360698
 79
     2
 49
4.499063197150475
 49
-2772.552403711932
 53
173.253
 43
1114.109584445177
 44
7639.982386594005
 45
-0.0000485549711043
 46
6.658842651360698
 79
     2
 49
4.499063197150475
 49
-2772.552403711932
 53
173.253
 43
1136.530860395229
 44
7639.982386594005
 45
-0.0000485549711043
 46
6.658842651360698
 79
     2
 49
4.499063197150475
 49
-2772.552403711932
 53
173.253
 43
1158.952136345302
 44
7639.982386594005
 45
-0.0000485549711043
 46
6.658842651360698
 79
     2
 49
4.499063197150475
 49
-2772.552403711932
 53
173.253
 43
1181.373412295346
 44
7639.982386594005
 45
-0.0000485549711043
 46
6.658842651360698
 79
     2
 49
4.499063197150475
 49
-2772.552403711932
 53
173.253
 43
1203.794688245412
 44
7639.982386594005
 45
-0.0000485549711043
 46
6.658842651360698
 79
     2
 49
4.499063197150475
 49
-2772.552403711932
 53
173.253
 43
1226.215964195471
 44
7639.982386594005
 45
-0.0000485549711043
 46
6.658842651360698
 79
     2
 49
4.499063197150475
 49
-2772.552403711932
 53
173.253
 43
1248.63724014553
 44
7639.982386594005
 45
-0.0000485549711043
 46
6.658842651360698
 79
     2
 49
4.499063197150475
 49
-2772.552403711932
 53
173.253
 43
1271.058516095581
 44
7639.982386594005
 45
-0.0000485549711043
 46
6.658842651360698
 79
     2
 49
4.499063197150475
 49
-2772.552403711932
 53
173.253
 43
1293.479792045648
 44
7639.982386594005
 45
-0.0000485549711043
 46
6.658842651360698
 79
     2
 49
4.499063197150475
 49
-2772.552403711932
 53
173.253
 43
1315.901067995706
 44
7639.982386594005
 45
-0.0000485549711043
 46
6.658842651360698
 79
     2
 49
4.499063197150475
 49
-2772.552403711932
 53
173.253
 43
1338.322343945772
 44
7639.982386594005
 45
-0.0000485549711043
 46
6.658842651360698
 79
     2
 49
4.499063197150475
 49
-2772.552403711932
 53
173.253
 43
1360.743619895831
 44
7639.982386594005
 45
-0.0000485549711043
 46
6.658842651360698
 79
     2
 49
4.499063197150475
 49
-2772.552403711932
 53
173.253
 43
1383.164895845883
 44
7639.982386594005
 45
-0.0000485549711043
 46
6.658842651360698
 79
     2
 49
4.499063197150475
 49
-2772.552403711932
 53
173.253
 43
1405.586171795949
 44
7639.982386594005
 45
-0.0000485549711043
 46
6.658842651360698
 79
     2
 49
4.499063197150475
 49
-2772.552403711932
 53
173.253
 43
1428.007447746007
 44
7639.982386594005
 45
-0.0000485549711043
 46
6.658842651360698
 79
     2
 49
4.499063197150475
 49
-2772.552403711932
 53
173.253
 43
1450.428723696073
 44
7639.982386594005
 45
-0.0000485549711043
 46
6.658842651360698
 79
     2
 49
4.499063197150475
 49
-2772.552403711932
 53
173.253
 43
1472.849999646125
 44
7639.982386594005
 45
-0.0000485549711043
 46
6.658842651360698
 79
     2
 49
4.499063197150475
 49
-2772.552403711932
 53
173.253
 43
1495.271275596184
 44
7639.982386594005
 45
-0.0000485549711043
 46
6.658842651360698
 79
     2
 49
4.499063197150475
 49
-2772.552403711932
 53
173.253
 43
1517.692551546242
 44
7639.982386594005
 45
-0.0000485549711043
 46
6.658842651360698
 79
     2
 49
4.499063197150475
 49
-2772.552403711932
 53
173.253
 43
1540.113827496308
 44
7639.982386594005
 45
-0.0000485549711043
 46
6.658842651360698
 79
     2
 49
4.499063197150475
 49
-2772.552403711932
 53
173.253
 43
1562.535103446367
 44
7639.982386594005
 45
-0.0000485549711043
 46
6.658842651360698
 79
     2
 49
4.499063197150475
 49
-2772.552403711932
 53
173.253
 43
1584.956379396419
 44
7639.982386594005
 45
-0.0000485549711043
 46
6.658842651360698
 79
     2
 49
4.499063197150475
 49
-2772.552403711932
 53
173.253
 43
1607.377655346478
 44
7639.982386594005
 45
-0.0000485549711043
 46
6.658842651360698
 79
     2
 49
4.499063197150475
 49
-2772.552403711932
 53
173.253
 43
1629.798931296544
 44
7639.982386594005
 45
-0.0000485549711043
 46
6.658842651360698
 79
     2
 49
4.499063197150475
 49
-2772.552403711932
 53
173.253
 43
1652.222200248914
 44
7639.982386594005
 45
-0.0000485549711043
 46
6.658842651360698
 79
     2
 49
4.499063197150475
 49
-2772.552403711932
 53
173.253
 43
1674.643476198966
 44
7639.982386594005
 45
-0.0000485549711043
 46
6.658842651360698
 79
     2
 49
4.499063197150475
 49
-2772.552403711932
 53
173.253
 43
1697.064752149032
 44
7639.982386594005
 45
-0.0000485549711043
 46
6.658842651360698
 79
     2
 49
4.499063197150475
 49
-2772.552403711932
 53
173.253
 43
1719.486028099083
 44
7639.982386594005
 45
-0.0000485549711043
 46
6.658842651360698
 79
     2
 49
4.499063197150475
 49
-2772.552403711932
 53
173.253
 43
1741.907304049142
 44
7639.982386594005
 45
-0.0000485549711043
 46
6.658842651360698
 79
     2
 49
4.499063197150475
 49
-2772.552403711932
 53
173.253
 43
1764.328579999201
 44
7639.982386594005
 45
-0.0000485549711043
 46
6.658842651360698
 79
     2
 49
4.499063197150475
 49
-2772.552403711932
 53
173.253
 43
1786.749855949267
 44
7639.982386594005
 45
-0.0000485549711043
 46
6.658842651360698
 79
     2
 49
4.499063197150475
 49
-2772.552403711932
 53
173.253
 43
1809.171131899326
 44
7639.982386594005
 45
-0.0000485549711043
 46
6.658842651360698
 79
     2
 49
4.499063197150475
 49
-2772.552403711932
 53
173.253
 43
1831.592407849392
 44
7639.982386594005
 45
-0.0000485549711043
 46
6.658842651360698
 79
     2
 49
4.499063197150475
 49
-2772.552403711932
 53
173.253
 43
1854.013683799436
 44
7639.982386594005
 45
-0.0000485549711043
 46
6.658842651360698
 79
     2
 49
4.499063197150475
 49
-2772.552403711932
 53
173.253
 43
1876.434959749502
 44
7639.982386594005
 45
-0.0000485549711043
 46
6.658842651360698
 79
     2
 49
4.499063197150475
 49
-2772.552403711932
 53
173.253
 43
1898.856235699561
 44
7639.982386594005
 45
-0.0000485549711043
 46
6.658842651360698
 79
     2
 49
4.499063197150475
 49
-2772.552403711932
 53
173.253
 43
1921.277511649627
 44
7639.982386594005
 45
-0.0000485549711043
 46
6.658842651360698
 79
     2
 49
4.499063197150475
 49
-2772.552403711932
 53
173.253
 43
1943.698787599685
 44
7639.982386594005
 45
-0.0000485549711043
 46
6.658842651360698
 79
     2
 49
4.499063197150475
 49
-2772.552403711932
 53
173.253
 43
1966.120063549737
 44
7639.982386594005
 45
-0.0000485549711043
 46
6.658842651360698
 79
     2
 49
4.499063197150475
 49
-2772.552403711932
 53
173.253
 43
1988.541339499803
 44
7639.982386594005
 45
-0.0000485549711043
 46
6.658842651360698
 79
     2
 49
4.499063197150475
 49
-2772.552403711932
 53
173.253
 43
2010.962615449862
 44
7639.982386594005
 45
-0.0000485549711043
 46
6.658842651360698
 79
     2
 49
4.499063197150475
 49
-2772.552403711932
 53
173.253
 43
2033.383891399928
 44
7639.982386594005
 45
-0.0000485549711043
 46
6.658842651360698
 79
     2
 49
4.499063197150475
 49
-2772.552403711932
 53
173.253
 43
2055.805167349979
 44
7639.982386594005
 45
-0.0000485549711043
 46
6.658842651360698
 79
     2
 49
4.499063197150475
 49
-2772.552403711932
 53
173.253
 43
2078.226443300038
 44
7639.982386594005
 45
-0.0000485549711043
 46
6.658842651360698
 79
     2
 49
4.499063197150475
 49
-2772.552403711932
 53
173.253
 43
2100.647719250105
 44
7639.982386594005
 45
-0.0000485549711043
 46
6.658842651360698
 79
     2
 49
4.499063197150475
 49
-2772.552403711932
 53
173.253
 43
2123.068995200163
 44
7639.982386594005
 45
-0.0000485549711043
 46
6.658842651360698
 79
     2
 49
4.499063197150475
 49
-2772.552403711932
 53
173.253
 43
2145.490271150222
 44
7639.982386594005
 45
-0.0000485549711043
 46
6.658842651360698
 79
     2
 49
4.499063197150475
 49
-2772.552403711932
 53
173.253
 43
2167.911547100281
 44
7639.982386594005
 45
-0.0000485549711043
 46
6.658842651360698
 79
     2
 49
4.499063197150475
 49
-2772.552403711932
 53
173.253
 43
2190.332823050332
 44
7639.982386594005
 45
-0.0000485549711043
 46
6.658842651360698
 79
     2
 49
4.499063197150475
 49
-2772.552403711932
 53
173.253
 43
2212.754099000398
 44
7639.982386594005
 45
-0.0000485549711043
 46
6.658842651360698
 79
     2
 49
4.499063197150475
 49
-2772.552403711932
 53
173.253
 43
2235.175374950457
 44
7639.982386594005
 45
-0.0000485549711043
 46
6.658842651360698
 79
     2
 49
4.499063197150475
 49
-2772.552403711932
 53
173.253
 43
2257.596650900508
 44
7639.982386594005
 45
-0.0000485549711043
 46
6.658842651360698
 79
     2
 49
4.499063197150475
 49
-2772.552403711932
 53
173.253
 43
2280.017926850574
 44
7639.982386594005
 45
-0.0000485549711043
 46
6.658842651360698
 79
     2
 49
4.499063197150475
 49
-2772.552403711932
 53
173.253
 43
2302.439202800633
 44
7639.982386594005
 45
-0.0000485549711043
 46
6.658842651360698
 79
     2
 49
4.499063197150475
 49
-2772.552403711932
 53
173.253
 43
2324.860478750692
 44
7639.982386594005
 45
-0.0000485549711043
 46
6.658842651360698
 79
     2
 49
4.499063197150475
 49
-2772.552403711932
 53
173.253
 43
2347.281754700751
 44
7639.982386594005
 45
-0.0000485549711043
 46
6.658842651360698
 79
     2
 49
4.499063197150475
 49
-2772.552403711932
 53
173.253
 43
2369.703030650817
 44
7639.982386594005
 45
-0.0000485549711043
 46
6.658842651360698
 79
     2
 49
4.499063197150475
 49
-2772.552403711932
 53
173.253
 43
2392.124306600869
 44
7639.982386594005
 45
-0.0000485549711043
 46
6.658842651360698
 79
     2
 49
4.499063197150475
 49
-2772.552403711932
 53
164.891
 43
-341.1362559352583
 44
7639.007489585671
 45
0.0000018505729219
 46
6.658832203888029
 79
     2
 49
2.21249165070574
 49
-253.2524971607662
 53
164.891
 43
-318.7149799851923
 44
7639.007489585671
 45
0.0000018505729219
 46
6.658832203888029
 79
     2
 49
2.21249165070574
 49
-253.2524971607662
 53
164.891
 43
-296.2937040351335
 44
7639.007489585671
 45
0.0000018505729219
 46
6.658832203888029
 79
     2
 49
2.21249165070574
 49
-253.2524971607662
 53
164.891
 43
-273.8724280850675
 44
7639.007489585671
 45
0.0000018505729219
 46
6.658832203888029
 79
     2
 49
2.21249165070574
 49
-253.2524971607662
 53
164.891
 43
-251.4511521350087
 44
7639.007489585671
 45
0.0000018505729219
 46
6.658832203888029
 79
     2
 49
2.21249165070574
 49
-253.2524971607662
 53
164.891
 43
-229.0298761849572
 44
7639.007489585671
 45
0.0000018505729219
 46
6.658832203888029
 79
     2
 49
2.21249165070574
 49
-253.2524971607662
 53
164.891
 43
-206.6086002348911
 44
7639.007489585671
 45
0.0000018505729219
 46
6.658832203888029
 79
     2
 49
2.21249165070574
 49
-253.2524971607662
 53
164.891
 43
-184.1873242848323
 44
7639.007489585671
 45
0.0000018505729219
 46
6.658832203888029
 79
     2
 49
2.21249165070574
 49
-253.2524971607662
 53
164.891
 43
-161.76664623547
 44
7639.007489585671
 45
0.0000018505729219
 46
6.658832203888029
 79
     2
 49
2.21249165070574
 49
-253.2524971607662
 53
164.891
 43
-139.345370285404
 44
7639.007489585671
 45
0.0000018505729219
 46
6.658832203888029
 79
     2
 49
2.21249165070574
 49
-253.2524971607662
 53
164.891
 43
-116.9240943353525
 44
7639.007489585671
 45
0.0000018505729219
 46
6.658832203888029
 79
     2
 49
2.21249165070574
 49
-253.2524971607662
 53
157.062
 43
-347.7402484486102
 44
7640.511987096957
 45
-0.000049262359214
 46
6.658841673965036
 79
     2
 49
5.098976821481786
 49
-968.7608133197093
 53
157.062
 43
-325.318992428578
 44
7640.511987096957
 45
-0.000049262359214
 46
6.658841673965036
 79
     2
 49
5.098976821481786
 49
-968.7608133197093
 53
157.062
 43
-302.8977164785192
 44
7640.511987096957
 45
-0.000049262359214
 46
6.658841673965036
 79
     2
 49
5.098976821481786
 49
-968.7608133197093
 53
157.062
 43
-280.4764405284604
 44
7640.511987096957
 45
-0.000049262359214
 46
6.658841673965036
 79
     2
 49
5.098976821481786
 49
-968.7608133197093
 53
157.062
 43
-258.0551645783944
 44
7640.511987096957
 45
-0.000049262359214
 46
6.658841673965036
 79
     2
 49
5.098976821481786
 49
-968.7608133197093
 53
157.062
 43
-235.6338886283356
 44
7640.511987096957
 45
-0.000049262359214
 46
6.658841673965036
 79
     2
 49
5.098976821481786
 49
-968.7608133197093
 53
157.062
 43
-213.2126126782769
 44
7640.511987096957
 45
-0.000049262359214
 46
6.658841673965036
 79
     2
 49
5.098976821481786
 49
-968.7608133197093
 53
157.062
 43
-190.7913367282253
 44
7640.511987096957
 45
-0.000049262359214
 46
6.658841673965036
 79
     2
 49
5.098976821481786
 49
-968.7608133197093
 53
157.062
 43
-168.3700607781593
 44
7640.511987096957
 45
-0.000049262359214
 46
6.658841673965036
 79
     2
 49
5.098976821481786
 49
-968.7608133197093
 53
157.062
 43
-145.9481869274041
 44
7640.511987096957
 45
-0.000049262359214
 46
6.658841673965036
 79
     2
 49
5.098976821481786
 49
-968.7608133197093
 53
157.062
 43
-123.5269109773453
 44
7640.511987096957
 45
-0.000049262359214
 46
6.658841673965036
 79
     2
 49
5.098976821481786
 49
-968.7608133197093
 53
157.062
 43
-101.1056350272938
 44
7640.511987096957
 45
-0.000049262359214
 46
6.658841673965036
 79
     2
 49
5.098976821481786
 49
-968.7608133197093
 53
157.062
 43
-78.68435907722778
 44
7640.511987096957
 45
-0.000049262359214
 46
6.658841673965036
 79
     2
 49
5.098976821481786
 49
-968.7608133197093
 53
157.062
 43
-56.26308312718356
 44
7640.511987096957
 45
-0.000049262359214
 46
6.658841673965036
 79
     2
 49
5.098976821481786
 49
-968.7608133197093
 53
157.062
 43
-33.84180717710297
 44
7640.511987096957
 45
-0.000049262359214
 46
6.658841673965036
 79
     2
 49
5.098976821481786
 49
-968.7608133197093
 53
157.062
 43
-11.42053122705874
 44
7640.511987096957
 45
-0.000049262359214
 46
6.658841673965036
 79
     2
 49
5.098976821481786
 49
-968.7608133197093
 53
157.062
 43
11.0007447230073
 44
7640.511987096957
 45
-0.000049262359214
 46
6.658841673965036
 79
     2
 49
5.098976821481786
 49
-968.7608133197093
 53
157.062
 43
33.42202067306607
 44
7640.511987096957
 45
-0.000049262359214
 46
6.658841673965036
 79
     2
 49
5.098976821481786
 49
-968.7608133197093
 53
157.062
 43
55.84329662313212
 44
7640.511987096957
 45
-0.000049262359214
 46
6.658841673965036
 79
     2
 49
5.098976821481786
 49
-968.7608133197093
 53
157.062
 43
78.26457257318361
 44
7640.511987096957
 45
-0.000049262359214
 46
6.658841673965036
 79
     2
 49
5.098976821481786
 49
-968.7608133197093
 53
157.062
 43
100.6858485232424
 44
7640.511987096957
 45
-0.000049262359214
 46
6.658841673965036
 79
     2
 49
5.098976821481786
 49
-968.7608133197093
 53
157.062
 43
123.1071244733011
 44
7640.511987096957
 45
-0.000049262359214
 46
6.658841673965036
 79
     2
 49
5.098976821481786
 49
-968.7608133197093
 53
157.062
 43
145.5284004233672
 44
7640.511987096957
 45
-0.000049262359214
 46
6.658841673965036
 79
     2
 49
5.098976821481786
 49
-968.7608133197093
 53
157.062
 43
167.9496763734259
 44
7640.511987096957
 45
-0.000049262359214
 46
6.658841673965036
 79
     2
 49
5.098976821481786
 49
-968.7608133197093
 53
157.062
 43
190.3709523234774
 44
7640.511987096957
 45
-0.000049262359214
 46
6.658841673965036
 79
     2
 49
5.098976821481786
 49
-968.7608133197093
 53
157.062
 43
212.7922282735435
 44
7640.511987096957
 45
-0.000049262359214
 46
6.658841673965036
 79
     2
 49
5.098976821481786
 49
-968.7608133197093
 53
157.062
 43
235.2135042236023
 44
7640.511987096957
 45
-0.000049262359214
 46
6.658841673965036
 79
     2
 49
5.098976821481786
 49
-968.7608133197093
 53
157.062
 43
257.6347801736538
 44
7640.511987096957
 45
-0.000049262359214
 46
6.658841673965036
 79
     2
 49
5.098976821481786
 49
-968.7608133197093
 53
157.062
 43
280.0560561237198
 44
7640.511987096957
 45
-0.000049262359214
 46
6.658841673965036
 79
     2
 49
5.098976821481786
 49
-968.7608133197093
 53
157.062
 43
302.4773320737786
 44
7640.511987096957
 45
-0.000049262359214
 46
6.658841673965036
 79
     2
 49
5.098976821481786
 49
-968.7608133197093
 53
157.062
 43
324.8986080238374
 44
7640.511987096957
 45
-0.000049262359214
 46
6.658841673965036
 79
     2
 49
5.098976821481786
 49
-968.7608133197093
 53
157.062
 43
347.3198839738961
 44
7640.511987096957
 45
-0.000049262359214
 46
6.658841673965036
 79
     2
 49
5.098976821481786
 49
-968.7608133197093
 53
157.062
 43
369.7411599239622
 44
7640.511987096957
 45
-0.000049262359214
 46
6.658841673965036
 79
     2
 49
5.098976821481786
 49
-968.7608133197093
 53
157.062
 43
392.1624358740137
 44
7640.511987096957
 45
-0.000049262359214
 46
6.658841673965036
 79
     2
 49
5.098976821481786
 49
-968.7608133197093
 53
157.062
 43
414.5837118240724
 44
7640.511987096957
 45
-0.000049262359214
 46
6.658841673965036
 79
     2
 49
5.098976821481786
 49
-968.7608133197093
 53
157.062
 43
437.0049877741385
 44
7640.511987096957
 45
-0.000049262359214
 46
6.658841673965036
 79
     2
 49
5.098976821481786
 49
-968.7608133197093
 53
157.062
 43
459.4262637241972
 44
7640.511987096957
 45
-0.000049262359214
 46
6.658841673965036
 79
     2
 49
5.098976821481786
 49
-968.7608133197093
 53
157.062
 43
481.8475396742488
 44
7640.511987096957
 45
-0.000049262359214
 46
6.658841673965036
 79
     2
 49
5.098976821481786
 49
-968.7608133197093
 53
157.062
 43
504.2688156243075
 44
7640.511987096957
 45
-0.000049262359214
 46
6.658841673965036
 79
     2
 49
5.098976821481786
 49
-968.7608133197093
 53
157.062
 43
526.6900915743735
 44
7640.511987096957
 45
-0.000049262359214
 46
6.658841673965036
 79
     2
 49
5.098976821481786
 49
-968.7608133197093
 53
142.435
 43
-357.3087920331036
 44
7636.542790468564
 45
0.0000333619258157
 46
6.658835289119042
 79
     2
 49
2.738006498929002
 49
-1100.412526831495
 53
142.435
 43
-334.8875958031367
 44
7636.542790468564
 45
0.0000333619258157
 46
6.658835289119042
 79
     2
 49
2.738006498929002
 49
-1100.412526831495
 53
142.435
 43
-312.4663198530779
 44
7636.542790468564
 45
0.0000333619258157
 46
6.658835289119042
 79
     2
 49
2.738006498929002
 49
-1100.412526831495
 53
142.435
 43
-290.0450439030265
 44
7636.542790468564
 45
0.0000333619258157
 46
6.658835289119042
 79
     2
 49
2.738006498929002
 49
-1100.412526831495
 53
142.435
 43
-267.6237679529677
 44
7636.542790468564
 45
0.0000333619258157
 46
6.658835289119042
 79
     2
 49
2.738006498929002
 49
-1100.412526831495
 53
142.435
 43
-245.2024920029016
 44
7636.542790468564
 45
0.0000333619258157
 46
6.658835289119042
 79
     2
 49
2.738006498929002
 49
-1100.412526831495
 53
142.435
 43
-222.7812160528574
 44
7636.542790468564
 45
0.0000333619258157
 46
6.658835289119042
 79
     2
 49
2.738006498929002
 49
-1100.412526831495
 53
142.435
 43
-200.3599401027841
 44
7636.542790468564
 45
0.0000333619258157
 46
6.658835289119042
 79
     2
 49
2.738006498929002
 49
-1100.412526831495
 53
142.435
 43
-177.9386641527326
 44
7636.542790468564
 45
0.0000333619258157
 46
6.658835289119042
 79
     2
 49
2.738006498929002
 49
-1100.412526831495
 53
142.435
 43
-155.5165910017404
 44
7636.542790468564
 45
0.0000333619258157
 46
6.658835289119042
 79
     2
 49
2.738006498929002
 49
-1100.412526831495
 53
142.435
 43
-133.0953150516816
 44
7636.542790468564
 45
0.0000333619258157
 46
6.658835289119042
 79
     2
 49
2.738006498929002
 49
-1100.412526831495
 53
142.435
 43
-110.6740391016228
 44
7636.542790468564
 45
0.0000333619258157
 46
6.658835289119042
 79
     2
 49
2.738006498929002
 49
-1100.412526831495
 53
142.435
 43
-88.25276315156406
 44
7636.542790468564
 45
0.0000333619258157
 46
6.658835289119042
 79
     2
 49
2.738006498929002
 49
-1100.412526831495
 53
142.435
 43
-65.83148720149802
 44
7636.542790468564
 45
0.0000333619258157
 46
6.658835289119042
 79
     2
 49
2.738006498929002
 49
-1100.412526831495
 53
142.435
 43
-43.41021125143925
 44
7636.542790468564
 45
0.0000333619258157
 46
6.658835289119042
 79
     2
 49
2.738006498929002
 49
-1100.412526831495
 53
142.435
 43
-20.98893530138775
 44
7636.542790468564
 45
0.0000333619258157
 46
6.658835289119042
 79
     2
 49
2.738006498929002
 49
-1100.412526831495
 53
142.435
 43
1.432340648678291
 44
7636.542790468564
 45
0.0000333619258157
 46
6.658835289119042
 79
     2
 49
2.738006498929002
 49
-1100.412526831495
 53
142.435
 43
23.85361659872978
 44
7636.542790468564
 45
0.0000333619258157
 46
6.658835289119042
 79
     2
 49
2.738006498929002
 49
-1100.412526831495
 53
142.435
 43
46.27489254880311
 44
7636.542790468564
 45
0.0000333619258157
 46
6.658835289119042
 79
     2
 49
2.738006498929002
 49
-1100.412526831495
 53
142.435
 43
68.6961684988546
 44
7636.542790468564
 45
0.0000333619258157
 46
6.658835289119042
 79
     2
 49
2.738006498929002
 49
-1100.412526831495
 53
142.435
 43
91.11744444891337
 44
7636.542790468564
 45
0.0000333619258157
 46
6.658835289119042
 79
     2
 49
2.738006498929002
 49
-1100.412526831495
 53
142.435
 43
113.5387203989721
 44
7636.542790468564
 45
0.0000333619258157
 46
6.658835289119042
 79
     2
 49
2.738006498929002
 49
-1100.412526831495
 53
142.435
 43
135.9599963490382
 44
7636.542790468564
 45
0.0000333619258157
 46
6.658835289119042
 79
     2
 49
2.738006498929002
 49
-1100.412526831495
 53
142.435
 43
158.381272299097
 44
7636.542790468564
 45
0.0000333619258157
 46
6.658835289119042
 79
     2
 49
2.738006498929002
 49
-1100.412526831495
 53
142.435
 43
180.8025482491484
 44
7636.542790468564
 45
0.0000333619258157
 46
6.658835289119042
 79
     2
 49
2.738006498929002
 49
-1100.412526831495
 53
142.435
 43
203.2238241992072
 44
7636.542790468564
 45
0.0000333619258157
 46
6.658835289119042
 79
     2
 49
2.738006498929002
 49
-1100.412526831495
 53
142.435
 43
225.6451001492733
 44
7636.542790468564
 45
0.0000333619258157
 46
6.658835289119042
 79
     2
 49
2.738006498929002
 49
-1100.412526831495
 53
142.435
 43
248.0663760993248
 44
7636.542790468564
 45
0.0000333619258157
 46
6.658835289119042
 79
     2
 49
2.738006498929002
 49
-1100.412526831495
 53
142.435
 43
270.4876520493836
 44
7636.542790468564
 45
0.0000333619258157
 46
6.658835289119042
 79
     2
 49
2.738006498929002
 49
-1100.412526831495
 53
142.435
 43
292.9089279994423
 44
7636.542790468564
 45
0.0000333619258157
 46
6.658835289119042
 79
     2
 49
2.738006498929002
 49
-1100.412526831495
 53
142.435
 43
315.3302039495084
 44
7636.542790468564
 45
0.0000333619258157
 46
6.658835289119042
 79
     2
 49
2.738006498929002
 49
-1100.412526831495
 53
142.435
 43
337.7514798995671
 44
7636.542790468564
 45
0.0000333619258157
 46
6.658835289119042
 79
     2
 49
2.738006498929002
 49
-1100.412526831495
 53
142.435
 43
360.1727558496186
 44
7636.542790468564
 45
0.0000333619258157
 46
6.658835289119042
 79
     2
 49
2.738006498929002
 49
-1100.412526831495
 53
142.435
 43
382.5940317996847
 44
7636.542790468564
 45
0.0000333619258157
 46
6.658835289119042
 79
     2
 49
2.738006498929002
 49
-1100.412526831495
 53
142.435
 43
405.0153077497434
 44
7636.542790468564
 45
0.0000333619258157
 46
6.658835289119042
 79
     2
 49
2.738006498929002
 49
-1100.412526831495
 53
142.435
 43
427.4365836998095
 44
7636.542790468564
 45
0.0000333619258157
 46
6.658835289119042
 79
     2
 49
2.738006498929002
 49
-1100.412526831495
 53
142.435
 43
449.8578596498682
 44
7636.542790468564
 45
0.0000333619258157
 46
6.658835289119042
 79
     2
 49
2.738006498929002
 49
-1100.412526831495
 53
142.435
 43
472.279135599927
 44
7636.542790468564
 45
0.0000333619258157
 46
6.658835289119042
 79
     2
 49
2.738006498929002
 49
-1100.412526831495
 53
142.435
 43
494.7004115499785
 44
7636.542790468564
 45
0.0000333619258157
 46
6.658835289119042
 79
     2
 49
2.738006498929002
 49
-1100.412526831495
 53
115.046
 43
-339.9430454542399
 44
7636.453676359927
 45
-0.000053614328815
 46
6.658838208780605
 79
     2
 49
2.818862602510648
 49
-1797.918053154254
 53
115.046
 43
-317.5217695041884
 44
7636.453676359927
 45
-0.000053614328815
 46
6.658838208780605
 79
     2
 49
2.818862602510648
 49
-1797.918053154254
 53
115.046
 43
-295.1004935541296
 44
7636.453676359927
 45
-0.000053614328815
 46
6.658838208780605
 79
     2
 49
2.818862602510648
 49
-1797.918053154254
 53
115.046
 43
-272.6792176040708
 44
7636.453676359927
 45
-0.000053614328815
 46
6.658838208780605
 79
     2
 49
2.818862602510648
 49
-1797.918053154254
 53
115.046
 43
-250.2579416540048
 44
7636.453676359927
 45
-0.000053614328815
 46
6.658838208780605
 79
     2
 49
2.818862602510648
 49
-1797.918053154254
 53
115.046
 43
-227.836665703946
 44
7636.453676359927
 45
-0.000053614328815
 46
6.658838208780605
 79
     2
 49
2.818862602510648
 49
-1797.918053154254
 53
115.046
 43
-205.4153897538872
 44
7636.453676359927
 45
-0.000053614328815
 46
6.658838208780605
 79
     2
 49
2.818862602510648
 49
-1797.918053154254
 53
115.046
 43
-182.9941138038357
 44
7636.453676359927
 45
-0.000053614328815
 46
6.658838208780605
 79
     2
 49
2.818862602510648
 49
-1797.918053154254
 53
115.046
 43
-160.5728378537624
 44
7636.453676359927
 45
-0.000053614328815
 46
6.658838208780605
 79
     2
 49
2.818862602510648
 49
-1797.918053154254
 53
115.046
 43
-138.1515619037109
 44
7636.453676359927
 45
-0.000053614328815
 46
6.658838208780605
 79
     2
 49
2.818862602510648
 49
-1797.918053154254
 53
115.046
 43
-115.7302859536448
 44
7636.453676359927
 45
-0.000053614328815
 46
6.658838208780605
 79
     2
 49
2.818862602510648
 49
-1797.918053154254
 53
115.046
 43
-93.30901000359336
 44
7636.453676359927
 45
-0.000053614328815
 46
6.658838208780605
 79
     2
 49
2.818862602510648
 49
-1797.918053154254
 53
115.046
 43
-70.88773405353459
 44
7636.453676359927
 45
-0.000053614328815
 46
6.658838208780605
 79
     2
 49
2.818862602510648
 49
-1797.918053154254
 53
115.046
 43
-48.46645810347581
 44
7636.453676359927
 45
-0.000053614328815
 46
6.658838208780605
 79
     2
 49
2.818862602510648
 49
-1797.918053154254
 53
115.046
 43
-26.04518215340977
 44
7636.453676359927
 45
-0.000053614328815
 46
6.658838208780605
 79
     2
 49
2.818862602510648
 49
-1797.918053154254
 53
115.046
 43
-3.623906203350998
 44
7636.453676359927
 45
-0.000053614328815
 46
6.658838208780605
 79
     2
 49
2.818862602510648
 49
-1797.918053154254
 53
115.046
 43
18.79736974671505
 44
7636.453676359927
 45
-0.000053614328815
 46
6.658838208780605
 79
     2
 49
2.818862602510648
 49
-1797.918053154254
 53
115.046
 43
41.21864569676654
 44
7636.453676359927
 45
-0.000053614328815
 46
6.658838208780605
 79
     2
 49
2.818862602510648
 49
-1797.918053154254
 53
115.046
 43
63.63992164682532
 44
7636.453676359927
 45
-0.000053614328815
 46
6.658838208780605
 79
     2
 49
2.818862602510648
 49
-1797.918053154254
 53
115.046
 43
86.06119759689136
 44
7636.453676359927
 45
-0.000053614328815
 46
6.658838208780605
 79
     2
 49
2.818862602510648
 49
-1797.918053154254
 53
115.046
 43
108.4824735469356
 44
7636.453676359927
 45
-0.000053614328815
 46
6.658838208780605
 79
     2
 49
2.818862602510648
 49
-1797.918053154254
 53
115.046
 43
130.9037494970089
 44
7636.453676359927
 45
-0.000053614328815
 46
6.658838208780605
 79
     2
 49
2.818862602510648
 49
-1797.918053154254
 53
115.046
 43
153.3250254470604
 44
7636.453676359927
 45
-0.000053614328815
 46
6.658838208780605
 79
     2
 49
2.818862602510648
 49
-1797.918053154254
 53
115.046
 43
175.7463013971264
 44
7636.453676359927
 45
-0.000053614328815
 46
6.658838208780605
 79
     2
 49
2.818862602510648
 49
-1797.918053154254
 53
115.046
 43
198.1675773471779
 44
7636.453676359927
 45
-0.000053614328815
 46
6.658838208780605
 79
     2
 49
2.818862602510648
 49
-1797.918053154254
 53
115.046
 43
220.5888532972513
 44
7636.453676359927
 45
-0.000053614328815
 46
6.658838208780605
 79
     2
 49
2.818862602510648
 49
-1797.918053154254
 53
115.046
 43
243.0101292472955
 44
7636.453676359927
 45
-0.000053614328815
 46
6.658838208780605
 79
     2
 49
2.818862602510648
 49
-1797.918053154254
 53
115.046
 43
265.4314051973615
 44
7636.453676359927
 45
-0.000053614328815
 46
6.658838208780605
 79
     2
 49
2.818862602510648
 49
-1797.918053154254
 53
115.046
 43
287.8526811474203
 44
7636.453676359927
 45
-0.000053614328815
 46
6.658838208780605
 79
     2
 49
2.818862602510648
 49
-1797.918053154254
 53
115.046
 43
310.2739570974863
 44
7636.453676359927
 45
-0.000053614328815
 46
6.658838208780605
 79
     2
 49
2.818862602510648
 49
-1797.918053154254
 53
115.046
 43
332.6952330475306
 44
7636.453676359927
 45
-0.000053614328815
 46
6.658838208780605
 79
     2
 49
2.818862602510648
 49
-1797.918053154254
 53
115.046
 43
355.1165089976039
 44
7636.453676359927
 45
-0.000053614328815
 46
6.658838208780605
 79
     2
 49
2.818862602510648
 49
-1797.918053154254
 53
115.046
 43
377.5377849476554
 44
7636.453676359927
 45
-0.000053614328815
 46
6.658838208780605
 79
     2
 49
2.818862602510648
 49
-1797.918053154254
 53
115.046
 43
399.9590608977214
 44
7636.453676359927
 45
-0.000053614328815
 46
6.658838208780605
 79
     2
 49
2.818862602510648
 49
-1797.918053154254
 53
104.0759999999998
 43
-359.4790918249874
 44
7638.212058449048
 45
0.0000489474577988
 46
6.658832178583098
 79
     2
 49
1.619673114586162
 49
-643.688285735482
 53
104.0759999999998
 43
-337.0577760148754
 44
7638.212058449048
 45
0.0000489474577988
 46
6.658832178583098
 79
     2
 49
1.619673114586162
 49
-643.688285735482
 53
104.0759999999998
 43
-314.6365000648166
 44
7638.212058449048
 45
0.0000489474577988
 46
6.658832178583098
 79
     2
 49
1.619673114586162
 49
-643.688285735482
 53
104.0759999999998
 43
-292.2152241147505
 44
7638.212058449048
 45
0.0000489474577988
 46
6.658832178583098
 79
     2
 49
1.619673114586162
 49
-643.688285735482
 53
104.0759999999998
 43
-269.7939481647063
 44
7638.212058449048
 45
0.0000489474577988
 46
6.658832178583098
 79
     2
 49
1.619673114586162
 49
-643.688285735482
 53
104.0759999999998
 43
-247.3726722146257
 44
7638.212058449048
 45
0.0000489474577988
 46
6.658832178583098
 79
     2
 49
1.619673114586162
 49
-643.688285735482
 53
104.0759999999998
 43
-224.9513962645815
 44
7638.212058449048
 45
0.0000489474577988
 46
6.658832178583098
 79
     2
 49
1.619673114586162
 49
-643.688285735482
 98
        1
 10
347.5425961638594
 20
1267.492270611561
  0
LINE
  5
904C
330
67
100
AcDbEntity
  8
F_01 sichtbar
370
    13
100
AcDbLine
 10
445.8860481881183
 20
655.5382409384474
 30
0.0
 11
445.8860481881183
 21
438.5382407807482
 31
0.0
  0
LINE
  5
904D
330
67
100
AcDbEntity
  8
F_01 sichtbar
370
    13
100
AcDbLine
 10
423.8860481881183
 20
438.5382407807447
 30
0.0
 11
423.8860481881183
 21
655.538240938451
 31
0.0
  0
HATCH
  5
904E
330
67
100
AcDbEntity
  8
F_01 sichtbar
370
    13
100
AcDbHatch
 10
0.0
 20
0.0
 30
0.0
210
0.0
220
0.0
230
1.0
  2
JIS_WOOD
 70
     0
 71
     0
 91
        1
 92
        1
 93
        8
 72
     1
 10
423.8860510102149
 20
438.5382407807482
 11
432.3860934616659
 21
438.5382407807482
 72
     1
 10
432.3860934616659
 20
438.5382407807482
 11
432.3860934616659
 21
449.5382407807483
 72
     1
 10
432.3860934616659
 20
449.5382407807483
 11
436.3860934616659
 21
449.5382407807483
 72
     1
 10
436.3860934616659
 20
449.5382407807483
 11
436.3860934616659
 21
438.5382407807482
 72
     1
 10
436.3860934616659
 20
438.5382407807482
 11
445.8860347048739
 21
438.5382407807482
 72
     1
 10
445.8860347048739
 20
438.5382407807482
 11
445.8860422257185
 21
655.5382409384492
 72
     1
 10
445.8860422257185
 20
655.5382409384474
 11
423.8860494360688
 21
655.5382409384474
 72
     1
 10
423.8860494360688
 20
655.5382409384474
 11
423.8860510102149
 21
438.5382407807465
 97
        0
 75
     0
 76
     1
 52
315.0
 41
30.0
 77
     0
 78
     1
 53
0.0
 43
-23286.43487095853
 44
-14033.47811229788
 45
0.0000000000000071
 46
21.2132034
 79
     0
 98
        1
 10
-23286.43487095853
 20
-14033.47811229788
1001
ACAD
1010
0.0
1020
0.0
1030
0.0
  0
LWPOLYLINE
  5
904F
330
67
100
AcDbEntity
  8
F_01 sichtbar
370
    13
100
AcDbPolyline
 90
        6
 70
     1
 43
0.0
 10
447.3860934616659
 20
655.538240938451
 10
447.3860934616659
 20
674.538240938451
 10
446.386093461666
 20
675.538240938451
 10
388.3860934616659
 20
675.538240938451
 10
387.386093461666
 20
674.538240938451
 10
387.386093461666
 20
655.538240938451
  0
LINE
  5
9050
330
67
100
AcDbEntity
  8
F_01 sichtbar
370
    13
100
AcDbLine
 10
446.386093461666
 20
675.538240938451
 30
0.0
 11
638.7284710880685
 21
675.538240938451
 31
0.0
  0
LWPOLYLINE
  5
9051
330
67
100
AcDbEntity
  8
F_01 sichtbar
370
    13
100
AcDbPolyline
 90
        2
 70
     0
 43
0.0
 10
388.3860934616659
 20
675.538240938451
 10
447.3860934616659
 20
655.538240938451
  0
LWPOLYLINE
  5
9052
330
67
100
AcDbEntity
  8
F_01 sichtbar
370
    13
100
AcDbPolyline
 90
        2
 70
     0
 43
0.0
 10
446.386093461666
 20
675.538240938451
 10
387.386093461666
 20
655.538240938451
  0
HATCH
  5
9053
330
67
100
AcDbEntity
  8
F_01 sichtbar
370
    13
100
AcDbHatch
 10
0.0
 20
0.0
 30
0.0
210
0.0
220
0.0
230
1.0
  2
JIS_WOOD
 70
     0
 71
     0
 91
        1
 92
        1
 93
        4
 72
     1
 10
638.7284710880685
 20
356.5382407807483
 11
461.8861000455781
 21
356.5382407807465
 72
     1
 10
461.8861000455781
 20
356.5382407807483
 11
461.8861000455781
 21
317.5382407807483
 72
     1
 10
461.8861000455781
 20
317.5382407807483
 11
638.7284710880757
 21
317.5382407807501
 72
     1
 10
638.7284710880757
 20
317.5382407807483
 11
638.7284710880685
 21
356.5382407807483
 97
        0
 75
     0
 76
     1
 52
45.0
 41
25.0
 77
     0
 78
     1
 53
90.0
 43
-5647.014700421613
 44
2079.756747140582
 45
-17.6776695
 46
0.0000000000000036
 79
     0
 98
        1
 10
500.5950560126493
 20
335.4534179647526
  0
LWPOLYLINE
  5
9054
330
67
100
AcDbEntity
  8
F_01 sichtbar
370
    13
100
AcDbPolyline
 90
        8
 70
     1
 43
0.0
 10
433.3860934616659
 20
448.5382407807483
 10
435.3860934616659
 20
448.5382407807483
 10
436.3860934616659
 20
447.5382407807483
 10
436.3860934616659
 20
429.5382407807482
 10
435.3860934616659
 20
428.5382407807483
 10
433.3860934616659
 20
428.5382407807483
 10
432.3860934616659
 20
429.5382407807482
 10
432.3860934616659
 20
447.5382407807483
  0
MTEXT
  5
9055
330
67
100
AcDbEntity
  8
F_01 sichtbar
370
    13
100
AcDbMText
 10
466.7888217937051
 20
471.4402195220572
 30
0.0
 40
15.0
 41
187.1747820159653
 71
     1
 72
     5
  1
\A1;{\fArial Narrow|b0|i0|c0|p34;Eiche\P\PBrandschutz-\Plaminat}
 73
     1
 44
1.0
  0
LINE
  5
9056
330
67
100
AcDbEntity
  8
F_01 sichtbar
370
    13
100
AcDbLine
 10
453.965194415452
 20
437.0184305892035
 30
0.0
 11
464.1947629741389
 21
457.9782341848149
 31
0.0
  0
SOLID
  5
9057
330
67
100
AcDbEntity
  8
F_01 sichtbar
370
    13
100
AcDbTrace
 10
456.2118927168612
 20
435.9219148608899
 30
0.0
 11
451.7184961140428
 21
438.1149463175169
 31
0.0
 12
447.3861000455635
 22
423.5382407807483
 32
0.0
 13
447.3861000455635
 23
423.5382407807483
 33
0.0
  0
HATCH
  5
9058
330
67
100
AcDbEntity
  8
F_24 Schr-Messing hell
370
    13
100
AcDbHatch
 10
0.0
 20
0.0
 30
0.0
210
0.0
220
0.0
230
1.0
  2
SOLID
 70
     1
 71
     0
 91
        1
 92
        7
 72
     1
 73
     1
 93
       65
 10
441.4861090515751
 20
363.28824084382
 42
-0.4142135623735426
 10
441.7361090252943
 20
363.5382408701007
 42
0.0
 10
442.3861005711787
 20
363.5382409384256
 42
0.0
 10
442.3861004870832
 20
364.3382409384249
 42
0.0
 10
441.7361089411915
 20
364.3382408701
 42
-0.4142135623741744
 10
441.4861089149107
 20
364.5882408438192
 42
0.0
 10
441.4861087362132
 20
366.2882408438199
 42
-0.4142135623721543
 10
441.7361087099325
 20
366.5382408701007
 42
0.0
 10
442.3861002558096
 20
366.5382409384256
 42
0.0
 10
442.3861001717141
 20
367.3382409384249
 42
0.0
 10
441.7361086258369
 20
367.3382408701
 42
-0.414213562367906
 10
441.4861085995562
 20
367.5882408438156
 42
0.0
 10
441.4861085785287
 20
367.7882408438236
 42
0.4142135623680808
 10
441.2361085522479
 20
368.0382408175392
 42
0.0
 10
440.3861085522494
 20
368.0382407281868
 42
0.0
 10
439.5361085522508
 20
368.0382406388344
 42
0.4142135623674539
 10
439.2861085785316
 20
367.7882406125573
 42
0.0
 10
439.2861085995519
 20
367.5882406125456
 42
-0.4142135623676283
 10
439.0361086258326
 20
367.3382405862721
 42
0.0
 10
438.3861001717141
 20
367.3382405179436
 42
0.0
 10
438.3861002558096
 20
366.5382405179407
 42
0.0
 10
439.0361087099281
 20
366.5382405862729
 42
-0.414213562373848
 10
439.2861087362089
 20
366.2882406125573
 42
0.0
 10
439.2861089149136
 20
364.5882406125529
 42
-0.4142135623732691
 10
439.0361089411944
 20
364.3382405862721
 42
0.0
 10
438.3861004870832
 20
364.3382405179437
 42
0.0
 10
438.3861005711787
 20
363.5382405179407
 42
0.0
 10
439.0361090252899
 20
363.5382405862729
 42
-0.4142135623737132
 10
439.2861090515707
 20
363.2882406125536
 42
0.0
 10
439.2861092729199
 20
361.1825781798507
 42
-0.2679491924300823
 10
439.1611092956791
 20
360.9660718157647
 42
0.0
 10
438.4200836637664
 20
360.5382403638359
 42
0.0
 10
434.8861093406576
 20
360.5382399923365
 42
0.0
 10
434.8861094457734
 20
359.5382401500174
 42
0.0
 10
437.8860753872995
 20
356.5382748392149
 42
0.0
 10
439.0760007174521
 20
356.5382748392149
 42
0.3381944148685474
 10
438.6185329419658
 20
356.9371881695151
 42
0.0
 10
436.4442570358423
 20
359.1114636185193
 42
-0.6681786379188949
 10
436.6210336862695
 20
359.5382403323965
 42
0.0
 10
439.7486072315277
 20
359.5382406611716
 42
-0.3394542588692277
 10
439.8451998219443
 20
359.4641225758351
 42
0.0
 10
439.8858648279619
 20
359.3123587710943
 42
0.3394542588728134
 10
439.9824574183858
 20
359.2382406857542
 42
0.5062003636121873
 10
440.1255845956239
 20
359.3123587962909
 42
0.0
 10
440.1662495697437
 20
359.4641226095919
 42
-0.3394542588510407
 10
440.2628421445752
 20
359.5382407152283
 42
0.0
 10
440.3861094457806
 20
359.5382407281868
 42
0.0
 10
440.5093767469861
 20
359.5382407411453
 42
-0.3394542588693955
 10
440.6059693374027
 20
359.4641226558088
 42
0.0
 10
440.6466343434203
 20
359.312358851068
 42
0.339454258871975
 10
440.7432269338442
 20
359.2382407657278
 42
0.5062003636077593
 10
440.8863541110823
 20
359.312358876261
 42
0.0
 10
440.9270190852021
 20
359.4641226895656
 42
-0.3394542588528795
 10
441.0236116600335
 20
359.538240795202
 42
0.0
 10
444.1511852052845
 20
359.538241123977
 42
-0.668178637919139
 10
444.327961945446
 20
359.1114644472618
 42
0.0
 10
441.7547728783956
 20
356.5382748392149
 42
0.0
 10
442.8861436093557
 20
356.5382748392149
 42
0.0
 10
445.8861094457733
 20
359.5382413063526
 42
0.0
 10
445.8861093406576
 20
360.5382411486717
 42
0.0
 10
442.3861008865405
 20
360.5382407807483
 42
0.0
 10
442.3861008863077
 20
360.5404313275248
 42
-0.0980945955796495
 10
442.2941220390257
 20
360.5717345778139
 42
0.0
 10
441.6111092956835
 20
360.9660720733118
 42
-0.2679491924307705
 10
441.4861092729243
 20
361.182578411117
 42
0.0
 97
        0
 75
     0
 76
     1
 47
0.0913082291598871
 98
        1
 10
440.108063694488
 20
361.9951474072877
450
        0
451
        0
460
0.0
461
0.0
452
        1
462
1.0
453
        2
463
0.0
 63
     5
421
      255
463
1.0
 63
     7
421
 16777215
470
LINEAR
1001
ACAD
1010
0.0
1020
0.0
1030
0.0
  0
MTEXT
  5
9059
330
67
100
AcDbEntity
  8
F_01 sichtbar
370
    13
100
AcDbMText
 10
290.4424738816433
 20
755.538240938451
 30
0.0
 40
30.0
 41
187.1747820159653
 71
     1
 72
     5
  1
\A1;{\fArial Narrow|b1|i0|c0|p34;A}
 73
     1
 44
1.0
  0
POLYLINE
  5
905A
330
67
100
AcDbEntity
  8
F_01 sichtbar
370
    13
100
AcDb2dPolyline
 66
     1
 10
0.0
 20
0.0
 30
0.0
 70
     1
  0
VERTEX
  5
905B
330
905A
100
AcDbEntity
  8
F_01 sichtbar
370
    13
100
AcDbVertex
100
AcDb2dVertex
 10
422.3861197780043
 20
655.538240938451
 30
0.0
  0
VERTEX
  5
905C
330
905A
100
AcDbEntity
  8
F_01 sichtbar
370
    13
100
AcDbVertex
100
AcDb2dVertex
 10
422.3860934616659
 20
438.5382407807482
 30
0.0
  0
VERTEX
  5
905D
330
905A
100
AcDbEntity
  8
F_01 sichtbar
370
    13
100
AcDbVertex
100
AcDb2dVertex
 10
432.3860934616659
 20
438.5382407807482
 30
0.0
  0
VERTEX
  5
905E
330
905A
100
AcDbEntity
  8
F_01 sichtbar
370
    13
100
AcDbVertex
100
AcDb2dVertex
 10
432.3860934616659
 20
449.5382407807483
 30
0.0
  0
VERTEX
  5
905F
330
905A
100
AcDbEntity
  8
F_01 sichtbar
370
    13
100
AcDbVertex
100
AcDb2dVertex
 10
436.3860934616659
 20
449.5382407807483
 30
0.0
  0
VERTEX
  5
9060
330
905A
100
AcDbEntity
  8
F_01 sichtbar
370
    13
100
AcDbVertex
100
AcDb2dVertex
 10
436.3860934616659
 20
438.5382407807482
 30
0.0
  0
VERTEX
  5
9061
330
905A
100
AcDbEntity
  8
F_01 sichtbar
370
    13
100
AcDbVertex
100
AcDb2dVertex
 10
447.3860934616659
 20
438.5382407807482
 30
0.0
  0
VERTEX
  5
9062
330
905A
100
AcDbEntity
  8
F_01 sichtbar
370
    13
100
AcDbVertex
100
AcDb2dVertex
 10
447.3860934616659
 20
655.538240938451
 30
0.0
  0
SEQEND
  5
9063
330
905A
100
AcDbEntity
  8
F_01 sichtbar
370
    13
  0
ENDSEC
  0
SECTION
  2
OBJECTS
  0
DICTIONARY
  5
C
330
0
100
AcDbDictionary
281
     1
  3
ACAD_2007HEADERVARS_RT
350
9070
  3
ACAD_COLOR
350
5E
  3
ACAD_GROUP
350
D
  3
ACAD_LAYOUT
350
5D
  3
ACAD_MATERIAL
350
10
  3
ACAD_MLEADERSTYLE
350
61
  3
ACAD_MLINESTYLE
350
5A
  3
ACAD_PLOTSETTINGS
350
5C
  3
ACAD_PLOTSTYLENAME
350
E
  3
ACAD_SCALELIST
350
3D
  3
ACAD_TABLESTYLE
350
5F
  3
ACAD_VISUALSTYLE
350
29
  3
ACDB_RECOMPOSE_DATA
350
906F
  3
AcDbVariableDictionary
350
9064
  3
AEC_PROPERTY_SET_DEFS
350
8FFC
  0
DICTIONARY
  5
8F8F
330
2
100
AcDbDictionary
280
     1
281
     1
  3
ACAD_LAYERSTATES
360
8F90
  0
DICTIONARY
  5
8F84
330
8F83
100
AcDbDictionary
280
     1
281
     1
  0
DICTIONARY
  5
8F77
330
8F76
100
AcDbDictionary
280
     1
281
     1
  3
ACAD_SORTENTS
360
8F78
  0
DICTIONARY
  5
9070
102
{ACAD_REACTORS
330
C
102
}
330
C
100
AcDbDictionary
281
     1
  3
DIMJOGANG
350
9071
  0
DICTIONARY
  5
5E
102
{ACAD_REACTORS
330
C
102
}
330
C
100
AcDbDictionary
281
     1
  0
DICTIONARY
  5
D
102
{ACAD_REACTORS
330
C
102
}
330
C
100
AcDbDictionary
281
     1
  0
DICTIONARY
  5
5D
102
{ACAD_REACTORS
330
C
102
}
330
C
100
AcDbDictionary
281
     1
  3
Layout1
350
66
  3
Layout2
350
6E
  3
Model
350
6A
  0
DICTIONARY
  5
10
102
{ACAD_REACTORS
330
C
102
}
330
C
100
AcDbDictionary
281
     1
  3
ByBlock
350
19
  3
ByLayer
350
11
  3
Global
350
21
  0
DICTIONARY
  5
61
102
{ACAD_REACTORS
330
C
102
}
330
C
100
AcDbDictionary
281
     1
  3
Standard
350
62
  0
DICTIONARY
  5
5A
102
{ACAD_REACTORS
330
C
102
}
330
C
100
AcDbDictionary
281
     1
  3
Standard
350
5B
  0
DICTIONARY
  5
5C
102
{ACAD_REACTORS
330
C
102
}
330
C
100
AcDbDictionary
281
     1
  0
ACDBDICTIONARYWDFLT
  5
E
102
{ACAD_REACTORS
330
C
102
}
330
C
100
AcDbDictionary
281
     1
  3
Normal
350
F
100
AcDbDictionaryWithDefault
340
F
  0
DICTIONARY
  5
3D
102
{ACAD_REACTORS
330
C
102
}
330
C
100
AcDbDictionary
281
     1
  3
A0
350
3E
  3
A1
350
3F
  3
A2
350
40
  3
A3
350
41
  3
A4
350
42
  3
A5
350
43
  3
A6
350
44
  3
A7
350
45
  3
A8
350
46
  3
A9
350
47
  3
B0
350
48
  3
B1
350
49
  3
B2
350
4A
  3
B3
350
4B
  3
B4
350
4C
  3
B5
350
4D
  3
B6
350
4E
  0
DICTIONARY
  5
5F
102
{ACAD_REACTORS
330
C
102
}
330
C
100
AcDbDictionary
281
     1
  3
Standard
350
60
  0
DICTIONARY
  5
29
102
{ACAD_REACTORS
330
C
102
}
330
C
100
AcDbDictionary
281
     1
  3
2dWireframe
350
2F
  3
3D Hidden
350
31
  3
3dWireframe
350
30
  3
Basic
350
2E
  3
Brighten
350
35
  3
ColorChange
350
39
  3
Conceptual
350
32
  3
Dim
350
34
  3
EdgeColorOff
350
3C
  3
Facepattern
350
38
  3
Flat
350
2A
  3
FlatWithEdges
350
2B
  3
Gouraud
350
2C
  3
GouraudWithEdges
350
2D
  3
JitterOff
350
3A
  3
Linepattern
350
37
  3
OverhangOff
350
3B
  3
Realistic
350
33
  3
Thicken
350
36
  0
XRECORD
  5
906F
102
{ACAD_REACTORS
330
C
102
}
330
C
100
AcDbXrecord
280
     1
 90
        1
330
60
  0
DICTIONARY
  5
9064
102
{ACAD_REACTORS
330
C
102
}
330
C
100
AcDbDictionary
281
     1
  3
CANNOSCALE
350
9068
  3
CMLEADERSTYLE
350
9066
  3
CTABLESTYLE
350
9065
  3
LAYEREVAL
350
906A
  3
LAYERNOTIFY
350
906B
  3
LIGHTINGUNITS
350
9069
  3
MSLTSCALE
350
9067
  3
XCLIPFRAME
350
906C
  0
DICTIONARY
  5
8FFC
102
{ACAD_REACTORS
330
C
102
}
330
C
100
AcDbDictionary
281
     1
  0
DICTIONARY
  5
8F90
102
{ACAD_REACTORS
330
8F8F
102
}
330
8F8F
100
AcDbDictionary
281
     1
  0
SORTENTSTABLE
  5
8F78
102
{ACAD_REACTORS
330
8F77
102
}
330
8F77
100
AcDbSortentsTable
330
8F76
  0
XRECORD
  5
9071
102
{ACAD_REACTORS
330
9070
102
}
330
9070
100
AcDbXrecord
280
     1
 40
1.570796326794896
  0
LAYOUT
  5
66
102
{ACAD_REACTORS
330
5D
102
}
330
5D
100
AcDbPlotSettings
  1

  2
HP Deskjet 1280 series
  4

  6

 40
0.0
 41
0.0
 42
0.0
 43
0.0
 44
0.0
 45
0.0
 46
0.0
 47
0.0
 48
0.0
 49
0.0
140
0.0
141
0.0
142
1.0
143
1.0
 70
   688
 72
     0
 73
     0
 74
     5
  7

 75
    16
147
1.0
 76
     0
 77
     2
 78
   300
148
0.0
149
0.0
100
AcDbLayout
  1
Layout1
 70
     1
 71
     1
 10
0.0
 20
0.0
 11
420.0
 21
297.0
 12
0.0
 22
0.0
 32
0.0
 14
1.000000000000000E+20
 24
1.000000000000000E+20
 34
1.000000000000000E+20
 15
-1.000000000000000E+20
 25
-1.000000000000000E+20
 35
-1.000000000000000E+20
146
0.0
 13
0.0
 23
0.0
 33
0.0
 16
1.0
 26
0.0
 36
0.0
 17
0.0
 27
1.0
 37
0.0
 76
     0
330
63
  0
LAYOUT
  5
6E
102
{ACAD_REACTORS
330
5D
102
}
330
5D
100
AcDbPlotSettings
  1

  2
HP Deskjet 1280 series
  4

  6

 40
0.0
 41
0.0
 42
0.0
 43
0.0
 44
0.0
 45
0.0
 46
0.0
 47
0.0
 48
0.0
 49
0.0
140
0.0
141
0.0
142
1.0
143
1.0
 70
   688
 72
     0
 73
     0
 74
     5
  7

 75
    16
147
1.0
 76
     0
 77
     2
 78
   300
148
0.0
149
0.0
100
AcDbLayout
  1
Layout2
 70
     1
 71
     2
 10
0.0
 20
0.0
 11
12.0
 21
9.0
 12
0.0
 22
0.0
 32
0.0
 14
0.0
 24
0.0
 34
0.0
 15
0.0
 25
0.0
 35
0.0
146
0.0
 13
0.0
 23
0.0
 33
0.0
 16
1.0
 26
0.0
 36
0.0
 17
0.0
 27
1.0
 37
0.0
 76
     0
330
6B
  0
LAYOUT
  5
6A
102
{ACAD_REACTORS
330
5D
102
}
330
5D
100
AcDbPlotSettings
  1

  2
HP Deskjet 1280 series
  4

  6

 40
0.0
 41
0.0
 42
0.0
 43
0.0
 44
0.0
 45
0.0
 46
0.0
 47
0.0
 48
0.0
 49
0.0
140
0.0
141
0.0
142
1.0
143
1.0
 70
  1712
 72
     0
 73
     0
 74
     0
  7

 75
     0
147
1.0
 76
     0
 77
     2
 78
   300
148
0.0
149
0.0
100
AcDbLayout
  1
Model
 70
     1
 71
     0
 10
0.0
 20
0.0
 11
12.0
 21
9.0
 12
0.0
 22
0.0
 32
0.0
 14
0.0
 24
0.0
 34
0.0
 15
0.0
 25
0.0
 35
0.0
146
0.0
 13
0.0
 23
0.0
 33
0.0
 16
1.0
 26
0.0
 36
0.0
 17
0.0
 27
1.0
 37
0.0
 76
     0
330
67
331
52
  0
MATERIAL
  5
19
102
{ACAD_XDICTIONARY
360
1A
102
}
102
{ACAD_REACTORS
330
10
102
}
330
10
100
AcDbMaterial
  1
ByBlock
 72
     0
 43
0.0208333333333333
 43
0.0
 43
0.0
 43
0.0
 43
0.0
 43
0.0208333333333333
 43
0.0
 43
0.0
 43
0.0
 43
0.0
 43
1.0
 43
0.0
 43
0.0
 43
0.0
 43
0.0
 43
1.0
 77
     0
 47
0.0208333333333333
 47
0.0
 47
0.0
 47
0.0
 47
0.0
 47
0.0208333333333333
 47
0.0
 47
0.0
 47
0.0
 47
0.0
 47
1.0
 47
0.0
 47
0.0
 47
0.0
 47
0.0
 47
1.0
171
     0
 49
0.0208333333333333
 49
0.0
 49
0.0
 49
0.0
 49
0.0
 49
0.0208333333333333
 49
0.0
 49
0.0
 49
0.0
 49
0.0
 49
1.0
 49
0.0
 49
0.0
 49
0.0
 49
0.0
 49
1.0
175
     0
142
0.0208333333333333
142
0.0
142
0.0
142
0.0
142
0.0
142
0.0208333333333333
142
0.0
142
0.0
142
0.0
142
0.0
142
1.0
142
0.0
142
0.0
142
0.0
142
0.0
142
1.0
179
     0
144
0.0208333333333333
144
0.0
144
0.0
144
0.0
144
0.0
144
0.0208333333333333
144
0.0
144
0.0
144
0.0
144
0.0
144
1.0
144
0.0
144
0.0
144
0.0
144
0.0
144
1.0
147
0.0208333333333333
147
0.0
147
0.0
147
0.0
147
0.0
147
0.0208333333333333
147
0.0
147
0.0
147
0.0
147
0.0
147
1.0
147
0.0
147
0.0
147
0.0
147
0.0
147
1.0
  0
MATERIAL
  5
11
102
{ACAD_XDICTIONARY
360
12
102
}
102
{ACAD_REACTORS
330
10
102
}
330
10
100
AcDbMaterial
  1
ByLayer
 72
     0
 43
0.0208333333333333
 43
0.0
 43
0.0
 43
0.0
 43
0.0
 43
0.0208333333333333
 43
0.0
 43
0.0
 43
0.0
 43
0.0
 43
1.0
 43
0.0
 43
0.0
 43
0.0
 43
0.0
 43
1.0
 77
     0
 47
0.0208333333333333
 47
0.0
 47
0.0
 47
0.0
 47
0.0
 47
0.0208333333333333
 47
0.0
 47
0.0
 47
0.0
 47
0.0
 47
1.0
 47
0.0
 47
0.0
 47
0.0
 47
0.0
 47
1.0
171
     0
 49
0.0208333333333333
 49
0.0
 49
0.0
 49
0.0
 49
0.0
 49
0.0208333333333333
 49
0.0
 49
0.0
 49
0.0
 49
0.0
 49
1.0
 49
0.0
 49
0.0
 49
0.0
 49
0.0
 49
1.0
175
     0
142
0.0208333333333333
142
0.0
142
0.0
142
0.0
142
0.0
142
0.0208333333333333
142
0.0
142
0.0
142
0.0
142
0.0
142
1.0
142
0.0
142
0.0
142
0.0
142
0.0
142
1.0
179
     0
144
0.0208333333333333
144
0.0
144
0.0
144
0.0
144
0.0
144
0.0208333333333333
144
0.0
144
0.0
144
0.0
144
0.0
144
1.0
144
0.0
144
0.0
144
0.0
144
0.0
144
1.0
147
0.0208333333333333
147
0.0
147
0.0
147
0.0
147
0.0
147
0.0208333333333333
147
0.0
147
0.0
147
0.0
147
0.0
147
1.0
147
0.0
147
0.0
147
0.0
147
0.0
147
1.0
  0
MATERIAL
  5
21
102
{ACAD_XDICTIONARY
360
22
102
}
102
{ACAD_REACTORS
330
10
102
}
330
10
100
AcDbMaterial
  1
Global
 72
     0
 43
0.0208333333333333
 43
0.0
 43
0.0
 43
0.0
 43
0.0
 43
0.0208333333333333
 43
0.0
 43
0.0
 43
0.0
 43
0.0
 43
1.0
 43
0.0
 43
0.0
 43
0.0
 43
0.0
 43
1.0
 77
     0
 47
0.0208333333333333
 47
0.0
 47
0.0
 47
0.0
 47
0.0
 47
0.0208333333333333
 47
0.0
 47
0.0
 47
0.0
 47
0.0
 47
1.0
 47
0.0
 47
0.0
 47
0.0
 47
0.0
 47
1.0
171
     0
 49
0.0208333333333333
 49
0.0
 49
0.0
 49
0.0
 49
0.0
 49
0.0208333333333333
 49
0.0
 49
0.0
 49
0.0
 49
0.0
 49
1.0
 49
0.0
 49
0.0
 49
0.0
 49
0.0
 49
1.0
175
     0
142
0.0208333333333333
142
0.0
142
0.0
142
0.0
142
0.0
142
0.0208333333333333
142
0.0
142
0.0
142
0.0
142
0.0
142
1.0
142
0.0
142
0.0
142
0.0
142
0.0
142
1.0
179
     0
144
0.0208333333333333
144
0.0
144
0.0
144
0.0
144
0.0
144
0.0208333333333333
144
0.0
144
0.0
144
0.0
144
0.0
144
1.0
144
0.0
144
0.0
144
0.0
144
0.0
144
1.0
147
0.0208333333333333
147
0.0
147
0.0
147
0.0
147
0.0
147
0.0208333333333333
147
0.0
147
0.0
147
0.0
147
0.0
147
1.0
147
0.0
147
0.0
147
0.0
147
0.0
147
1.0
  0
MLEADERSTYLE
  5
62
102
{ACAD_REACTORS
330
61
102
}
330
61
100
AcDbMLeaderStyle
170
     2
171
     1
172
     0
 90
        2
 40
0.0
 41
0.0
173
     1
 91
-1056964608
340
56
 92
       -2
290
     1
 42
0.09
291
     1
 43
0.36
  3
Standard
 44
0.18
300

342
50
174
     1
178
     6
175
     1
176
     0
 93
-1056964608
 45
0.18
292
     0
297
     0
 46
0.18
 94
-1056964608
 47
1.0
 49
1.0
140
1.0
293
     1
141
0.0
294
     1
177
     0
142
1.0
295
     0
296
     0
143
0.125
1001
ACAD_MLEADERVER
1070
     2
  0
MLINESTYLE
  5
5B
102
{ACAD_REACTORS
330
5A
102
}
330
5A
100
AcDbMlineStyle
  2
STANDARD
 70
     0
  3

 62
   256
 51
90.0
 52
90.0
 71
     2
 49
0.5
 62
   256
  6
BYLAYER
 49
-0.5
 62
   256
  6
BYLAYER
  0
ACDBPLACEHOLDER
  5
F
102
{ACAD_REACTORS
330
E
102
}
330
E
  0
SCALE
  5
3E
102
{ACAD_REACTORS
330
3D
102
}
330
3D
100
AcDbScale
 70
     0
300
1:1
140
1.0
141
1.0
290
     1
  0
SCALE
  5
3F
102
{ACAD_REACTORS
330
3D
102
}
330
3D
100
AcDbScale
 70
     0
300
1:2
140
1.0
141
2.0
290
     0
  0
SCALE
  5
40
102
{ACAD_REACTORS
330
3D
102
}
330
3D
100
AcDbScale
 70
     0
300
1:4
140
1.0
141
4.0
290
     0
  0
SCALE
  5
41
102
{ACAD_REACTORS
330
3D
102
}
330
3D
100
AcDbScale
 70
     0
300
1:5
140
1.0
141
5.0
290
     0
  0
SCALE
  5
42
102
{ACAD_REACTORS
330
3D
102
}
330
3D
100
AcDbScale
 70
     0
300
1:8
140
1.0
141
8.0
290
     0
  0
SCALE
  5
43
102
{ACAD_REACTORS
330
3D
102
}
330
3D
100
AcDbScale
 70
     0
300
1:10
140
1.0
141
10.0
290
     0
  0
SCALE
  5
44
102
{ACAD_REACTORS
330
3D
102
}
330
3D
100
AcDbScale
 70
     0
300
1:16
140
1.0
141
16.0
290
     0
  0
SCALE
  5
45
102
{ACAD_REACTORS
330
3D
102
}
330
3D
100
AcDbScale
 70
     0
300
1:20
140
1.0
141
20.0
290
     0
  0
SCALE
  5
46
102
{ACAD_REACTORS
330
3D
102
}
330
3D
100
AcDbScale
 70
     0
300
1:30
140
1.0
141
30.0
290
     0
  0
SCALE
  5
47
102
{ACAD_REACTORS
330
3D
102
}
330
3D
100
AcDbScale
 70
     0
300
1:40
140
1.0
141
40.0
290
     0
  0
SCALE
  5
48
102
{ACAD_REACTORS
330
3D
102
}
330
3D
100
AcDbScale
 70
     0
300
1:50
140
1.0
141
50.0
290
     0
  0
SCALE
  5
49
102
{ACAD_REACTORS
330
3D
102
}
330
3D
100
AcDbScale
 70
     0
300
1:100
140
1.0
141
100.0
290
     0
  0
SCALE
  5
4A
102
{ACAD_REACTORS
330
3D
102
}
330
3D
100
AcDbScale
 70
     0
300
2:1
140
2.0
141
1.0
290
     0
  0
SCALE
  5
4B
102
{ACAD_REACTORS
330
3D
102
}
330
3D
100
AcDbScale
 70
     0
300
4:1
140
4.0
141
1.0
290
     0
  0
SCALE
  5
4C
102
{ACAD_REACTORS
330
3D
102
}
330
3D
100
AcDbScale
 70
     0
300
8:1
140
8.0
141
1.0
290
     0
  0
SCALE
  5
4D
102
{ACAD_REACTORS
330
3D
102
}
330
3D
100
AcDbScale
 70
     0
300
10:1
140
10.0
141
1.0
290
     0
  0
SCALE
  5
4E
102
{ACAD_REACTORS
330
3D
102
}
330
3D
100
AcDbScale
 70
     0
300
100:1
140
100.0
141
1.0
290
     0
  0
TABLESTYLE
  5
60
102
{ACAD_XDICTIONARY
360
906D
102
}
102
{ACAD_REACTORS
330
5F
102
}
330
5F
100
AcDbTableStyle
  3
Standard
 70
     0
 71
     0
 40
1.5
 41
1.5
280
     0
281
     0
  7
Standard
140
4.5
170
     2
 62
     0
 63
     7
283
     0
274
    -2
284
     1
 64
     0
275
    -2
285
     1
 65
     0
276
    -2
286
     1
 66
     0
277
    -2
287
     1
 67
     0
278
    -2
288
     1
 68
     0
279
    -2
289
     1
 69
     0
  7
Standard
140
6.0
170
     5
 62
     0
 63
     7
283
     0
274
    -2
284
     1
 64
     0
275
    -2
285
     1
 65
     0
276
    -2
286
     1
 66
     0
277
    -2
287
     1
 67
     0
278
    -2
288
     1
 68
     0
279
    -2
289
     1
 69
     0
  7
Standard
140
4.5
170
     5
 62
     0
 63
     7
283
     0
274
    -2
284
     1
 64
     0
275
    -2
285
     1
 65
     0
276
    -2
286
     1
 66
     0
277
    -2
287
     1
 67
     0
278
    -2
288
     1
 68
     0
279
    -2
289
     1
 69
     0
  0
VISUALSTYLE
  5
2F
102
{ACAD_XDICTIONARY
360
907F
102
}
102
{ACAD_REACTORS
330
29
102
}
330
29
100
AcDbVisualStyle
  2
2dWireframe
 70
     4
 71
     0
 72
     2
 73
     0
 90
        0
 40
-0.6
 41
-30.0
 62
     5
 63
     7
421
 16777215
 74
     1
 91
        4
 64
     7
 65
   257
 75
     1
175
     1
 42
1.0
 92
        0
 66
   257
 43
1.0
 76
     1
 77
     6
 78
     2
 67
     7
 79
     5
170
     0
171
     0
290
     0
174
     0
 93
        1
 44
0.0
173
     0
291
     0
 45
0.0
1001
ACAD
1000
AcDbSavedByObjectVersion
1070
     0
  0
VISUALSTYLE
  5
31
102
{ACAD_XDICTIONARY
360
9083
102
}
102
{ACAD_REACTORS
330
29
102
}
330
29
100
AcDbVisualStyle
  2
3D Hidden
 70
     6
 71
     1
 72
     2
 73
     2
 90
        0
 40
-0.6
 41
-30.0
 62
     5
 63
     7
421
 16777215
 74
     2
 91
        2
 64
     7
 65
   257
 75
     2
175
     1
 42
179.0
 92
        0
 66
   257
 43
1.0
 76
     1
 77
     6
 78
     2
 67
     7
 79
     3
170
     0
171
     0
290
     0
174
     0
 93
        1
 44
0.0
173
     0
291
     0
 45
0.0
1001
ACAD
1000
AcDbSavedByObjectVersion
1070
     0
  0
VISUALSTYLE
  5
30
102
{ACAD_XDICTIONARY
360
9081
102
}
102
{ACAD_REACTORS
330
29
102
}
330
29
100
AcDbVisualStyle
  2
3dWireframe
 70
     5
 71
     0
 72
     2
 73
     0
 90
        0
 40
-0.6
 41
-30.0
 62
     5
 63
     7
421
 16777215
 74
     1
 91
        4
 64
     7
 65
   257
 75
     1
175
     1
 42
1.0
 92
        0
 66
   257
 43
1.0
 76
     1
 77
     6
 78
     2
 67
     7
 79
     5
170
     0
171
     0
290
     0
174
     0
 93
        1
 44
0.0
173
     0
291
     0
 45
0.0
1001
ACAD
1000
AcDbSavedByObjectVersion
1070
     0
  0
VISUALSTYLE
  5
2E
102
{ACAD_XDICTIONARY
360
907D
102
}
102
{ACAD_REACTORS
330
29
102
}
330
29
100
AcDbVisualStyle
  2
Basic
 70
     7
 71
     1
 72
     0
 73
     1
 90
        0
 40
-0.6
 41
-30.0
 62
     5
 63
     7
421
 16777215
 74
     0
 91
        4
 64
     7
 65
   257
 75
     1
175
     1
 42
1.0
 92
        8
 66
     7
 43
1.0
 76
     1
 77
     6
 78
     2
 67
     7
 79
     5
170
     0
171
     0
290
     0
174
     0
 93
        1
 44
0.0
173
     0
291
     1
 45
0.0
1001
ACAD
1000
AcDbSavedByObjectVersion
1070
     0
  0
VISUALSTYLE
  5
35
102
{ACAD_XDICTIONARY
360
908B
102
}
102
{ACAD_REACTORS
330
29
102
}
330
29
100
AcDbVisualStyle
  2
Brighten
 70
    12
 71
     2
 72
     2
 73
     0
 90
        0
 40
-0.6
 41
-30.0
 62
     5
 63
     7
421
 16777215
 74
     1
 91
        4
 64
     7
 65
   257
 75
     1
175
     1
 42
1.0
 92
        8
 66
     7
 43
1.0
 76
     1
 77
     6
 78
     2
 67
     7
 79
     5
170
     0
171
     0
290
     0
174
     0
 93
        1
 44
50.0
173
     0
291
     1
 45
0.0
1001
ACAD
1000
AcDbSavedByObjectVersion
1070
     0
  0
VISUALSTYLE
  5
39
102
{ACAD_XDICTIONARY
360
9093
102
}
102
{ACAD_REACTORS
330
29
102
}
330
29
100
AcDbVisualStyle
  2
ColorChange
 70
    16
 71
     2
 72
     2
 73
     3
 90
        0
 40
-0.6
 41
-30.0
 62
     5
 63
     8
421
  8421504
 74
     1
 91
        4
 64
     7
 65
   257
 75
     1
175
     1
 42
1.0
 92
        8
 66
     8
424
  8421504
 43
1.0
 76
     1
 77
     6
 78
     2
 67
     7
 79
     5
170
     0
171
     0
290
     0
174
     0
 93
        1
 44
0.0
173
     0
291
     1
 45
0.0
1001
ACAD
1000
AcDbSavedByObjectVersion
1070
     0
  0
VISUALSTYLE
  5
32
102
{ACAD_XDICTIONARY
360
9085
102
}
102
{ACAD_REACTORS
330
29
102
}
330
29
100
AcDbVisualStyle
  2
Conceptual
 70
     9
 71
     3
 72
     2
 73
     0
 90
        0
 40
-0.6
 41
-30.0
 62
     5
 63
     7
421
 16777215
 74
     2
 91
        2
 64
     7
 65
   257
 75
     1
175
     1
 42
179.0
 92
        8
 66
     7
 43
1.0
 76
     1
 77
     6
 78
     2
 67
     7
 79
     3
170
     0
171
     0
290
     0
174
     0
 93
        1
 44
0.0
173
     0
291
     0
 45
0.0
1001
ACAD
1000
AcDbSavedByObjectVersion
1070
     0
  0
VISUALSTYLE
  5
34
102
{ACAD_XDICTIONARY
360
9089
102
}
102
{ACAD_REACTORS
330
29
102
}
330
29
100
AcDbVisualStyle
  2
Dim
 70
    11
 71
     2
 72
     2
 73
     0
 90
        0
 40
-0.6
 41
-30.0
 62
     5
 63
     7
421
 16777215
 74
     1
 91
        4
 64
     7
 65
   257
 75
     1
175
     1
 42
1.0
 92
        8
 66
     7
 43
1.0
 76
     1
 77
     6
 78
     2
 67
     7
 79
     5
170
     0
171
     0
290
     0
174
     0
 93
        1
 44
-50.0
173
     0
291
     1
 45
0.0
1001
ACAD
1000
AcDbSavedByObjectVersion
1070
     0
  0
VISUALSTYLE
  5
3C
102
{ACAD_XDICTIONARY
360
9099
102
}
102
{ACAD_REACTORS
330
29
102
}
330
29
100
AcDbVisualStyle
  2
EdgeColorOff
 70
    22
 71
     2
 72
     2
 73
     0
 90
        0
 40
-0.6
 41
-30.0
 62
     5
 63
     7
421
 16777215
 74
     1
 91
        4
 64
     7
 65
   257
 75
     1
175
     1
 42
1.0
 92
        8
 66
     7
 43
1.0
 76
     1
 77
     6
 78
     2
 67
     7
 79
     5
170
     0
171
     0
290
     0
174
     0
 93
        1
 44
0.0
173
     0
291
     1
 45
0.0
1001
ACAD
1000
AcDbSavedByObjectVersion
1070
     0
  0
VISUALSTYLE
  5
38
102
{ACAD_XDICTIONARY
360
9091
102
}
102
{ACAD_REACTORS
330
29
102
}
330
29
100
AcDbVisualStyle
  2
Facepattern
 70
    15
 71
     2
 72
     2
 73
     0
 90
        0
 40
-0.6
 41
-30.0
 62
     5
 63
     7
421
 16777215
 74
     1
 91
        4
 64
     7
 65
   257
 75
     1
175
     1
 42
1.0
 92
        8
 66
     7
 43
1.0
 76
     1
 77
     6
 78
     2
 67
     7
 79
     5
170
     0
171
     0
290
     0
174
     0
 93
        1
 44
0.0
173
     0
291
     1
 45
0.0
1001
ACAD
1000
AcDbSavedByObjectVersion
1070
     0
  0
VISUALSTYLE
  5
2A
102
{ACAD_XDICTIONARY
360
9075
102
}
102
{ACAD_REACTORS
330
29
102
}
330
29
100
AcDbVisualStyle
  2
Flat
 70
     0
 71
     2
 72
     1
 73
     1
 90
        2
 40
-0.6
 41
30.0
 62
     5
 63
     7
421
 16777215
 74
     0
 91
        4
 64
     7
 65
   257
 75
     1
175
     1
 42
1.0
 92
        8
 66
     7
 43
1.0
 76
     1
 77
     6
 78
     2
 67
     7
 79
     5
170
     0
171
     0
290
     0
174
     0
 93
       13
 44
0.0
173
     0
291
     1
 45
0.0
1001
ACAD
1000
AcDbSavedByObjectVersion
1070
     0
  0
VISUALSTYLE
  5
2B
102
{ACAD_XDICTIONARY
360
9077
102
}
102
{ACAD_REACTORS
330
29
102
}
330
29
100
AcDbVisualStyle
  2
FlatWithEdges
 70
     1
 71
     2
 72
     1
 73
     1
 90
        2
 40
-0.6
 41
30.0
 62
     5
 63
     7
421
 16777215
 74
     1
 91
        4
 64
     7
 65
   257
 75
     1
175
     1
 42
1.0
 92
        0
 66
   257
 43
1.0
 76
     1
 77
     6
 78
     2
 67
     7
 79
     5
170
     0
171
     0
290
     0
174
     0
 93
       13
 44
0.0
173
     0
291
     1
 45
0.0
1001
ACAD
1000
AcDbSavedByObjectVersion
1070
     0
  0
VISUALSTYLE
  5
2C
102
{ACAD_XDICTIONARY
360
9079
102
}
102
{ACAD_REACTORS
330
29
102
}
330
29
100
AcDbVisualStyle
  2
Gouraud
 70
     2
 71
     2
 72
     2
 73
     1
 90
        2
 40
-0.6
 41
30.0
 62
     5
 63
     7
421
 16777215
 74
     0
 91
        4
 64
     7
 65
   257
 75
     1
175
     1
 42
1.0
 92
        0
 66
     7
 43
1.0
 76
     1
 77
     6
 78
     2
 67
     7
 79
     5
170
     0
171
     0
290
     0
174
     0
 93
       13
 44
0.0
173
     0
291
     1
 45
0.0
1001
ACAD
1000
AcDbSavedByObjectVersion
1070
     0
  0
VISUALSTYLE
  5
2D
102
{ACAD_XDICTIONARY
360
907B
102
}
102
{ACAD_REACTORS
330
29
102
}
330
29
100
AcDbVisualStyle
  2
GouraudWithEdges
 70
     3
 71
     2
 72
     2
 73
     1
 90
        2
 40
-0.6
 41
30.0
 62
     5
 63
     7
421
 16777215
 74
     1
 91
        4
 64
     7
 65
   257
 75
     1
175
     1
 42
1.0
 92
        0
 66
   257
 43
1.0
 76
     1
 77
     6
 78
     2
 67
     7
 79
     5
170
     0
171
     0
290
     0
174
     0
 93
       13
 44
0.0
173
     0
291
     1
 45
0.0
1001
ACAD
1000
AcDbSavedByObjectVersion
1070
     0
  0
VISUALSTYLE
  5
3A
102
{ACAD_XDICTIONARY
360
9095
102
}
102
{ACAD_REACTORS
330
29
102
}
330
29
100
AcDbVisualStyle
  2
JitterOff
 70
    20
 71
     2
 72
     2
 73
     0
 90
        0
 40
-0.6
 41
-30.0
 62
     5
 63
     7
421
 16777215
 74
     1
 91
        4
 64
     7
 65
   257
 75
     1
175
     1
 42
1.0
 92
       10
 66
     7
 43
1.0
 76
     1
 77
     6
 78
     2
 67
     7
 79
     5
170
     0
171
     0
290
     0
174
     0
 93
        1
 44
0.0
173
     0
291
     1
 45
0.0
1001
ACAD
1000
AcDbSavedByObjectVersion
1070
     0
  0
VISUALSTYLE
  5
37
102
{ACAD_XDICTIONARY
360
908F
102
}
102
{ACAD_REACTORS
330
29
102
}
330
29
100
AcDbVisualStyle
  2
Linepattern
 70
    14
 71
     2
 72
     2
 73
     0
 90
        0
 40
-0.6
 41
-30.0
 62
     5
 63
     7
421
 16777215
 74
     1
 91
        4
 64
     7
 65
   257
 75
     7
175
     7
 42
1.0
 92
        8
 66
     7
 43
1.0
 76
     1
 77
     6
 78
     2
 67
     7
 79
     5
170
     0
171
     0
290
     0
174
     0
 93
        1
 44
0.0
173
     0
291
     1
 45
0.0
1001
ACAD
1000
AcDbSavedByObjectVersion
1070
     0
  0
VISUALSTYLE
  5
3B
102
{ACAD_XDICTIONARY
360
9097
102
}
102
{ACAD_REACTORS
330
29
102
}
330
29
100
AcDbVisualStyle
  2
OverhangOff
 70
    21
 71
     2
 72
     2
 73
     0
 90
        0
 40
-0.6
 41
-30.0
 62
     5
 63
     7
421
 16777215
 74
     1
 91
        4
 64
     7
 65
   257
 75
     1
175
     1
 42
1.0
 92
        9
 66
     7
 43
1.0
 76
     1
 77
     6
 78
     2
 67
     7
 79
     5
170
     0
171
     0
290
     0
174
     0
 93
        1
 44
0.0
173
     0
291
     1
 45
0.0
1001
ACAD
1000
AcDbSavedByObjectVersion
1070
     0
  0
VISUALSTYLE
  5
33
102
{ACAD_XDICTIONARY
360
9087
102
}
102
{ACAD_REACTORS
330
29
102
}
330
29
100
AcDbVisualStyle
  2
Realistic
 70
     8
 71
     2
 72
     2
 73
     0
 90
        0
 40
-0.6
 41
-30.0
 62
     5
 63
     7
421
 16777215
 74
     1
 91
        0
 64
     7
 65
   257
 75
     1
175
     1
 42
1.0
 92
        8
 66
     8
424
  7895160
 43
1.0
 76
     1
 77
     6
 78
     2
 67
     7
 79
     5
170
     0
171
     0
290
     0
174
     0
 93
       13
 44
0.0
173
     0
291
     0
 45
0.0
1001
ACAD
1000
AcDbSavedByObjectVersion
1070
     0
  0
VISUALSTYLE
  5
36
102
{ACAD_XDICTIONARY
360
908D
102
}
102
{ACAD_REACTORS
330
29
102
}
330
29
100
AcDbVisualStyle
  2
Thicken
 70
    13
 71
     2
 72
     2
 73
     0
 90
        0
 40
-0.6
 41
-30.0
 62
     5
 63
     7
421
 16777215
 74
     1
 91
        4
 64
     7
 65
   257
 75
     1
175
     1
 42
1.0
 92
       12
 66
     7
 43
1.0
 76
     1
 77
     6
 78
     2
 67
     7
 79
     5
170
     0
171
     0
290
     0
174
     0
 93
        1
 44
0.0
173
     0
291
     1
 45
0.0
1001
ACAD
1000
AcDbSavedByObjectVersion
1070
     0
  0
DICTIONARYVAR
  5
9068
102
{ACAD_REACTORS
330
9064
102
}
330
9064
100
DictionaryVariables
280
     0
  1
1:1
  0
DICTIONARYVAR
  5
9066
102
{ACAD_REACTORS
330
9064
102
}
330
9064
100
DictionaryVariables
280
     0
  1
STANDARD
  0
DICTIONARYVAR
  5
9065
102
{ACAD_REACTORS
330
9064
102
}
330
9064
100
DictionaryVariables
280
     0
  1
STANDARD
  0
DICTIONARYVAR
  5
906A
102
{ACAD_REACTORS
330
9064
102
}
330
9064
100
DictionaryVariables
280
     0
  1
0
  0
DICTIONARYVAR
  5
906B
102
{ACAD_REACTORS
330
9064
102
}
330
9064
100
DictionaryVariables
280
     0
  1
0
  0
DICTIONARYVAR
  5
9069
102
{ACAD_REACTORS
330
9064
102
}
330
9064
100
DictionaryVariables
280
     0
  1
2
  0
DICTIONARYVAR
  5
9067
102
{ACAD_REACTORS
330
9064
102
}
330
9064
100
DictionaryVariables
280
     0
  1
1
  0
DICTIONARYVAR
  5
906C
102
{ACAD_REACTORS
330
9064
102
}
330
9064
100
DictionaryVariables
280
     0
  1
2
  0
DICTIONARY
  5
1A
330
19
100
AcDbDictionary
280
     1
281
     1
  3
ACAD_XREC_ROUNDTRIP
360
9073
  3
BUMPTILE
360
1C
  3
DIFFUSETILE
360
1B
  3
OPACITYTILE
360
1F
  3
REFLECTIONTILE
360
1E
  3
REFRACTIONTILE
360
20
  3
SPECULARTILE
360
1D
  0
DICTIONARY
  5
12
330
11
100
AcDbDictionary
280
     1
281
     1
  3
ACAD_XREC_ROUNDTRIP
360
9072
  3
BUMPTILE
360
14
  3
DIFFUSETILE
360
13
  3
OPACITYTILE
360
17
  3
REFLECTIONTILE
360
16
  3
REFRACTIONTILE
360
18
  3
SPECULARTILE
360
15
  0
DICTIONARY
  5
22
330
21
100
AcDbDictionary
280
     1
281
     1
  3
ACAD_XREC_ROUNDTRIP
360
9074
  3
BUMPTILE
360
24
  3
DIFFUSETILE
360
23
  3
OPACITYTILE
360
27
  3
REFLECTIONTILE
360
26
  3
REFRACTIONTILE
360
28
  3
SPECULARTILE
360
25
  0
DICTIONARY
  5
906D
330
60
100
AcDbDictionary
280
     1
281
     1
  3
ACAD_ROUNDTRIP_2008_TABLESTYLE_CELLSTYLEMAP
360
906E
  3
ACAD_XREC_ROUNDTRIP
360
909C
  0
DICTIONARY
  5
907F
330
2F
100
AcDbDictionary
280
     1
281
     1
  3
ACAD_XREC_ROUNDTRIP
360
9080
  0
DICTIONARY
  5
9083
330
31
100
AcDbDictionary
280
     1
281
     1
  3
ACAD_XREC_ROUNDTRIP
360
9084
  0
DICTIONARY
  5
9081
330
30
100
AcDbDictionary
280
     1
281
     1
  3
ACAD_XREC_ROUNDTRIP
360
9082
  0
DICTIONARY
  5
907D
330
2E
100
AcDbDictionary
280
     1
281
     1
  3
ACAD_XREC_ROUNDTRIP
360
907E
  0
DICTIONARY
  5
908B
330
35
100
AcDbDictionary
280
     1
281
     1
  3
ACAD_XREC_ROUNDTRIP
360
908C
  0
DICTIONARY
  5
9093
330
39
100
AcDbDictionary
280
     1
281
     1
  3
ACAD_XREC_ROUNDTRIP
360
9094
  0
DICTIONARY
  5
9085
330
32
100
AcDbDictionary
280
     1
281
     1
  3
ACAD_XREC_ROUNDTRIP
360
9086
  0
DICTIONARY
  5
9089
330
34
100
AcDbDictionary
280
     1
281
     1
  3
ACAD_XREC_ROUNDTRIP
360
908A
  0
DICTIONARY
  5
9099
330
3C
100
AcDbDictionary
280
     1
281
     1
  3
ACAD_XREC_ROUNDTRIP
360
909A
  0
DICTIONARY
  5
9091
330
38
100
AcDbDictionary
280
     1
281
     1
  3
ACAD_XREC_ROUNDTRIP
360
9092
  0
DICTIONARY
  5
9075
330
2A
100
AcDbDictionary
280
     1
281
     1
  3
ACAD_XREC_ROUNDTRIP
360
9076
  0
DICTIONARY
  5
9077
330
2B
100
AcDbDictionary
280
     1
281
     1
  3
ACAD_XREC_ROUNDTRIP
360
9078
  0
DICTIONARY
  5
9079
330
2C
100
AcDbDictionary
280
     1
281
     1
  3
ACAD_XREC_ROUNDTRIP
360
907A
  0
DICTIONARY
  5
907B
330
2D
100
AcDbDictionary
280
     1
281
     1
  3
ACAD_XREC_ROUNDTRIP
360
907C
  0
DICTIONARY
  5
9095
330
3A
100
AcDbDictionary
280
     1
281
     1
  3
ACAD_XREC_ROUNDTRIP
360
9096
  0
DICTIONARY
  5
908F
330
37
100
AcDbDictionary
280
     1
281
     1
  3
ACAD_XREC_ROUNDTRIP
360
9090
  0
DICTIONARY
  5
9097
330
3B
100
AcDbDictionary
280
     1
281
     1
  3
ACAD_XREC_ROUNDTRIP
360
9098
  0
DICTIONARY
  5
9087
330
33
100
AcDbDictionary
280
     1
281
     1
  3
ACAD_XREC_ROUNDTRIP
360
9088
  0
DICTIONARY
  5
908D
330
36
100
AcDbDictionary
280
     1
281
     1
  3
ACAD_XREC_ROUNDTRIP
360
908E
  0
XRECORD
  5
9073
102
{ACAD_REACTORS
330
1A
102
}
330
1A
100
AcDbXrecord
280
     1
102
MATERIAL
148
0.0
149
0.0
149
0.0
 93
        0
 94
      127
282
     0
 72
     0
 77
     0
171
     0
175
     0
179
     0
273
     0
  0
XRECORD
  5
1C
102
{ACAD_REACTORS
330
1A
102
}
330
1A
100
AcDbXrecord
280
     1
270
     1
271
     1
  0
XRECORD
  5
1B
102
{ACAD_REACTORS
330
1A
102
}
330
1A
100
AcDbXrecord
280
     1
270
     1
271
     1
  0
XRECORD
  5
1F
102
{ACAD_REACTORS
330
1A
102
}
330
1A
100
AcDbXrecord
280
     1
270
     1
271
     1
  0
XRECORD
  5
1E
102
{ACAD_REACTORS
330
1A
102
}
330
1A
100
AcDbXrecord
280
     1
270
     1
271
     1
  0
XRECORD
  5
20
102
{ACAD_REACTORS
330
1A
102
}
330
1A
100
AcDbXrecord
280
     1
270
     1
271
     1
  0
XRECORD
  5
1D
102
{ACAD_REACTORS
330
1A
102
}
330
1A
100
AcDbXrecord
280
     1
270
     1
271
     1
  0
XRECORD
  5
9072
102
{ACAD_REACTORS
330
12
102
}
330
12
100
AcDbXrecord
280
     1
102
MATERIAL
148
0.0
149
0.0
149
0.0
 93
        0
 94
      127
282
     0
 72
     0
 77
     0
171
     0
175
     0
179
     0
273
     0
  0
XRECORD
  5
14
102
{ACAD_REACTORS
330
12
102
}
330
12
100
AcDbXrecord
280
     1
270
     1
271
     1
  0
XRECORD
  5
13
102
{ACAD_REACTORS
330
12
102
}
330
12
100
AcDbXrecord
280
     1
270
     1
271
     1
  0
XRECORD
  5
17
102
{ACAD_REACTORS
330
12
102
}
330
12
100
AcDbXrecord
280
     1
270
     1
271
     1
  0
XRECORD
  5
16
102
{ACAD_REACTORS
330
12
102
}
330
12
100
AcDbXrecord
280
     1
270
     1
271
     1
  0
XRECORD
  5
18
102
{ACAD_REACTORS
330
12
102
}
330
12
100
AcDbXrecord
280
     1
270
     1
271
     1
  0
XRECORD
  5
15
102
{ACAD_REACTORS
330
12
102
}
330
12
100
AcDbXrecord
280
     1
270
     1
271
     1
  0
XRECORD
  5
9074
102
{ACAD_REACTORS
330
22
102
}
330
22
100
AcDbXrecord
280
     1
102
MATERIAL
148
0.0
149
0.0
149
0.0
 93
        0
 94
      127
282
     0
 72
     0
 77
     0
171
     0
175
     0
179
     0
273
     0
  0
XRECORD
  5
24
102
{ACAD_REACTORS
330
22
102
}
330
22
100
AcDbXrecord
280
     1
270
     1
271
     1
  0
XRECORD
  5
23
102
{ACAD_REACTORS
330
22
102
}
330
22
100
AcDbXrecord
280
     1
270
     1
271
     1
  0
XRECORD
  5
27
102
{ACAD_REACTORS
330
22
102
}
330
22
100
AcDbXrecord
280
     1
270
     1
271
     1
  0
XRECORD
  5
26
102
{ACAD_REACTORS
330
22
102
}
330
22
100
AcDbXrecord
280
     1
270
     1
271
     1
  0
XRECORD
  5
28
102
{ACAD_REACTORS
330
22
102
}
330
22
100
AcDbXrecord
280
     1
270
     1
271
     1
  0
XRECORD
  5
25
102
{ACAD_REACTORS
330
22
102
}
330
22
100
AcDbXrecord
280
     1
270
     1
271
     1
  0
CELLSTYLEMAP
  5
906E
102
{ACAD_REACTORS
330
906D
102
}
330
906D
100
AcDbCellStyleMap
 90
        3
300
CELLSTYLE
  1
TABLEFORMAT_BEGIN
 90
        5
170
     1
 91
        0
 92
    32768
 62
   257
 93
        1
300
CONTENTFORMAT
  1
CONTENTFORMAT_BEGIN
 90
        0
 91
        0
 92
      512
 93
        0
300

 40
0.0
140
1.0
 94
        5
 62
     0
340
50
144
6.0
309
CONTENTFORMAT_END
171
     1
301
MARGIN
  1
CELLMARGIN_BEGIN
 40
1.5
 40
1.5
 40
1.5
 40
1.5
 40
4.5
 40
4.5
309
CELLMARGIN_END
 94
        6
 95
        1
302
GRIDFORMAT
  1
GRIDFORMAT_BEGIN
 90
        0
 91
        1
 62
     0
 92
       -2
340
0
 93
        0
 40
1.125
309
GRIDFORMAT_END
 95
        2
302
GRIDFORMAT
  1
GRIDFORMAT_BEGIN
 90
        0
 91
        1
 62
     0
 92
       -2
340
0
 93
        0
 40
1.125
309
GRIDFORMAT_END
 95
        4
302
GRIDFORMAT
  1
GRIDFORMAT_BEGIN
 90
        0
 91
        1
 62
     0
 92
       -2
340
0
 93
        0
 40
1.125
309
GRIDFORMAT_END
 95
        8
302
GRIDFORMAT
  1
GRIDFORMAT_BEGIN
 90
        0
 91
        1
 62
     0
 92
       -2
340
0
 93
        0
 40
1.125
309
GRIDFORMAT_END
 95
       16
302
GRIDFORMAT
  1
GRIDFORMAT_BEGIN
 90
        0
 91
        1
 62
     0
 92
       -2
340
0
 93
        0
 40
1.125
309
GRIDFORMAT_END
 95
       32
302
GRIDFORMAT
  1
GRIDFORMAT_BEGIN
 90
        0
 91
        1
 62
     0
 92
       -2
340
0
 93
        0
 40
1.125
309
GRIDFORMAT_END
309
TABLEFORMAT_END
  1
CELLSTYLE_BEGIN
 90
        1
 91
        1
300
_TITLE
309
CELLSTYLE_END
300
CELLSTYLE
  1
TABLEFORMAT_BEGIN
 90
        5
170
     1
 91
        0
 92
        0
 62
   257
 93
        1
300
CONTENTFORMAT
  1
CONTENTFORMAT_BEGIN
 90
        0
 91
        0
 92
      512
 93
        0
300

 40
0.0
140
1.0
 94
        5
 62
     0
340
50
144
4.5
309
CONTENTFORMAT_END
171
     1
301
MARGIN
  1
CELLMARGIN_BEGIN
 40
1.5
 40
1.5
 40
1.5
 40
1.5
 40
4.5
 40
4.5
309
CELLMARGIN_END
 94
        6
 95
        1
302
GRIDFORMAT
  1
GRIDFORMAT_BEGIN
 90
        0
 91
        1
 62
     0
 92
       -2
340
0
 93
        0
 40
1.125
309
GRIDFORMAT_END
 95
        2
302
GRIDFORMAT
  1
GRIDFORMAT_BEGIN
 90
        0
 91
        1
 62
     0
 92
       -2
340
0
 93
        0
 40
1.125
309
GRIDFORMAT_END
 95
        4
302
GRIDFORMAT
  1
GRIDFORMAT_BEGIN
 90
        0
 91
        1
 62
     0
 92
       -2
340
0
 93
        0
 40
1.125
309
GRIDFORMAT_END
 95
        8
302
GRIDFORMAT
  1
GRIDFORMAT_BEGIN
 90
        0
 91
        1
 62
     0
 92
       -2
340
0
 93
        0
 40
1.125
309
GRIDFORMAT_END
 95
       16
302
GRIDFORMAT
  1
GRIDFORMAT_BEGIN
 90
        0
 91
        1
 62
     0
 92
       -2
340
0
 93
        0
 40
1.125
309
GRIDFORMAT_END
 95
       32
302
GRIDFORMAT
  1
GRIDFORMAT_BEGIN
 90
        0
 91
        1
 62
     0
 92
       -2
340
0
 93
        0
 40
1.125
309
GRIDFORMAT_END
309
TABLEFORMAT_END
  1
CELLSTYLE_BEGIN
 90
        2
 91
        1
300
_HEADER
309
CELLSTYLE_END
300
CELLSTYLE
  1
TABLEFORMAT_BEGIN
 90
        5
170
     1
 91
        0
 92
        0
 62
   257
 93
        1
300
CONTENTFORMAT
  1
CONTENTFORMAT_BEGIN
 90
        0
 91
        0
 92
      512
 93
        0
300

 40
0.0
140
1.0
 94
        2
 62
     0
340
50
144
4.5
309
CONTENTFORMAT_END
171
     1
301
MARGIN
  1
CELLMARGIN_BEGIN
 40
1.5
 40
1.5
 40
1.5
 40
1.5
 40
4.5
 40
4.5
309
CELLMARGIN_END
 94
        6
 95
        1
302
GRIDFORMAT
  1
GRIDFORMAT_BEGIN
 90
        0
 91
        1
 62
     0
 92
       -2
340
0
 93
        0
 40
1.125
309
GRIDFORMAT_END
 95
        2
302
GRIDFORMAT
  1
GRIDFORMAT_BEGIN
 90
        0
 91
        1
 62
     0
 92
       -2
340
0
 93
        0
 40
1.125
309
GRIDFORMAT_END
 95
        4
302
GRIDFORMAT
  1
GRIDFORMAT_BEGIN
 90
        0
 91
        1
 62
     0
 92
       -2
340
0
 93
        0
 40
1.125
309
GRIDFORMAT_END
 95
        8
302
GRIDFORMAT
  1
GRIDFORMAT_BEGIN
 90
        0
 91
        1
 62
     0
 92
       -2
340
0
 93
        0
 40
1.125
309
GRIDFORMAT_END
 95
       16
302
GRIDFORMAT
  1
GRIDFORMAT_BEGIN
 90
        0
 91
        1
 62
     0
 92
       -2
340
0
 93
        0
 40
1.125
309
GRIDFORMAT_END
 95
       32
302
GRIDFORMAT
  1
GRIDFORMAT_BEGIN
 90
        0
 91
        1
 62
     0
 92
       -2
340
0
 93
        0
 40
1.125
309
GRIDFORMAT_END
309
TABLEFORMAT_END
  1
CELLSTYLE_BEGIN
 90
        3
 91
        2
300
_DATA
309
CELLSTYLE_END
  0
XRECORD
  5
909C
102
{ACAD_REACTORS
330
906D
102
}
330
906D
100
AcDbXrecord
280
     1
102
ACAD_ROUNDTRIP_PRE2007_TABLESTYLE
 90
      512
 91
        0
  1

 92
      512
 93
        0
  2

 94
      512
 95
        0
  3

  0
XRECORD
  5
9080
102
{ACAD_REACTORS
330
907F
102
}
330
907F
100
AcDbXrecord
280
     1
102
RTVSPropertyOp0
 70
     1
102
RTVSPropertyOp1
 70
     1
102
RTVSPropertyOp2
 70
     1
102
RTVSPropertyOp3
 70
     1
102
RTVSPropertyOp4
 70
     1
102
RTVSPropertyOp5
 70
     1
102
RTVSPropertyOp6
 70
     1
102
RTVSPropertyOp7
 70
     1
102
RTVSPropertyOp8
 70
     1
102
RTVSPropertyOp9
 70
     1
102
RTVSPropertyOp10
 70
     1
102
RTVSPropertyOp11
 70
     1
102
RTVSPropertyOp12
 70
     1
102
RTVSPropertyOp13
 70
     1
102
RTVSPropertyOp14
 70
     1
102
RTVSPropertyOp15
 70
     1
102
RTVSPropertyOp16
 70
     1
102
RTVSPropertyOp17
 70
     1
102
RTVSPropertyOp18
 70
     1
102
RTVSPropertyOp19
 70
     1
102
RTVSPropertyOp20
 70
     1
102
RTVSPropertyOp21
 70
     1
102
RTVSPropertyOp22
 70
     1
102
RTVSPropertyOp23
 70
     1
102
RTVSPropertyOp24
 70
     1
102
RTVSPropertyOp25
 70
     1
102
RTVSPropertyOp26
 70
     1
102
RTVSPropertyOp27
 70
     1
  0
XRECORD
  5
9084
102
{ACAD_REACTORS
330
9083
102
}
330
9083
100
AcDbXrecord
280
     1
102
RTVSPropertyOp0
 70
     1
102
RTVSPropertyOp1
 70
     1
102
RTVSPropertyOp2
 70
     1
102
RTVSPropertyOp3
 70
     1
102
RTVSPropertyOp4
 70
     1
102
RTVSPropertyOp5
 70
     1
102
RTVSPropertyOp6
 70
     1
102
RTVSPropertyOp7
 70
     1
102
RTVSPropertyOp8
 70
     1
102
RTVSPropertyOp9
 70
     1
102
RTVSPropertyOp10
 70
     1
102
RTVSPropertyOp11
 70
     1
102
RTVSPropertyOp12
 70
     1
102
RTVSPropertyOp13
 70
     1
102
RTVSPropertyOp14
 70
     1
102
RTVSPropertyOp15
 70
     1
102
RTVSPropertyOp16
 70
     1
102
RTVSPropertyOp17
 70
     1
102
RTVSPropertyOp18
 70
     1
102
RTVSPropertyOp19
 70
     1
102
RTVSPropertyOp20
 70
     1
102
RTVSPropertyOp21
 70
     1
102
RTVSPropertyOp22
 70
     1
102
RTVSPropertyOp23
 70
     1
102
RTVSPropertyOp24
 70
     1
102
RTVSPropertyOp25
 70
     1
102
RTVSPropertyOp26
 70
     1
102
RTVSPropertyOp27
 70
     1
  0
XRECORD
  5
9082
102
{ACAD_REACTORS
330
9081
102
}
330
9081
100
AcDbXrecord
280
     1
102
RTVSPropertyOp0
 70
     1
102
RTVSPropertyOp1
 70
     1
102
RTVSPropertyOp2
 70
     1
102
RTVSPropertyOp3
 70
     1
102
RTVSPropertyOp4
 70
     1
102
RTVSPropertyOp5
 70
     1
102
RTVSPropertyOp6
 70
     1
102
RTVSPropertyOp7
 70
     1
102
RTVSPropertyOp8
 70
     1
102
RTVSPropertyOp9
 70
     1
102
RTVSPropertyOp10
 70
     1
102
RTVSPropertyOp11
 70
     1
102
RTVSPropertyOp12
 70
     1
102
RTVSPropertyOp13
 70
     1
102
RTVSPropertyOp14
 70
     1
102
RTVSPropertyOp15
 70
     1
102
RTVSPropertyOp16
 70
     1
102
RTVSPropertyOp17
 70
     1
102
RTVSPropertyOp18
 70
     1
102
RTVSPropertyOp19
 70
     1
102
RTVSPropertyOp20
 70
     1
102
RTVSPropertyOp21
 70
     1
102
RTVSPropertyOp22
 70
     1
102
RTVSPropertyOp23
 70
     1
102
RTVSPropertyOp24
 70
     1
102
RTVSPropertyOp25
 70
     1
102
RTVSPropertyOp26
 70
     1
102
RTVSPropertyOp27
 70
     1
  0
XRECORD
  5
907E
102
{ACAD_REACTORS
330
907D
102
}
330
907D
100
AcDbXrecord
280
     1
102
RTVSPropertyOp0
 70
     1
102
RTVSPropertyOp1
 70
     1
102
RTVSPropertyOp2
 70
     1
102
RTVSPropertyOp3
 70
     1
102
RTVSPropertyOp4
 70
     1
102
RTVSPropertyOp5
 70
     1
102
RTVSPropertyOp6
 70
     1
102
RTVSPropertyOp7
 70
     1
102
RTVSPropertyOp8
 70
     1
102
RTVSPropertyOp9
 70
     1
102
RTVSPropertyOp10
 70
     1
102
RTVSPropertyOp11
 70
     1
102
RTVSPropertyOp12
 70
     1
102
RTVSPropertyOp13
 70
     1
102
RTVSPropertyOp14
 70
     1
102
RTVSPropertyOp15
 70
     1
102
RTVSPropertyOp16
 70
     1
102
RTVSPropertyOp17
 70
     1
102
RTVSPropertyOp18
 70
     1
102
RTVSPropertyOp19
 70
     1
102
RTVSPropertyOp20
 70
     1
102
RTVSPropertyOp21
 70
     1
102
RTVSPropertyOp22
 70
     1
102
RTVSPropertyOp23
 70
     1
102
RTVSPropertyOp24
 70
     1
102
RTVSPropertyOp25
 70
     1
102
RTVSPropertyOp26
 70
     1
102
RTVSPropertyOp27
 70
     1
  0
XRECORD
  5
908C
102
{ACAD_REACTORS
330
908B
102
}
330
908B
100
AcDbXrecord
280
     1
102
RTVSPropertyOp0
 70
     1
102
RTVSPropertyOp1
 70
     1
102
RTVSPropertyOp2
 70
     1
102
RTVSPropertyOp3
 70
     1
102
RTVSPropertyOp4
 70
     1
102
RTVSPropertyOp5
 70
     1
102
RTVSPropertyOp6
 70
     1
102
RTVSPropertyOp7
 70
     1
102
RTVSPropertyOp8
 70
     1
102
RTVSPropertyOp9
 70
     1
102
RTVSPropertyOp10
 70
     1
102
RTVSPropertyOp11
 70
     1
102
RTVSPropertyOp12
 70
     1
102
RTVSPropertyOp13
 70
     1
102
RTVSPropertyOp14
 70
     1
102
RTVSPropertyOp15
 70
     1
102
RTVSPropertyOp16
 70
     1
102
RTVSPropertyOp17
 70
     1
102
RTVSPropertyOp18
 70
     1
102
RTVSPropertyOp19
 70
     1
102
RTVSPropertyOp20
 70
     1
102
RTVSPropertyOp21
 70
     1
102
RTVSPropertyOp22
 70
     1
102
RTVSPropertyOp23
 70
     1
102
RTVSPropertyOp24
 70
     1
102
RTVSPropertyOp25
 70
     1
102
RTVSPropertyOp26
 70
     1
102
RTVSPropertyOp27
 70
     1
  0
XRECORD
  5
9094
102
{ACAD_REACTORS
330
9093
102
}
330
9093
100
AcDbXrecord
280
     1
102
RTVSPropertyOp0
 70
     1
102
RTVSPropertyOp1
 70
     1
102
RTVSPropertyOp2
 70
     1
102
RTVSPropertyOp3
 70
     1
102
RTVSPropertyOp4
 70
     1
102
RTVSPropertyOp5
 70
     1
102
RTVSPropertyOp6
 70
     1
102
RTVSPropertyOp7
 70
     1
102
RTVSPropertyOp8
 70
     1
102
RTVSPropertyOp9
 70
     1
102
RTVSPropertyOp10
 70
     1
102
RTVSPropertyOp11
 70
     1
102
RTVSPropertyOp12
 70
     1
102
RTVSPropertyOp13
 70
     1
102
RTVSPropertyOp14
 70
     1
102
RTVSPropertyOp15
 70
     1
102
RTVSPropertyOp16
 70
     1
102
RTVSPropertyOp17
 70
     1
102
RTVSPropertyOp18
 70
     1
102
RTVSPropertyOp19
 70
     1
102
RTVSPropertyOp20
 70
     1
102
RTVSPropertyOp21
 70
     1
102
RTVSPropertyOp22
 70
     1
102
RTVSPropertyOp23
 70
     1
102
RTVSPropertyOp24
 70
     1
102
RTVSPropertyOp25
 70
     1
102
RTVSPropertyOp26
 70
     1
102
RTVSPropertyOp27
 70
     1
  0
XRECORD
  5
9086
102
{ACAD_REACTORS
330
9085
102
}
330
9085
100
AcDbXrecord
280
     1
102
RTVSPropertyOp0
 70
     1
102
RTVSPropertyOp1
 70
     1
102
RTVSPropertyOp2
 70
     1
102
RTVSPropertyOp3
 70
     1
102
RTVSPropertyOp4
 70
     1
102
RTVSPropertyOp5
 70
     1
102
RTVSPropertyOp6
 70
     1
102
RTVSPropertyOp7
 70
     1
102
RTVSPropertyOp8
 70
     1
102
RTVSPropertyOp9
 70
     1
102
RTVSPropertyOp10
 70
     1
102
RTVSPropertyOp11
 70
     1
102
RTVSPropertyOp12
 70
     1
102
RTVSPropertyOp13
 70
     1
102
RTVSPropertyOp14
 70
     1
102
RTVSPropertyOp15
 70
     1
102
RTVSPropertyOp16
 70
     1
102
RTVSPropertyOp17
 70
     1
102
RTVSPropertyOp18
 70
     1
102
RTVSPropertyOp19
 70
     1
102
RTVSPropertyOp20
 70
     1
102
RTVSPropertyOp21
 70
     1
102
RTVSPropertyOp22
 70
     1
102
RTVSPropertyOp23
 70
     1
102
RTVSPropertyOp24
 70
     1
102
RTVSPropertyOp25
 70
     1
102
RTVSPropertyOp26
 70
     1
102
RTVSPropertyOp27
 70
     1
  0
XRECORD
  5
908A
102
{ACAD_REACTORS
330
9089
102
}
330
9089
100
AcDbXrecord
280
     1
102
RTVSPropertyOp0
 70
     1
102
RTVSPropertyOp1
 70
     1
102
RTVSPropertyOp2
 70
     1
102
RTVSPropertyOp3
 70
     1
102
RTVSPropertyOp4
 70
     1
102
RTVSPropertyOp5
 70
     1
102
RTVSPropertyOp6
 70
     1
102
RTVSPropertyOp7
 70
     1
102
RTVSPropertyOp8
 70
     1
102
RTVSPropertyOp9
 70
     1
102
RTVSPropertyOp10
 70
     1
102
RTVSPropertyOp11
 70
     1
102
RTVSPropertyOp12
 70
     1
102
RTVSPropertyOp13
 70
     1
102
RTVSPropertyOp14
 70
     1
102
RTVSPropertyOp15
 70
     1
102
RTVSPropertyOp16
 70
     1
102
RTVSPropertyOp17
 70
     1
102
RTVSPropertyOp18
 70
     1
102
RTVSPropertyOp19
 70
     1
102
RTVSPropertyOp20
 70
     1
102
RTVSPropertyOp21
 70
     1
102
RTVSPropertyOp22
 70
     1
102
RTVSPropertyOp23
 70
     1
102
RTVSPropertyOp24
 70
     1
102
RTVSPropertyOp25
 70
     1
102
RTVSPropertyOp26
 70
     1
102
RTVSPropertyOp27
 70
     1
  0
XRECORD
  5
909A
102
{ACAD_REACTORS
330
9099
102
}
330
9099
100
AcDbXrecord
280
     1
102
RTVSPropertyOp0
 70
     0
102
RTVSPropertyOp1
 70
     0
102
RTVSPropertyOp2
 70
     0
102
RTVSPropertyOp3
 70
     0
102
RTVSPropertyOp4
 70
     0
102
RTVSPropertyOp5
 70
     0
102
RTVSPropertyOp6
 70
     0
102
RTVSPropertyOp7
 70
     0
102
RTVSPropertyOp8
 70
     0
102
RTVSPropertyOp9
 70
     0
102
RTVSPropertyOp10
 70
     0
102
RTVSPropertyOp11
 70
     0
102
RTVSPropertyOp12
 70
     0
102
RTVSPropertyOp13
 70
     0
102
RTVSPropertyOp14
 70
     2
102
RTVSPropertyOp15
 70
     0
102
RTVSPropertyOp16
 70
     0
102
RTVSPropertyOp17
 70
     0
102
RTVSPropertyOp18
 70
     0
102
RTVSPropertyOp19
 70
     0
102
RTVSPropertyOp20
 70
     0
102
RTVSPropertyOp21
 70
     0
102
RTVSPropertyOp22
 70
     0
102
RTVSPropertyOp23
 70
     0
102
RTVSPropertyOp24
 70
     0
102
RTVSPropertyOp25
 70
     0
102
RTVSPropertyOp26
 70
     0
102
RTVSPropertyOp27
 70
     0
  0
XRECORD
  5
9092
102
{ACAD_REACTORS
330
9091
102
}
330
9091
100
AcDbXrecord
280
     1
102
RTVSPropertyOp0
 70
     1
102
RTVSPropertyOp1
 70
     1
102
RTVSPropertyOp2
 70
     1
102
RTVSPropertyOp3
 70
     1
102
RTVSPropertyOp4
 70
     1
102
RTVSPropertyOp5
 70
     1
102
RTVSPropertyOp6
 70
     1
102
RTVSPropertyOp7
 70
     1
102
RTVSPropertyOp8
 70
     1
102
RTVSPropertyOp9
 70
     1
102
RTVSPropertyOp10
 70
     1
102
RTVSPropertyOp11
 70
     1
102
RTVSPropertyOp12
 70
     1
102
RTVSPropertyOp13
 70
     1
102
RTVSPropertyOp14
 70
     1
102
RTVSPropertyOp15
 70
     1
102
RTVSPropertyOp16
 70
     1
102
RTVSPropertyOp17
 70
     1
102
RTVSPropertyOp18
 70
     1
102
RTVSPropertyOp19
 70
     1
102
RTVSPropertyOp20
 70
     1
102
RTVSPropertyOp21
 70
     1
102
RTVSPropertyOp22
 70
     1
102
RTVSPropertyOp23
 70
     1
102
RTVSPropertyOp24
 70
     1
102
RTVSPropertyOp25
 70
     1
102
RTVSPropertyOp26
 70
     1
102
RTVSPropertyOp27
 70
     1
  0
XRECORD
  5
9076
102
{ACAD_REACTORS
330
9075
102
}
330
9075
100
AcDbXrecord
280
     1
102
RTVSPropertyOp0
 70
     1
102
RTVSPropertyOp1
 70
     1
102
RTVSPropertyOp2
 70
     1
102
RTVSPropertyOp3
 70
     1
102
RTVSPropertyOp4
 70
     1
102
RTVSPropertyOp5
 70
     1
102
RTVSPropertyOp6
 70
     1
102
RTVSPropertyOp7
 70
     1
102
RTVSPropertyOp8
 70
     1
102
RTVSPropertyOp9
 70
     1
102
RTVSPropertyOp10
 70
     1
102
RTVSPropertyOp11
 70
     1
102
RTVSPropertyOp12
 70
     1
102
RTVSPropertyOp13
 70
     1
102
RTVSPropertyOp14
 70
     1
102
RTVSPropertyOp15
 70
     1
102
RTVSPropertyOp16
 70
     1
102
RTVSPropertyOp17
 70
     1
102
RTVSPropertyOp18
 70
     1
102
RTVSPropertyOp19
 70
     1
102
RTVSPropertyOp20
 70
     1
102
RTVSPropertyOp21
 70
     1
102
RTVSPropertyOp22
 70
     1
102
RTVSPropertyOp23
 70
     1
102
RTVSPropertyOp24
 70
     1
102
RTVSPropertyOp25
 70
     1
102
RTVSPropertyOp26
 70
     1
102
RTVSPropertyOp27
 70
     1
  0
XRECORD
  5
9078
102
{ACAD_REACTORS
330
9077
102
}
330
9077
100
AcDbXrecord
280
     1
102
RTVSPropertyOp0
 70
     1
102
RTVSPropertyOp1
 70
     1
102
RTVSPropertyOp2
 70
     1
102
RTVSPropertyOp3
 70
     1
102
RTVSPropertyOp4
 70
     1
102
RTVSPropertyOp5
 70
     1
102
RTVSPropertyOp6
 70
     1
102
RTVSPropertyOp7
 70
     1
102
RTVSPropertyOp8
 70
     1
102
RTVSPropertyOp9
 70
     1
102
RTVSPropertyOp10
 70
     1
102
RTVSPropertyOp11
 70
     1
102
RTVSPropertyOp12
 70
     1
102
RTVSPropertyOp13
 70
     1
102
RTVSPropertyOp14
 70
     1
102
RTVSPropertyOp15
 70
     1
102
RTVSPropertyOp16
 70
     1
102
RTVSPropertyOp17
 70
     1
102
RTVSPropertyOp18
 70
     1
102
RTVSPropertyOp19
 70
     1
102
RTVSPropertyOp20
 70
     1
102
RTVSPropertyOp21
 70
     1
102
RTVSPropertyOp22
 70
     1
102
RTVSPropertyOp23
 70
     1
102
RTVSPropertyOp24
 70
     1
102
RTVSPropertyOp25
 70
     1
102
RTVSPropertyOp26
 70
     1
102
RTVSPropertyOp27
 70
     1
  0
XRECORD
  5
907A
102
{ACAD_REACTORS
330
9079
102
}
330
9079
100
AcDbXrecord
280
     1
102
RTVSPropertyOp0
 70
     1
102
RTVSPropertyOp1
 70
     1
102
RTVSPropertyOp2
 70
     1
102
RTVSPropertyOp3
 70
     1
102
RTVSPropertyOp4
 70
     1
102
RTVSPropertyOp5
 70
     1
102
RTVSPropertyOp6
 70
     1
102
RTVSPropertyOp7
 70
     1
102
RTVSPropertyOp8
 70
     1
102
RTVSPropertyOp9
 70
     1
102
RTVSPropertyOp10
 70
     1
102
RTVSPropertyOp11
 70
     1
102
RTVSPropertyOp12
 70
     1
102
RTVSPropertyOp13
 70
     1
102
RTVSPropertyOp14
 70
     1
102
RTVSPropertyOp15
 70
     1
102
RTVSPropertyOp16
 70
     1
102
RTVSPropertyOp17
 70
     1
102
RTVSPropertyOp18
 70
     1
102
RTVSPropertyOp19
 70
     1
102
RTVSPropertyOp20
 70
     1
102
RTVSPropertyOp21
 70
     1
102
RTVSPropertyOp22
 70
     1
102
RTVSPropertyOp23
 70
     1
102
RTVSPropertyOp24
 70
     1
102
RTVSPropertyOp25
 70
     1
102
RTVSPropertyOp26
 70
     1
102
RTVSPropertyOp27
 70
     1
  0
XRECORD
  5
907C
102
{ACAD_REACTORS
330
907B
102
}
330
907B
100
AcDbXrecord
280
     1
102
RTVSPropertyOp0
 70
     1
102
RTVSPropertyOp1
 70
     1
102
RTVSPropertyOp2
 70
     1
102
RTVSPropertyOp3
 70
     1
102
RTVSPropertyOp4
 70
     1
102
RTVSPropertyOp5
 70
     1
102
RTVSPropertyOp6
 70
     1
102
RTVSPropertyOp7
 70
     1
102
RTVSPropertyOp8
 70
     1
102
RTVSPropertyOp9
 70
     1
102
RTVSPropertyOp10
 70
     1
102
RTVSPropertyOp11
 70
     1
102
RTVSPropertyOp12
 70
     1
102
RTVSPropertyOp13
 70
     1
102
RTVSPropertyOp14
 70
     1
102
RTVSPropertyOp15
 70
     1
102
RTVSPropertyOp16
 70
     1
102
RTVSPropertyOp17
 70
     1
102
RTVSPropertyOp18
 70
     1
102
RTVSPropertyOp19
 70
     1
102
RTVSPropertyOp20
 70
     1
102
RTVSPropertyOp21
 70
     1
102
RTVSPropertyOp22
 70
     1
102
RTVSPropertyOp23
 70
     1
102
RTVSPropertyOp24
 70
     1
102
RTVSPropertyOp25
 70
     1
102
RTVSPropertyOp26
 70
     1
102
RTVSPropertyOp27
 70
     1
  0
XRECORD
  5
9096
102
{ACAD_REACTORS
330
9095
102
}
330
9095
100
AcDbXrecord
280
     1
102
RTVSPropertyOp0
 70
     0
102
RTVSPropertyOp1
 70
     0
102
RTVSPropertyOp2
 70
     0
102
RTVSPropertyOp3
 70
     0
102
RTVSPropertyOp4
 70
     0
102
RTVSPropertyOp5
 70
     0
102
RTVSPropertyOp6
 70
     0
102
RTVSPropertyOp7
 70
     0
102
RTVSPropertyOp8
 70
     0
102
RTVSPropertyOp9
 70
     0
102
RTVSPropertyOp10
 70
     0
102
RTVSPropertyOp11
 70
     0
102
RTVSPropertyOp12
 70
     0
102
RTVSPropertyOp13
 70
     0
102
RTVSPropertyOp14
 70
     2
102
RTVSPropertyOp15
 70
     0
102
RTVSPropertyOp16
 70
     0
102
RTVSPropertyOp17
 70
     0
102
RTVSPropertyOp18
 70
     0
102
RTVSPropertyOp19
 70
     0
102
RTVSPropertyOp20
 70
     0
102
RTVSPropertyOp21
 70
     0
102
RTVSPropertyOp22
 70
     0
102
RTVSPropertyOp23
 70
     0
102
RTVSPropertyOp24
 70
     0
102
RTVSPropertyOp25
 70
     0
102
RTVSPropertyOp26
 70
     0
102
RTVSPropertyOp27
 70
     0
  0
XRECORD
  5
9090
102
{ACAD_REACTORS
330
908F
102
}
330
908F
100
AcDbXrecord
280
     1
102
RTVSPropertyOp0
 70
     1
102
RTVSPropertyOp1
 70
     1
102
RTVSPropertyOp2
 70
     1
102
RTVSPropertyOp3
 70
     1
102
RTVSPropertyOp4
 70
     1
102
RTVSPropertyOp5
 70
     1
102
RTVSPropertyOp6
 70
     1
102
RTVSPropertyOp7
 70
     1
102
RTVSPropertyOp8
 70
     1
102
RTVSPropertyOp9
 70
     1
102
RTVSPropertyOp10
 70
     1
102
RTVSPropertyOp11
 70
     1
102
RTVSPropertyOp12
 70
     1
102
RTVSPropertyOp13
 70
     1
102
RTVSPropertyOp14
 70
     1
102
RTVSPropertyOp15
 70
     1
102
RTVSPropertyOp16
 70
     1
102
RTVSPropertyOp17
 70
     1
102
RTVSPropertyOp18
 70
     1
102
RTVSPropertyOp19
 70
     1
102
RTVSPropertyOp20
 70
     1
102
RTVSPropertyOp21
 70
     1
102
RTVSPropertyOp22
 70
     1
102
RTVSPropertyOp23
 70
     1
102
RTVSPropertyOp24
 70
     1
102
RTVSPropertyOp25
 70
     1
102
RTVSPropertyOp26
 70
     1
102
RTVSPropertyOp27
 70
     1
  0
XRECORD
  5
9098
102
{ACAD_REACTORS
330
9097
102
}
330
9097
100
AcDbXrecord
280
     1
102
RTVSPropertyOp0
 70
     0
102
RTVSPropertyOp1
 70
     0
102
RTVSPropertyOp2
 70
     0
102
RTVSPropertyOp3
 70
     0
102
RTVSPropertyOp4
 70
     0
102
RTVSPropertyOp5
 70
     0
102
RTVSPropertyOp6
 70
     0
102
RTVSPropertyOp7
 70
     0
102
RTVSPropertyOp8
 70
     0
102
RTVSPropertyOp9
 70
     0
102
RTVSPropertyOp10
 70
     0
102
RTVSPropertyOp11
 70
     0
102
RTVSPropertyOp12
 70
     0
102
RTVSPropertyOp13
 70
     0
102
RTVSPropertyOp14
 70
     2
102
RTVSPropertyOp15
 70
     0
102
RTVSPropertyOp16
 70
     0
102
RTVSPropertyOp17
 70
     0
102
RTVSPropertyOp18
 70
     0
102
RTVSPropertyOp19
 70
     0
102
RTVSPropertyOp20
 70
     0
102
RTVSPropertyOp21
 70
     0
102
RTVSPropertyOp22
 70
     0
102
RTVSPropertyOp23
 70
     0
102
RTVSPropertyOp24
 70
     0
102
RTVSPropertyOp25
 70
     0
102
RTVSPropertyOp26
 70
     0
102
RTVSPropertyOp27
 70
     0
  0
XRECORD
  5
9088
102
{ACAD_REACTORS
330
9087
102
}
330
9087
100
AcDbXrecord
280
     1
102
RTVSPropertyOp0
 70
     1
102
RTVSPropertyOp1
 70
     1
102
RTVSPropertyOp2
 70
     1
102
RTVSPropertyOp3
 70
     1
102
RTVSPropertyOp4
 70
     1
102
RTVSPropertyOp5
 70
     1
102
RTVSPropertyOp6
 70
     1
102
RTVSPropertyOp7
 70
     1
102
RTVSPropertyOp8
 70
     1
102
RTVSPropertyOp9
 70
     1
102
RTVSPropertyOp10
 70
     1
102
RTVSPropertyOp11
 70
     1
102
RTVSPropertyOp12
 70
     1
102
RTVSPropertyOp13
 70
     1
102
RTVSPropertyOp14
 70
     1
102
RTVSPropertyOp15
 70
     1
102
RTVSPropertyOp16
 70
     1
102
RTVSPropertyOp17
 70
     1
102
RTVSPropertyOp18
 70
     1
102
RTVSPropertyOp19
 70
     1
102
RTVSPropertyOp20
 70
     1
102
RTVSPropertyOp21
 70
     1
102
RTVSPropertyOp22
 70
     1
102
RTVSPropertyOp23
 70
     1
102
RTVSPropertyOp24
 70
     1
102
RTVSPropertyOp25
 70
     1
102
RTVSPropertyOp26
 70
     1
102
RTVSPropertyOp27
 70
     1
  0
XRECORD
  5
908E
102
{ACAD_REACTORS
330
908D
102
}
330
908D
100
AcDbXrecord
280
     1
102
RTVSPropertyOp0
 70
     1
102
RTVSPropertyOp1
 70
     1
102
RTVSPropertyOp2
 70
     1
102
RTVSPropertyOp3
 70
     1
102
RTVSPropertyOp4
 70
     1
102
RTVSPropertyOp5
 70
     1
102
RTVSPropertyOp6
 70
     1
102
RTVSPropertyOp7
 70
     1
102
RTVSPropertyOp8
 70
     1
102
RTVSPropertyOp9
 70
     1
102
RTVSPropertyOp10
 70
     1
102
RTVSPropertyOp11
 70
     1
102
RTVSPropertyOp12
 70
     1
102
RTVSPropertyOp13
 70
     1
102
RTVSPropertyOp14
 70
     1
102
RTVSPropertyOp15
 70
     1
102
RTVSPropertyOp16
 70
     1
102
RTVSPropertyOp17
 70
     1
102
RTVSPropertyOp18
 70
     1
102
RTVSPropertyOp19
 70
     1
102
RTVSPropertyOp20
 70
     1
102
RTVSPropertyOp21
 70
     1
102
RTVSPropertyOp22
 70
     1
102
RTVSPropertyOp23
 70
     1
102
RTVSPropertyOp24
 70
     1
102
RTVSPropertyOp25
 70
     1
102
RTVSPropertyOp26
 70
     1
102
RTVSPropertyOp27
 70
     1
  0
ENDSEC
  0
EOF
