  0
SECTION
  2
HEADER
  9
$ACADVER
  1
AC1018
  9
$ACADMAINTVER
 70
   104
  9
$DWGCODEPAGE
  3
ANSI_1252
  9
$LASTSAVEDBY
  1
admin
  9
$INSBASE
 10
0.0
 20
0.0
 30
0.0
  9
$EXTMIN
 10
314.6506030171031
 20
114.2603899923033
 30
-0.0015258207003583
  9
$EXTMAX
 10
713.2940498078341
 20
745.8901828542966
 30
0.0000000349246037
  9
$LIMMIN
 10
0.0
 20
0.0
  9
$LIMMAX
 10
420.0
 20
297.0
  9
$ORTHOMODE
 70
     0
  9
$REGENMODE
 70
     1
  9
$FILLMODE
 70
     1
  9
$QTEXTMODE
 70
     0
  9
$MIRRTEXT
 70
     0
  9
$LTSCALE
 40
1.0
  9
$ATTMODE
 70
     1
  9
$TEXTSIZE
 40
2.5
  9
$TRACEWID
 40
1.0
  9
$TEXTSTYLE
  7
Standard
  9
$CLAYER
  8
0
  9
$CELTYPE
  6
ByLayer
  9
$CECOLOR
 62
   256
  9
$CELTSCALE
 40
1.0
  9
$DISPSILH
 70
     0
  9
$DIMSCALE
 40
1.0
  9
$DIMASZ
 40
2.5
  9
$DIMEXO
 40
0.625
  9
$DIMDLI
 40
3.75
  9
$DIMRND
 40
0.0
  9
$DIMDLE
 40
0.0
  9
$DIMEXE
 40
1.25
  9
$DIMTP
 40
0.0
  9
$DIMTM
 40
0.0
  9
$DIMTXT
 40
2.5
  9
$DIMCEN
 40
2.5
  9
$DIMTSZ
 40
0.0
  9
$DIMTOL
 70
     0
  9
$DIMLIM
 70
     0
  9
$DIMTIH
 70
     0
  9
$DIMTOH
 70
     0
  9
$DIMSE1
 70
     0
  9
$DIMSE2
 70
     0
  9
$DIMTAD
 70
     1
  9
$DIMZIN
 70
     8
  9
$DIMBLK
  1

  9
$DIMASO
 70
     1
  9
$DIMSHO
 70
     1
  9
$DIMPOST
  1

  9
$DIMAPOST
  1

  9
$DIMALT
 70
     0
  9
$DIMALTD
 70
     3
  9
$DIMALTF
 40
0.03937007874016
  9
$DIMLFAC
 40
1.0
  9
$DIMTOFL
 70
     1
  9
$DIMTVP
 40
0.0
  9
$DIMTIX
 70
     0
  9
$DIMSOXD
 70
     0
  9
$DIMSAH
 70
     0
  9
$DIMBLK1
  1

  9
$DIMBLK2
  1

  9
$DIMSTYLE
  2
ISO-25
  9
$DIMCLRD
 70
     0
  9
$DIMCLRE
 70
     0
  9
$DIMCLRT
 70
     0
  9
$DIMTFAC
 40
1.0
  9
$DIMGAP
 40
0.625
  9
$DIMJUST
 70
     0
  9
$DIMSD1
 70
     0
  9
$DIMSD2
 70
     0
  9
$DIMTOLJ
 70
     0
  9
$DIMTZIN
 70
     8
  9
$DIMALTZ
 70
     0
  9
$DIMALTTZ
 70
     0
  9
$DIMUPT
 70
     0
  9
$DIMDEC
 70
     2
  9
$DIMTDEC
 70
     2
  9
$DIMALTU
 70
     2
  9
$DIMALTTD
 70
     3
  9
$DIMTXSTY
  7
Standard
  9
$DIMAUNIT
 70
     0
  9
$DIMADEC
 70
     0
  9
$DIMALTRND
 40
0.0
  9
$DIMAZIN
 70
     0
  9
$DIMDSEP
 70
    44
  9
$DIMATFIT
 70
     3
  9
$DIMFRAC
 70
     0
  9
$DIMLDRBLK
  1

  9
$DIMLUNIT
 70
     2
  9
$DIMLWD
 70
    -2
  9
$DIMLWE
 70
    -2
  9
$DIMTMOVE
 70
     0
  9
$LUNITS
 70
     2
  9
$LUPREC
 70
     4
  9
$SKETCHINC
 40
1.0
  9
$FILLETRAD
 40
0.0
  9
$AUNITS
 70
     0
  9
$AUPREC
 70
     0
  9
$MENU
  1
.
  9
$ELEVATION
 40
0.0
  9
$PELEVATION
 40
0.0
  9
$THICKNESS
 40
0.0
  9
$LIMCHECK
 70
     0
  9
$CHAMFERA
 40
0.0
  9
$CHAMFERB
 40
0.0
  9
$CHAMFERC
 40
0.0
  9
$CHAMFERD
 40
0.0
  9
$SKPOLY
 70
     0
  9
$TDCREATE
 40
2457869.280614120
  9
$TDUCREATE
 40
2457869.197280787
  9
$TDUPDATE
 40
2457869.347402524
  9
$TDUUPDATE
 40
2457869.264069190
  9
$TDINDWG
 40
0.0667888542
  9
$TDUSRTIMER
 40
0.0667886690
  9
$USRTIMER
 70
     1
  9
$ANGBASE
 50
0.0
  9
$ANGDIR
 70
     0
  9
$PDMODE
 70
     0
  9
$PDSIZE
 40
0.0
  9
$PLINEWID
 40
0.0
  9
$SPLFRAME
 70
     0
  9
$SPLINETYPE
 70
     6
  9
$SPLINESEGS
 70
     8
  9
$HANDSEED
  5
77F6
  9
$SURFTAB1
 70
     6
  9
$SURFTAB2
 70
     6
  9
$SURFTYPE
 70
     6
  9
$SURFU
 70
     6
  9
$SURFV
 70
     6
  9
$UCSBASE
  2

  9
$UCSNAME
  2

  9
$UCSORG
 10
0.0
 20
0.0
 30
0.0
  9
$UCSXDIR
 10
1.0
 20
0.0
 30
0.0
  9
$UCSYDIR
 10
0.0
 20
1.0
 30
0.0
  9
$UCSORTHOREF
  2

  9
$UCSORTHOVIEW
 70
     0
  9
$UCSORGTOP
 10
0.0
 20
0.0
 30
0.0
  9
$UCSORGBOTTOM
 10
0.0
 20
0.0
 30
0.0
  9
$UCSORGLEFT
 10
0.0
 20
0.0
 30
0.0
  9
$UCSORGRIGHT
 10
0.0
 20
0.0
 30
0.0
  9
$UCSORGFRONT
 10
0.0
 20
0.0
 30
0.0
  9
$UCSORGBACK
 10
0.0
 20
0.0
 30
0.0
  9
$PUCSBASE
  2

  9
$PUCSNAME
  2

  9
$PUCSORG
 10
0.0
 20
0.0
 30
0.0
  9
$PUCSXDIR
 10
1.0
 20
0.0
 30
0.0
  9
$PUCSYDIR
 10
0.0
 20
1.0
 30
0.0
  9
$PUCSORTHOREF
  2

  9
$PUCSORTHOVIEW
 70
     0
  9
$PUCSORGTOP
 10
0.0
 20
0.0
 30
0.0
  9
$PUCSORGBOTTOM
 10
0.0
 20
0.0
 30
0.0
  9
$PUCSORGLEFT
 10
0.0
 20
0.0
 30
0.0
  9
$PUCSORGRIGHT
 10
0.0
 20
0.0
 30
0.0
  9
$PUCSORGFRONT
 10
0.0
 20
0.0
 30
0.0
  9
$PUCSORGBACK
 10
0.0
 20
0.0
 30
0.0
  9
$USERI1
 70
     0
  9
$USERI2
 70
     0
  9
$USERI3
 70
     0
  9
$USERI4
 70
     0
  9
$USERI5
 70
     0
  9
$USERR1
 40
0.0
  9
$USERR2
 40
0.0
  9
$USERR3
 40
0.0
  9
$USERR4
 40
0.0
  9
$USERR5
 40
0.0
  9
$WORLDVIEW
 70
     1
  9
$SHADEDGE
 70
     3
  9
$SHADEDIF
 70
    70
  9
$TILEMODE
 70
     1
  9
$MAXACTVP
 70
    64
  9
$PINSBASE
 10
0.0
 20
0.0
 30
0.0
  9
$PLIMCHECK
 70
     0
  9
$PEXTMIN
 10
1.000000000000000E+20
 20
1.000000000000000E+20
 30
1.000000000000000E+20
  9
$PEXTMAX
 10
-1.000000000000000E+20
 20
-1.000000000000000E+20
 30
-1.000000000000000E+20
  9
$PLIMMIN
 10
0.0
 20
0.0
  9
$PLIMMAX
 10
420.0
 20
297.0
  9
$UNITMODE
 70
     0
  9
$VISRETAIN
 70
     1
  9
$PLINEGEN
 70
     0
  9
$PSLTSCALE
 70
     1
  9
$TREEDEPTH
 70
  3020
  9
$CMLSTYLE
  2
Standard
  9
$CMLJUST
 70
     0
  9
$CMLSCALE
 40
20.0
  9
$PROXYGRAPHICS
 70
     1
  9
$MEASUREMENT
 70
     1
  9
$CELWEIGHT
370
    -1
  9
$ENDCAPS
280
     0
  9
$JOINSTYLE
280
     0
  9
$LWDISPLAY
290
     0
  9
$INSUNITS
 70
     4
  9
$HYPERLINKBASE
  1

  9
$STYLESHEET
  1

  9
$XEDIT
290
     1
  9
$CEPSNTYPE
380
     0
  9
$PSTYLEMODE
290
     1
  9
$FINGERPRINTGUID
  2
{9DFB5F12-FE38-410F-B4C1-738DA96BFA2A}
  9
$VERSIONGUID
  2
{2DEE3260-9A93-45D7-A169-888D5F70EE42}
  9
$EXTNAMES
290
     1
  9
$PSVPSCALE
 40
0.0
  9
$OLESTARTUP
290
     0
  9
$SORTENTS
280
   127
  9
$INDEXCTL
280
     0
  9
$HIDETEXT
280
     1
  9
$XCLIPFRAME
290
     0
  9
$HALOGAP
280
     0
  9
$OBSCOLOR
 70
   257
  9
$OBSLTYPE
280
     0
  9
$INTERSECTIONDISPLAY
280
     0
  9
$INTERSECTIONCOLOR
 70
   257
  9
$DIMASSOC
280
     2
  9
$PROJECTNAME
  1

  0
ENDSEC
  0
SECTION
  2
CLASSES
  0
CLASS
  1
ACDBDICTIONARYWDFLT
  2
AcDbDictionaryWithDefault
  3
ObjectDBX Classes
 90
        0
 91
        1
280
     0
281
     0
  0
CLASS
  1
MATERIAL
  2
AcDbMaterial
  3
ObjectDBX Classes
 90
     1153
 91
        3
280
     0
281
     0
  0
CLASS
  1
VISUALSTYLE
  2
AcDbVisualStyle
  3
ObjectDBX Classes
 90
     4095
 91
       19
280
     0
281
     0
  0
CLASS
  1
SCALE
  2
AcDbScale
  3
ObjectDBX Classes
 90
     1153
 91
       17
280
     0
281
     0
  0
CLASS
  1
TABLESTYLE
  2
AcDbTableStyle
  3
ObjectDBX Classes
 90
     4095
 91
        1
280
     0
281
     0
  0
CLASS
  1
MLEADERSTYLE
  2
AcDbMLeaderStyle
  3
ACDB_MLEADERSTYLE_CLASS
 90
     4095
 91
        1
280
     0
281
     0
  0
CLASS
  1
SORTENTSTABLE
  2
AcDbSortentsTable
  3
ObjectDBX Classes
 90
        0
 91
      121
280
     0
281
     0
  0
CLASS
  1
AEC_REFEDIT_STATUS_TRACKER
  2
AecDbRefEditStatusTracker
  3
AecArchBase60|Product Desc: Autodesk Architectural Desktop 2007 |Company: Autodesk,Inc. |WEB Address: www.autodesk.com
 90
      129
 91
        1
280
     0
281
     0
  0
CLASS
  1
NPOCOLLECTION
  2
AcDbImpNonPersistentObjectsCollection
  3
ObjectDBX Classes
 90
     1153
 91
        1
280
     0
281
     0
  0
CLASS
  1
DICTIONARYVAR
  2
AcDbDictionaryVar
  3
ObjectDBX Classes
 90
        0
 91
      136
280
     0
281
     0
  0
CLASS
  1
CELLSTYLEMAP
  2
AcDbCellStyleMap
  3
ObjectDBX Classes
 90
     1152
 91
       16
280
     0
281
     0
  0
CLASS
  1
DIMASSOC
  2
AcDbDimAssoc
  3
"AcDbDimAssoc|Product Desc:     AcDim ARX App For Dimension|Company:          Autodesk, Inc.|WEB Address:      www.autodesk.com"
 90
        0
 91
        2
280
     0
281
     0
  0
ENDSEC
  0
SECTION
  2
TABLES
  0
TABLE
  2
VPORT
  5
8
330
0
100
AcDbSymbolTable
 70
     1
  0
VPORT
  5
52
330
8
100
AcDbSymbolTableRecord
100
AcDbViewportTableRecord
  2
*Active
 70
     0
 10
0.0
 20
0.0
 11
1.0
 21
1.0
 12
513.9723264124686
 22
430.0752864233
 13
0.0
 23
0.0
 14
10.0
 24
10.0
 15
10.0
 25
10.0
 16
0.0
 26
0.0
 36
1.0
 17
0.0
 27
0.0
 37
0.0
 40
635.7357286769143
 41
1.888286334056399
 42
50.0
 43
0.0
 44
0.0
 50
0.0
 51
0.0
 71
     0
 72
  1000
 73
     1
 74
     3
 75
     0
 76
     0
 77
     0
 78
     0
281
     0
 65
     1
110
0.0
120
0.0
130
0.0
111
1.0
121
0.0
131
0.0
112
0.0
122
1.0
132
0.0
 79
     0
146
0.0
  0
ENDTAB
  0
TABLE
  2
LTYPE
  5
5
330
0
100
AcDbSymbolTable
 70
     2
  0
LTYPE
  5
56
330
5
100
AcDbSymbolTableRecord
100
AcDbLinetypeTableRecord
  2
ByBlock
 70
     0
  3

 72
    65
 73
     0
 40
0.0
  0
LTYPE
  5
57
330
5
100
AcDbSymbolTableRecord
100
AcDbLinetypeTableRecord
  2
ByLayer
 70
     0
  3

 72
    65
 73
     0
 40
0.0
  0
LTYPE
  5
58
330
5
100
AcDbSymbolTableRecord
100
AcDbLinetypeTableRecord
  2
Continuous
 70
     0
  3
Solid line
 72
    65
 73
     0
 40
0.0
  0
LTYPE
  5
7718
330
5
100
AcDbSymbolTableRecord
100
AcDbLinetypeTableRecord
  2
JIS_02_0.7
 70
     0
  3
HIDDEN0.75 _ _ _ _ _ _ _ _ _ _ _ _ _ _ _ _ _
 72
    65
 73
     2
 40
1.35
 49
0.75
 74
     0
 49
-0.6
 74
     0
  0
ENDTAB
  0
TABLE
  2
LAYER
  5
2
102
{ACAD_XDICTIONARY
360
7729
102
}
330
0
100
AcDbSymbolTable
 70
     7
  0
LAYER
  5
4F
330
2
100
AcDbSymbolTableRecord
100
AcDbLayerTableRecord
  2
0
 70
     0
 62
     7
  6
Continuous
370
    -3
390
F
  0
LAYER
  5
7719
330
2
100
AcDbSymbolTableRecord
100
AcDbLayerTableRecord
  2
F_01 sichtbar
 70
     0
 62
     7
  6
Continuous
370
    -3
390
F
1001
AcAecLayerStandard
1000

1000

  0
LAYER
  5
771A
330
2
100
AcDbSymbolTableRecord
100
AcDbLayerTableRecord
  2
F_31 Ansichtsfenster
 70
     0
 62
    12
  6
Continuous
290
     0
370
    40
390
F
1001
AcAecLayerStandard
1000

1000

  0
LAYER
  5
771B
330
2
100
AcDbSymbolTableRecord
100
AcDbLayerTableRecord
  2
F_02 unsichtbar
 70
     0
 62
     8
  6
JIS_02_0.7
370
    -3
390
F
1001
AcAecLayerStandard
1000

1000

  0
LAYER
  5
771C
330
2
100
AcDbSymbolTableRecord
100
AcDbLayerTableRecord
  2
F_15 Schr-Mauer hell
 70
     0
 62
   254
  6
Continuous
370
    -3
390
F
1001
AcAecLayerStandard
1000

1000

  0
LAYER
  5
771D
330
2
100
AcDbSymbolTableRecord
100
AcDbLayerTableRecord
  2
F_18 Schr-Holz hell
 70
     0
 62
    41
  6
Continuous
370
    -3
390
F
1001
AcAecLayerStandard
1000

1000

  0
LAYER
  5
771E
330
2
100
AcDbSymbolTableRecord
100
AcDbLayerTableRecord
  2
F_29 Bemassung M
 70
     0
 62
   160
  6
Continuous
370
    -3
390
F
1001
AcAecLayerStandard
1000

1000

  0
ENDTAB
  0
TABLE
  2
STYLE
  5
3
330
0
100
AcDbSymbolTable
 70
     3
  0
STYLE
  5
50
330
3
100
AcDbSymbolTableRecord
100
AcDbTextStyleTableRecord
  2
Standard
 70
     0
 40
0.0
 41
1.0
 50
0.0
 71
     0
 42
2.5
  3
txt
  4

  0
STYLE
  5
55
330
3
100
AcDbSymbolTableRecord
100
AcDbTextStyleTableRecord
  2
Annotative
 70
     0
 40
0.0
 41
1.0
 50
0.0
 71
     0
 42
0.2
  3
txt
  4

1001
AcadAnnotative
1000
AnnotativeData
1002
{
1070
     1
1070
     1
1002
}
  0
STYLE
  5
771F
330
3
100
AcDbSymbolTableRecord
100
AcDbTextStyleTableRecord
  2
Arial
 70
     0
 40
0.0
 41
1.0
 50
0.0
 71
     0
 42
3.0
  3
ARIALN.TTF
  4

1001
AcadAnnotative
1000
AnnotativeData
1002
{
1070
     1
1070
     1
1002
}
1001
ACAD
1000
Arial Narrow
1071
       34
  0
ENDTAB
  0
TABLE
  2
VIEW
  5
6
330
0
100
AcDbSymbolTable
 70
     0
  0
ENDTAB
  0
TABLE
  2
UCS
  5
7
330
0
100
AcDbSymbolTable
 70
     0
  0
ENDTAB
  0
TABLE
  2
APPID
  5
9
330
0
100
AcDbSymbolTable
 70
     8
  0
APPID
  5
51
330
9
100
AcDbSymbolTableRecord
100
AcDbRegAppTableRecord
  2
ACAD
 70
     0
  0
APPID
  5
59
330
9
100
AcDbSymbolTableRecord
100
AcDbRegAppTableRecord
  2
AcadAnnotative
 70
     0
  0
APPID
  5
7725
330
9
100
AcDbSymbolTableRecord
100
AcDbRegAppTableRecord
  2
AcAecLayerStandard
 70
     0
  0
APPID
  5
7726
330
9
100
AcDbSymbolTableRecord
100
AcDbRegAppTableRecord
  2
ACAD_PSEXT
 70
     0
  0
APPID
  5
7727
330
9
100
AcDbSymbolTableRecord
100
AcDbRegAppTableRecord
  2
ACAD_DSTYLE_DIMJAG
 70
     0
  0
APPID
  5
7728
330
9
100
AcDbSymbolTableRecord
100
AcDbRegAppTableRecord
  2
ACAD_DSTYLE_DIMTALN
 70
     0
  0
APPID
  5
77F3
330
9
100
AcDbSymbolTableRecord
100
AcDbRegAppTableRecord
  2
ACAD_DSTYLE_DIMJOGGED_JOGANGLE_SYMBOL
 70
     0
  0
APPID
  5
77F5
330
9
100
AcDbSymbolTableRecord
100
AcDbRegAppTableRecord
  2
ACAD_MLEADERVER
 70
     0
  0
ENDTAB
  0
TABLE
  2
DIMSTYLE
  5
A
330
0
100
AcDbSymbolTable
 70
     7
100
AcDbDimStyleTable
 71
     0
  0
DIMSTYLE
105
53
330
A
100
AcDbSymbolTableRecord
100
AcDbDimStyleTableRecord
  2
ISO-25
 70
     0
 41
2.5
 42
0.625
 43
3.75
 44
1.25
 73
     0
 74
     0
 77
     1
 78
     8
140
2.5
141
2.5
143
0.03937007874016
147
0.625
171
     3
172
     1
271
     2
272
     2
274
     3
278
    44
283
     0
284
     8
340
50
1001
ACAD_DSTYLE_DIMJOGGED_JOGANGLE_SYMBOL
1070
   384
1040
1.570796326794896
  0
DIMSTYLE
105
54
330
A
100
AcDbSymbolTableRecord
100
AcDbDimStyleTableRecord
  2
Annotative
 70
     0
340
50
1001
AcadAnnotative
1000
AnnotativeData
1002
{
1070
     1
1070
     1
1002
}
  0
DIMSTYLE
105
7720
330
A
100
AcDbSymbolTableRecord
100
AcDbDimStyleTableRecord
  2
MST 1-1
 70
     0
 41
2.0
 42
2.0
 43
2.0
 44
1.0
 46
2.0
 73
     0
 74
     0
 77
     3
 78
     8
 79
     2
140
3.0
141
2.5
143
0.03937007874016
147
1.0
171
     3
176
   256
177
   256
178
     3
179
     1
271
     1
272
     1
274
     3
279
     2
284
     8
340
771F
342
7712
1001
ACAD_DSTYLE_DIMJAG
1070
   388
1040
1.5
1001
ACAD_DSTYLE_DIMTALN
1070
   392
1070
     0
  0
DIMSTYLE
105
7721
330
A
100
AcDbSymbolTableRecord
100
AcDbDimStyleTableRecord
  2
MST 1-2
 70
     0
 40
2.0
 41
2.0
 42
2.0
 43
2.0
 44
1.0
 46
2.0
 73
     0
 74
     0
 77
     3
 78
     8
 79
     2
140
3.0
141
1.0
143
0.03937007874016
147
1.0
171
     3
176
   256
177
   256
178
     3
179
     1
271
     1
272
     1
274
     3
279
     2
284
     8
340
771F
342
7712
  0
DIMSTYLE
105
7722
330
A
100
AcDbSymbolTableRecord
100
AcDbDimStyleTableRecord
  2
MST 1-5
 70
     0
 40
5.0
 41
1.5
 42
2.0
 43
2.0
 44
1.0
 46
2.0
 73
     0
 74
     0
 77
     3
 78
     8
 79
     2
140
3.0
141
1.0
143
0.03937007874016
147
1.0
171
     3
176
   256
177
   256
178
     3
179
     1
271
     1
272
     1
274
     3
279
     2
284
     8
340
771F
342
7712
  0
DIMSTYLE
105
7723
330
A
100
AcDbSymbolTableRecord
100
AcDbDimStyleTableRecord
  2
MST 1-10
 70
     0
 40
10.0
 41
2.0
 42
2.0
 43
2.0
 44
2.0
 46
2.0
 73
     0
 74
     0
 77
     3
 78
     8
 79
     2
140
3.0
141
1.0
143
0.03937007874016
147
1.0
171
     3
176
   256
177
   256
178
     3
179
     1
271
     1
272
     1
274
     3
279
     2
284
     8
340
771F
342
7712
1001
ACAD_DSTYLE_DIMJAG
1070
   388
1040
1.5
1001
ACAD_DSTYLE_DIMTALN
1070
   392
1070
     0
  0
DIMSTYLE
105
7724
330
A
100
AcDbSymbolTableRecord
100
AcDbDimStyleTableRecord
  2
MST 1-20
 70
     0
 40
20.0
 41
2.0
 42
2.0
 43
2.0
 44
1.0
 46
2.0
 73
     0
 74
     0
 77
     3
 78
     8
 79
     2
140
3.0
141
1.0
143
0.03937007874016
147
1.0
171
     3
176
   256
177
   256
178
     3
179
     1
271
     1
272
     1
274
     3
279
     2
284
     8
340
771F
342
7712
  0
ENDTAB
  0
TABLE
  2
BLOCK_RECORD
  5
1
330
0
100
AcDbSymbolTable
 70
     3
  0
BLOCK_RECORD
  5
67
102
{ACAD_XDICTIONARY
360
77BA
102
}
330
1
100
AcDbSymbolTableRecord
100
AcDbBlockTableRecord
  2
*Model_Space
340
6A
  0
BLOCK_RECORD
  5
63
330
1
100
AcDbSymbolTableRecord
100
AcDbBlockTableRecord
  2
*Paper_Space
340
66
  0
BLOCK_RECORD
  5
6B
330
1
100
AcDbSymbolTableRecord
100
AcDbBlockTableRecord
  2
*Paper_Space0
340
6E
  0
BLOCK_RECORD
  5
7712
102
{ACAD_XDICTIONARY
360
7713
102
}
330
1
100
AcDbSymbolTableRecord
100
AcDbBlockTableRecord
  2
_ArchTick
340
0
310
2800000020000000200000000100080000000000000400000000000000000000000000000000000000000000000080000080000000808000800000008000800080800000C0C0C000C0DCC000F0CAA6000020400000206000002080000020A0000020C0000020E00000400000004020000040400000406000004080000040A0
310
000040C0000040E00000600000006020000060400000606000006080000060A0000060C0000060E00000800000008020000080400000806000008080000080A0000080C0000080E00000A0000000A0200000A0400000A0600000A0800000A0A00000A0C00000A0E00000C0000000C0200000C0400000C0600000C0800000C0
310
A00000C0C00000C0E00000E0000000E0200000E0400000E0600000E0800000E0A00000E0C00000E0E00040000000400020004000400040006000400080004000A0004000C0004000E00040200000402020004020400040206000402080004020A0004020C0004020E000404000004040200040404000404060004040800040
310
40A0004040C0004040E00040600000406020004060400040606000406080004060A0004060C0004060E00040800000408020004080400040806000408080004080A0004080C0004080E00040A0000040A0200040A0400040A0600040A0800040A0A00040A0C00040A0E00040C0000040C0200040C0400040C0600040C08000
310
40C0A00040C0C00040C0E00040E0000040E0200040E0400040E0600040E0800040E0A00040E0C00040E0E00080000000800020008000400080006000800080008000A0008000C0008000E00080200000802020008020400080206000802080008020A0008020C0008020E00080400000804020008040400080406000804080
310
008040A0008040C0008040E00080600000806020008060400080606000806080008060A0008060C0008060E00080800000808020008080400080806000808080008080A0008080C0008080E00080A0000080A0200080A0400080A0600080A0800080A0A00080A0C00080A0E00080C0000080C0200080C0400080C0600080C0
310
800080C0A00080C0C00080C0E00080E0000080E0200080E0400080E0600080E0800080E0A00080E0C00080E0E000C0000000C0002000C0004000C0006000C0008000C000A000C000C000C000E000C0200000C0202000C0204000C0206000C0208000C020A000C020C000C020E000C0400000C0402000C0404000C0406000C0
310
408000C040A000C040C000C040E000C0600000C0602000C0604000C0606000C0608000C060A000C060C000C060E000C0800000C0802000C0804000C0806000C0808000C080A000C080C000C080E000C0A00000C0A02000C0A04000C0A06000C0A08000C0A0A000C0A0C000C0A0E000C0C00000C0C02000C0C04000C0C06000
310
C0C08000C0C0A000F0FBFF00A4A0A000808080000000FF0000FF000000FFFF00FF000000FF00FF00FFFF0000FFFFFF00FFFFFF00FFFFFFFFFFFFFFFFFFFFFFFFFFFFFFFFFFFFFFFFFFFFFFFFFFFFFFFFFFFF00FF00FFFFFFFFFFFFFFFFFFFFFFFFFFFFFFFFFFFFFFFFFFFFFFFFFFFFFFFF00FFFFFF00FFFFFFFFFFFFFFFFFF
310
FFFFFFFFFFFFFFFFFFFFFFFFFFFFFFFFFF00FFFFFFFFFF00FFFFFFFFFFFFFFFFFFFFFFFFFFFFFFFFFFFFFFFFFFFFFFFFFFFF00FFFFFFFFFF00FFFFFFFFFFFFFFFFFFFFFFFFFFFFFFFFFFFFFFFFFFFFFFFFFFFF00FFFFFFFFFF00FFFFFFFFFFFFFFFFFFFFFFFFFFFFFFFFFFFFFFFFFFFFFFFFFFFF00FFFFFFFFFF00FFFFFFFF
310
FFFFFFFFFFFFFFFFFFFFFFFFFFFFFFFFFFFFFFFFFFFF00FFFFFFFFFF00FFFFFFFFFFFFFFFFFFFFFFFFFFFFFFFFFFFFFFFFFFFFFFFFFFFF00FFFFFFFFFF00FFFFFFFFFFFFFFFFFFFFFFFFFFFFFFFFFFFFFFFFFFFFFFFFFFFF00FFFFFFFFFF00FFFFFFFFFFFFFFFFFFFFFFFFFFFFFFFFFFFFFFFFFFFFFFFFFFFF00FFFFFFFFFF
310
00FFFFFFFFFFFFFFFFFFFFFFFFFFFFFFFFFFFFFFFFFFFFFFFFFFFF00FFFFFFFFFF00FFFFFFFFFFFFFFFFFFFFFFFFFFFFFFFFFFFFFFFFFFFFFFFFFFFF00FFFFFFFFFF00FFFFFFFFFFFFFFFFFFFFFFFFFFFFFFFFFFFFFFFFFFFFFFFFFFFF00FFFFFFFFFF00FFFFFFFFFFFFFFFFFFFFFFFFFFFFFFFFFFFFFFFFFFFFFFFFFFFF00
310
FFFFFFFFFF00FFFFFFFFFFFFFFFFFFFFFFFFFFFFFFFFFFFFFFFFFFFFFFFFFFFF00FFFFFFFFFF00FFFFFFFFFFFFFFFFFFFFFFFFFFFFFFFFFFFFFFFFFFFFFFFFFFFF00FFFFFFFFFF00FFFFFFFFFFFFFFFFFFFFFFFFFFFFFFFFFFFFFFFFFFFFFFFFFFFF00FFFFFFFFFF00FFFFFFFFFFFFFFFFFFFFFFFFFFFFFFFFFFFFFFFFFFFF
310
FFFFFFFF00FFFFFFFFFF00FFFFFFFFFFFFFFFFFFFFFFFFFFFFFFFFFFFFFFFFFFFFFFFFFFFF00FFFFFFFFFF00FFFFFFFFFFFFFFFFFFFFFFFFFFFFFFFFFFFFFFFFFFFFFFFFFFFF00FFFFFFFFFF00FFFFFFFFFFFFFFFFFFFFFFFFFFFFFFFFFFFFFFFFFFFFFFFFFFFF00FFFFFFFFFF00FFFFFFFFFFFFFFFFFFFFFFFFFFFFFFFFFF
310
FFFFFFFFFFFFFFFFFF00FFFFFFFFFF00FFFFFFFFFFFFFFFFFFFFFFFFFFFFFFFFFFFFFFFFFFFFFFFFFFFF00FFFFFFFFFF00FFFFFFFFFFFFFFFFFFFFFFFFFFFFFFFFFFFFFFFFFFFFFFFFFFFF00FFFFFFFFFF00FFFFFFFFFFFFFFFFFFFFFFFFFFFFFFFFFFFFFFFFFFFFFFFFFFFF00FFFFFFFFFF00FFFFFFFFFFFFFFFFFFFFFFFF
310
FFFFFFFFFFFFFFFFFFFFFFFFFFFF00FFFFFFFFFF00FFFFFFFFFFFFFFFFFFFFFFFFFFFFFFFFFFFFFFFFFFFFFFFFFFFF00FFFFFFFFFF00FFFFFFFFFFFFFFFFFFFFFFFFFFFFFFFFFFFFFFFFFFFFFFFFFFFF00FFFFFFFFFF00FFFFFFFFFFFFFFFFFFFFFFFFFFFFFFFFFFFFFFFFFFFFFFFFFFFF00FFFFFF00FFFFFFFFFFFFFFFFFF
310
FFFFFFFFFFFFFFFFFFFFFFFFFFFFFFFFFFFFFF00FF00FFFFFFFFFFFFFFFFFFFFFFFFFFFFFFFFFFFFFFFFFFFFFFFFFFFFFFFFFFFF00FFFFFF
  0
ENDTAB
  0
ENDSEC
  0
SECTION
  2
BLOCKS
  0
BLOCK
  5
68
330
67
100
AcDbEntity
  8
0
100
AcDbBlockBegin
  2
*Model_Space
 70
     0
 10
0.0
 20
0.0
 30
0.0
  3
*Model_Space
  1

  0
ENDBLK
  5
69
330
67
100
AcDbEntity
  8
0
100
AcDbBlockEnd
  0
BLOCK
  5
64
330
63
100
AcDbEntity
 67
     1
  8
0
100
AcDbBlockBegin
  2
*Paper_Space
 70
     0
 10
0.0
 20
0.0
 30
0.0
  3
*Paper_Space
  1

  0
ENDBLK
  5
65
330
63
100
AcDbEntity
 67
     1
  8
0
100
AcDbBlockEnd
  0
BLOCK
  5
6C
330
6B
100
AcDbEntity
 67
     1
  8
0
100
AcDbBlockBegin
  2
*Paper_Space0
 70
     0
 10
0.0
 20
0.0
 30
0.0
  3
*Paper_Space0
  1

  0
ENDBLK
  5
6D
330
6B
100
AcDbEntity
 67
     1
  8
0
100
AcDbBlockEnd
  0
BLOCK
  5
7715
330
7712
100
AcDbEntity
  8
0
100
AcDbBlockBegin
  2
_ArchTick
 70
     0
 10
0.0
 20
0.0
 30
0.0
  3
_ArchTick
  1

  0
LWPOLYLINE
  5
7716
330
7712
100
AcDbEntity
  8
0
  6
ByBlock
 62
     7
100
AcDbPolyline
 90
        2
 70
     0
 43
0.15
 10
-0.5
 20
-0.5
 10
0.5
 20
0.5
  0
ENDBLK
  5
7717
330
7712
100
AcDbEntity
  8
0
100
AcDbBlockEnd
  0
ENDSEC
  0
SECTION
  2
ENTITIES
  0
HATCH
  5
7776
330
67
100
AcDbEntity
  8
F_18 Schr-Holz hell
370
    13
100
AcDbHatch
 10
0.0
 20
0.0
 30
0.0
210
0.0
220
0.0
230
1.0
  2
SOLID
 70
     1
 71
     0
 91
        1
 92
        1
 93
        7
 72
     1
 10
713.0941133387969
 20
347.9954658526112
 11
515.2360113870381
 21
347.9954657045127
 72
     1
 10
515.2360113870381
 20
347.9954657045127
 11
515.2360069193819
 21
342.4957137567144
 72
     1
 10
515.2360069193819
 20
342.4957137567144
 11
497.8360069193731
 21
342.4957137567144
 72
     1
 10
497.8360069193731
 20
342.4957137567144
 11
496.2360069193819
 21
310.9957137567144
 72
     1
 10
496.2360069193819
 20
310.9957137567144
 11
496.2360069193819
 21
305.9957137567144
 72
     1
 10
496.2360069193819
 20
305.9957137567144
 11
713.0941133387969
 21
305.995713914419
 72
     1
 10
713.0941133387969
 20
305.9957139144208
 11
713.0941133387969
 21
347.9954658526131
 97
        0
 75
     0
 76
     1
 98
        1
 10
-31227.06915289545
 20
-14171.0450711185
450
        0
451
        0
460
0.0
461
0.0
452
        1
462
1.0
453
        2
463
0.0
 63
     5
421
      255
463
1.0
 63
     7
421
 16777215
470
LINEAR
1001
ACAD
1010
0.0
1020
0.0
1030
0.0
  0
HATCH
  5
7777
330
67
100
AcDbEntity
  8
F_18 Schr-Holz hell
370
    13
100
AcDbHatch
 10
0.0
 20
0.0
 30
0.0
210
0.0
220
0.0
230
1.0
  2
SOLID
 70
     1
 71
     0
 91
        1
 92
        1
 93
       10
 72
     1
 10
493.7517584493471
 20
308.4956787521551
 11
493.7517551905839
 21
346.4956787521551
 72
     1
 10
493.7517551905839
 20
346.4956787521551
 11
498.7517551905839
 21
346.495679277763
 72
     1
 10
498.7517551905839
 20
346.495679277763
 11
498.7517543496141
 21
354.495679277763
 72
     1
 10
498.7517543496141
 20
354.495679277763
 11
502.7517543496141
 21
354.4956796982479
 72
     1
 10
502.7517543496141
 20
354.4956796982479
 11
502.7517551905839
 21
346.4956796982479
 72
     1
 10
502.7517551905839
 20
346.4956796982479
 11
506.7517551905839
 21
346.4956801187327
 72
     1
 10
506.7517551905839
 20
346.4956801187327
 11
506.7527721344013
 21
636.4956776484032
 72
     1
 10
506.7527721344013
 20
636.4956776484032
 11
481.7517279629392
 21
636.4956776484032
 72
     1
 10
481.7517279629392
 20
636.4956776484032
 11
481.7517584493471
 21
308.4956774907005
 72
     1
 10
481.7517584493471
 20
308.4956774907005
 11
493.7517584493471
 21
308.4956787521551
 97
        0
 75
     0
 76
     1
 98
        1
 10
-34261.01189088328
 20
-14087.55271658654
450
        0
451
        0
460
0.0
461
0.0
452
        1
462
1.0
453
        2
463
0.0
 63
     5
421
      255
463
1.0
 63
     7
421
 16777215
470
LINEAR
1001
ACAD
1010
0.0
1020
0.0
1030
0.0
  0
HATCH
  5
7778
330
67
100
AcDbEntity
  8
F_18 Schr-Holz hell
370
    13
100
AcDbHatch
 10
0.0
 20
0.0
 30
0.0
210
0.0
220
0.0
230
1.0
  2
SOLID
 70
     1
 71
     0
 91
        1
 92
        7
 72
     1
 73
     1
 93
       67
 10
502.1017633293377
 20
349.4956797876002
 42
0.0
 10
502.7517548752221
 20
349.4956798559288
 42
0.0
 10
502.7517547911266
 20
350.295679855928
 42
0.0
 10
502.1017632452348
 20
350.2956797875995
 42
-0.4142135623741744
 10
501.8517632189541
 20
350.5456797613224
 42
0.0
 10
501.8517630402566
 20
352.2456797613231
 42
-0.4142135623721554
 10
502.1017630139758
 20
352.4956797876003
 42
0.0
 10
502.751754559853
 20
352.4956798559288
 42
0.0
 10
502.7517544757574
 20
353.295679855928
 42
0.0
 10
502.1017629298803
 20
353.2956797875995
 42
-0.4142135623679063
 10
501.8517629035995
 20
353.5456797613151
 42
0.0
 10
501.851762882572
 20
353.7456797613231
 42
0.4142135623680808
 10
501.6017628562913
 20
353.9956797350387
 42
0.0
 10
500.7517628562927
 20
353.9956796456863
 42
0.0
 10
499.9017628562942
 20
353.9956795563339
 42
0.4142135623674541
 10
499.6517628825749
 20
353.7456795300605
 42
0.0
 10
499.6517629035952
 20
353.5456795300488
 42
-0.4142135623676283
 10
499.401762929876
 20
353.2956795037717
 42
0.0
 10
498.7517544757574
 20
353.2956794354431
 42
0.0
 10
498.751754559853
 20
352.4956794354439
 42
0.0
 10
499.4017630139715
 20
352.4956795037724
 42
-0.4142135623738475
 10
499.6517630402522
 20
352.2456795300568
 42
0.0
 10
499.651763218957
 20
350.5456795300525
 42
-0.4142135623732694
 10
499.4017632452377
 20
350.2956795037717
 42
0.0
 10
498.7517547911266
 20
350.2956794354432
 42
0.0
 10
498.751754875222
 20
349.4956794354439
 42
0.0
 10
499.4017633293333
 20
349.4956795037724
 42
-0.4142135623737132
 10
499.651763355614
 20
349.2456795300532
 42
0.0
 10
499.6517635769633
 20
347.1400170973502
 42
-0.2679491924300828
 10
499.5267635997224
 20
346.9235107332643
 42
0.0
 10
498.8437509392897
 20
346.5291730941681
 42
-0.0981118173532839
 10
498.751755190351
 20
346.4978675720704
 42
0.0
 10
498.7517551905839
 20
346.495679277763
 42
0.0
 10
495.251763644701
 20
346.4956789098396
 42
0.0
 10
495.2517637498167
 20
345.4956790675169
 42
0.0
 10
498.2517296913429
 20
342.4957137567144
 42
0.0
 10
499.4416550214955
 20
342.4957137567144
 42
0.3381944148685474
 10
498.9841872460092
 20
342.8946270870147
 42
0.0
 10
496.8099113398857
 20
345.0689025360189
 42
-0.6681786379188936
 10
496.9866879903129
 20
345.4956792498961
 42
0.0
 10
500.1142615355711
 20
345.4956795786711
 42
-0.3394542588692275
 10
500.2108541259876
 20
345.4215614933382
 42
0.0
 10
500.2515191320053
 20
345.2697976885938
 42
0.3394542588728126
 10
500.3481117224291
 20
345.1956796032537
 42
0.5062003636121873
 10
500.4912388996672
 20
345.2697977137905
 42
0.0
 10
500.531903873787
 20
345.4215615270914
 42
-0.3394542588510407
 10
500.6284964486185
 20
345.4956796327278
 42
0.0
 10
500.7517637498239
 20
345.4956796456863
 42
0.0
 10
500.8750310510294
 20
345.4956796586448
 42
-0.3394542588693957
 10
500.971623641446
 20
345.4215615733083
 42
0.0
 10
501.0122886474637
 20
345.2697977685675
 42
0.3394542588719739
 10
501.1088812378875
 20
345.1956796832273
 42
0.5062003636077561
 10
501.2520084151256
 20
345.2697977937642
 42
0.0
 10
501.2926733892454
 20
345.4215616070651
 42
-0.3394542588528795
 10
501.3892659640768
 20
345.4956797127015
 42
0.0
 10
504.5168395093278
 20
345.4956800414766
 42
-0.668178637919139
 10
504.6936162494894
 20
345.068903364765
 42
0.0
 10
502.120427182439
 20
342.4957137567144
 42
0.0
 10
503.2517979133991
 20
342.4957137567144
 42
0.0
 10
506.2517637498167
 20
345.4956802238521
 42
0.0
 10
506.251763644701
 20
346.4956800661748
 42
0.0
 10
502.7517551905839
 20
346.4956796982479
 42
0.0
 10
502.751755190351
 20
346.4978702450244
 42
-0.0980945955796503
 10
502.659776343069
 20
346.5291734953134
 42
0.0
 10
501.9767635997268
 20
346.9235109908114
 42
-0.2679491924307703
 10
501.8517635769676
 20
347.1400173286165
 42
0.0
 10
501.8517633556184
 20
349.2456797613195
 42
-0.4142135623735424
 97
        0
 75
     0
 76
     1
 47
0.064380212117543
 98
        1
 10
500.7228404069755
 20
349.3552711690718
450
        0
451
        0
460
0.0
461
0.0
452
        1
462
1.0
453
        2
463
0.0
 63
     5
421
      255
463
1.0
 63
     7
421
 16777215
470
LINEAR
1001
ACAD
1010
0.0
1020
0.0
1030
0.0
  0
HATCH
  5
7779
330
67
100
AcDbEntity
  8
F_29 Bemassung M
370
    13
100
AcDbHatch
 10
0.0
 20
0.0
 30
0.0
210
0.0
220
0.0
230
1.0
  2
SOLID
 70
     1
 71
     0
 91
        1
 92
        1
 93
        4
 72
     1
 10
493.7517686126303
 20
305.4956774907005
 11
493.7517686126303
 21
308.4956774907005
 72
     1
 10
493.7517686126303
 20
308.4956774907005
 11
463.7517686126302
 21
308.4956774907005
 72
     1
 10
463.7517686126302
 20
308.4956774907005
 11
463.7517686126302
 21
305.4956774907005
 72
     1
 10
463.7517686126302
 20
305.4956774907005
 11
493.7517686126303
 21
305.4956774907005
 97
        0
 75
     0
 76
     1
 98
        1
 10
-34261.01189088328
 20
-14087.55271837361
450
        0
451
        0
460
0.0
461
0.0
452
        1
462
1.0
453
        2
463
0.0
 63
     5
421
      255
463
1.0
 63
     7
421
 16777215
470
LINEAR
1001
ACAD
1010
0.0
1020
0.0
1030
0.0
  0
HATCH
  5
777A
330
67
100
AcDbEntity
  8
F_15 Schr-Mauer hell
370
    13
100
AcDbHatch
 10
0.0
 20
0.0
 30
0.0
210
0.0
220
0.0
230
1.0
  2
SOLID
 70
     1
 71
     0
 91
        1
 92
        1
 93
        4
 72
     1
 10
314.8081161323571
 20
513.4956776484032
 11
314.8081161323644
 21
323.4956774907023
 72
     1
 10
314.8081161323644
 20
323.4956774907041
 11
476.7517686961873
 21
323.4956774907059
 72
     1
 10
476.7517686961873
 20
323.4956774907041
 11
476.7517686961873
 21
513.4956776484032
 72
     1
 10
476.7517686961873
 20
513.4956776484032
 11
314.8081161323571
 21
513.4956776484032
 97
        0
 75
     0
 76
     1
 98
        1
 10
265.6627742574347
 20
475.0841788084872
450
        0
451
        0
460
0.0
461
0.0
452
        1
462
1.0
453
        2
463
0.0
 63
     5
421
      255
463
1.0
 63
     7
421
 16777215
470
LINEAR
1001
ACAD
1010
0.0
1020
0.0
1030
0.0
  0
HATCH
  5
777B
330
67
100
AcDbEntity
  8
F_01 sichtbar
370
    13
100
AcDbHatch
 10
0.0
 20
0.0
 30
0.0
210
0.0
220
0.0
230
1.0
  2
BATT_INSULATION
 70
     0
 71
     0
 91
        1
 92
        1
 93
        4
 72
     1
 10
713.0941133387969
 20
311.0068181205934
 11
713.0941133387969
 21
342.9957139144189
 72
     1
 10
713.0941133387969
 20
342.9957139144172
 11
554.2365709505538
 21
342.9957139144189
 72
     1
 10
554.2365709505538
 20
342.9957139144208
 11
554.2365709505538
 21
311.0068181205934
 72
     1
 10
554.2365709505538
 20
311.0068181205934
 11
713.0941133387969
 21
311.0068181205934
 97
        0
 75
     0
 76
     2
 52
180.0
 41
32.77964320184142
 77
     0
 78
   528
 53
0.000000000000007
 43
12376.77290793211
 44
1600.823853945814
 45
10.95203936981043
 46
-36.87709860207159
 79
     2
 49
0.0
 49
-10.95203936981043
 53
345.9236
 43
12371.29687185738
 44
1596.726398545583
 45
10.95202660980681
 46
0.000004046117522
 79
     2
 49
2.663936043727233
 49
-1058.697838380723
 53
345.9236
 43
12371.29687185738
 44
1559.849299943507
 45
10.95202660980681
 46
0.000004046117522
 79
     2
 49
2.663936043727233
 49
-1058.697838380723
 53
345.9236
 43
12371.29687185738
 44
1522.972201341439
 45
10.95202660980681
 46
0.000004046117522
 79
     2
 49
2.663936043727233
 49
-1058.697838380723
 53
345.9236
 43
12371.29687185738
 44
1486.095102739364
 45
10.95202660980681
 46
0.000004046117522
 79
     2
 49
2.663936043727233
 49
-1058.697838380723
 53
345.9236
 43
12371.29687185738
 44
1449.218004137296
 45
10.95202660980681
 46
0.000004046117522
 79
     2
 49
2.663936043727233
 49
-1058.697838380723
 53
345.9236
 43
12371.29687185738
 44
1412.340905535227
 45
10.95202660980681
 46
0.000004046117522
 79
     2
 49
2.663936043727233
 49
-1058.697838380723
 53
345.9236
 43
12371.29687185738
 44
1375.463806933152
 45
10.95202660980681
 46
0.000004046117522
 79
     2
 49
2.663936043727233
 49
-1058.697838380723
 53
334.9544
 43
12372.57255723187
 44
1565.909272582237
 45
10.9520365279484
 46
-0.0000117218229823
 79
     2
 49
4.636287175181991
 49
-2957.102061108974
 53
334.9544
 43
12372.57255723187
 44
1529.032173980162
 45
10.9520365279484
 46
-0.0000117218229823
 79
     2
 49
4.636287175181991
 49
-2957.102061108974
 53
334.9544
 43
12372.57255723187
 44
1492.155075378094
 45
10.9520365279484
 46
-0.0000117218229823
 79
     2
 49
4.636287175181991
 49
-2957.102061108974
 53
334.9544
 43
12372.57255723187
 44
1455.277976776018
 45
10.9520365279484
 46
-0.0000117218229823
 79
     2
 49
4.636287175181991
 49
-2957.102061108974
 53
334.9544
 43
12372.57255723187
 44
1418.400878173946
 45
10.9520365279484
 46
-0.0000117218229823
 79
     2
 49
4.636287175181991
 49
-2957.102061108974
 53
334.9544
 43
12372.57255723187
 44
1381.523779571875
 45
10.9520365279484
 46
-0.0000117218229823
 79
     2
 49
4.636287175181991
 49
-2957.102061108974
 53
334.9544
 43
12372.57255723187
 44
1344.646680969806
 45
10.9520365279484
 46
-0.0000117218229823
 79
     2
 49
4.636287175181991
 49
-2957.102061108974
 53
334.9544
 43
12372.57255723187
 44
1307.769582367731
 45
10.9520365279484
 46
-0.0000117218229823
 79
     2
 49
4.636287175181991
 49
-2957.102061108974
 53
334.9544
 43
12372.57255723187
 44
1270.893467154961
 45
10.9520365279484
 46
-0.0000117218229823
 79
     2
 49
4.636287175181991
 49
-2957.102061108974
 53
334.9544
 43
12372.57255723187
 44
1234.016368552886
 45
10.9520365279484
 46
-0.0000117218229823
 79
     2
 49
4.636287175181991
 49
-2957.102061108974
 53
334.9544
 43
12372.57255723187
 44
1197.139269950814
 45
10.9520365279484
 46
-0.0000117218229823
 79
     2
 49
4.636287175181991
 49
-2957.102061108974
 53
334.9544
 43
12372.57255723187
 44
1160.262171348742
 45
10.9520365279484
 46
-0.0000117218229823
 79
     2
 49
4.636287175181991
 49
-2957.102061108974
 53
334.9544
 43
12372.57255723187
 44
1123.38507274667
 45
10.9520365279484
 46
-0.0000117218229823
 79
     2
 49
4.636287175181991
 49
-2957.102061108974
 53
334.9544
 43
12372.57255723187
 44
1086.507974144602
 45
10.9520365279484
 46
-0.0000117218229823
 79
     2
 49
4.636287175181991
 49
-2957.102061108974
 53
334.9544
 43
12372.57255723187
 44
1049.63087554253
 45
10.9520365279484
 46
-0.0000117218229823
 79
     2
 49
4.636287175181991
 49
-2957.102061108974
 53
334.9544
 43
12372.57255723187
 44
1012.753776940455
 45
10.9520365279484
 46
-0.0000117218229823
 79
     2
 49
4.636287175181991
 49
-2957.102061108974
 53
334.9544
 43
12372.57255723187
 44
975.8766783383871
 45
10.9520365279484
 46
-0.0000117218229823
 79
     2
 49
4.636287175181991
 49
-2957.102061108974
 53
334.9544
 43
12372.57255723187
 44
938.9995797363154
 45
10.9520365279484
 46
-0.0000117218229823
 79
     2
 49
4.636287175181991
 49
-2957.102061108974
 53
334.9544
 43
12372.57255723187
 44
902.1224811342435
 45
10.9520365279484
 46
-0.0000117218229823
 79
     2
 49
4.636287175181991
 49
-2957.102061108974
 53
334.9544
 43
12372.57255723187
 44
865.2453825321682
 45
10.9520365279484
 46
-0.0000117218229823
 79
     2
 49
4.636287175181991
 49
-2957.102061108974
 53
334.9544
 43
12372.57255723187
 44
828.3682839301
 45
10.9520365279484
 46
-0.0000117218229823
 79
     2
 49
4.636287175181991
 49
-2957.102061108974
 53
334.9544
 43
12372.57255723187
 44
791.4911853280282
 45
10.9520365279484
 46
-0.0000117218229823
 79
     2
 49
4.636287175181991
 49
-2957.102061108974
 53
334.9544
 43
12372.57255723187
 44
754.6140867259564
 45
10.9520365279484
 46
-0.0000117218229823
 79
     2
 49
4.636287175181991
 49
-2957.102061108974
 53
334.9544
 43
12372.57255723187
 44
717.736988123881
 45
10.9520365279484
 46
-0.0000117218229823
 79
     2
 49
4.636287175181991
 49
-2957.102061108974
 53
334.9544
 43
12372.57255723187
 44
680.8598895218128
 45
10.9520365279484
 46
-0.0000117218229823
 79
     2
 49
4.636287175181991
 49
-2957.102061108974
 53
334.9544
 43
12372.57255723187
 44
643.9827909197447
 45
10.9520365279484
 46
-0.0000117218229823
 79
     2
 49
4.636287175181991
 49
-2957.102061108974
 53
334.9544
 43
12372.57255723187
 44
607.1056923176692
 45
10.9520365279484
 46
-0.0000117218229823
 79
     2
 49
4.636287175181991
 49
-2957.102061108974
 53
334.9544
 43
12372.57255723187
 44
570.2285937156012
 45
10.9520365279484
 46
-0.0000117218229823
 79
     2
 49
4.636287175181991
 49
-2957.102061108974
 53
334.9544
 43
12372.57255723187
 44
533.3514951135257
 45
10.9520365279484
 46
-0.0000117218229823
 79
     2
 49
4.636287175181991
 49
-2957.102061108974
 53
334.9544
 43
12372.57255723187
 44
496.4743965114503
 45
10.9520365279484
 46
-0.0000117218229823
 79
     2
 49
4.636287175181991
 49
-2957.102061108974
 53
334.9544
 43
12372.57255723187
 44
459.5972979093821
 45
10.9520365279484
 46
-0.0000117218229823
 79
     2
 49
4.636287175181991
 49
-2957.102061108974
 53
334.9544
 43
12372.57255723187
 44
422.720199307314
 45
10.9520365279484
 46
-0.0000117218229823
 79
     2
 49
4.636287175181991
 49
-2957.102061108974
 53
334.9544
 43
12372.57255723187
 44
385.8431007052386
 45
10.9520365279484
 46
-0.0000117218229823
 79
     2
 49
4.636287175181991
 49
-2957.102061108974
 53
334.9544
 43
12372.57255723187
 44
348.9660021031668
 45
10.9520365279484
 46
-0.0000117218229823
 79
     2
 49
4.636287175181991
 49
-2957.102061108974
 53
307.5647
 43
12373.88082557169
 44
1596.07841055877
 45
10.95203172566192
 46
-0.0000024731155069
 79
     2
 49
4.503300162712156
 49
-1809.889024393901
 53
307.5647
 43
12373.88082557169
 44
1559.20124639741
 45
10.95203172566192
 46
-0.0000024731155069
 79
     2
 49
4.503300162712156
 49
-1809.889024393901
 53
307.5647
 43
12373.88082557169
 44
1522.324147795338
 45
10.95203172566192
 46
-0.0000024731155069
 79
     2
 49
4.503300162712156
 49
-1809.889024393901
 53
307.5647
 43
12373.88082557169
 44
1485.44704919327
 45
10.95203172566192
 46
-0.0000024731155069
 79
     2
 49
4.503300162712156
 49
-1809.889024393901
 53
307.5647
 43
12373.88082557169
 44
1448.569950591194
 45
10.95203172566192
 46
-0.0000024731155069
 79
     2
 49
4.503300162712156
 49
-1809.889024393901
 53
307.5647
 43
12373.88082557169
 44
1411.692851989119
 45
10.95203172566192
 46
-0.0000024731155069
 79
     2
 49
4.503300162712156
 49
-1809.889024393901
 53
307.5647
 43
12373.88082557169
 44
1374.815753387051
 45
10.95203172566192
 46
-0.0000024731155069
 79
     2
 49
4.503300162712156
 49
-1809.889024393901
 53
307.5647
 43
12373.88082557169
 44
1337.938654784982
 45
10.95203172566192
 46
-0.0000024731155069
 79
     2
 49
4.503300162712156
 49
-1809.889024393901
 53
307.5647
 43
12373.88082557169
 44
1301.061556182907
 45
10.95203172566192
 46
-0.0000024731155069
 79
     2
 49
4.503300162712156
 49
-1809.889024393901
 53
307.5647
 43
12373.88082557169
 44
1264.183474191541
 45
10.95203172566192
 46
-0.0000024731155069
 79
     2
 49
4.503300162712156
 49
-1809.889024393901
 53
307.5647
 43
12373.88082557169
 44
1227.306375589473
 45
10.95203172566192
 46
-0.0000024731155069
 79
     2
 49
4.503300162712156
 49
-1809.889024393901
 53
307.5647
 43
12373.88082557169
 44
1190.429276987397
 45
10.95203172566192
 46
-0.0000024731155069
 79
     2
 49
4.503300162712156
 49
-1809.889024393901
 53
307.5647
 43
12373.88082557169
 44
1153.552178385322
 45
10.95203172566192
 46
-0.0000024731155069
 79
     2
 49
4.503300162712156
 49
-1809.889024393901
 53
307.5647
 43
12373.88082557169
 44
1116.675079783254
 45
10.95203172566192
 46
-0.0000024731155069
 79
     2
 49
4.503300162712156
 49
-1809.889024393901
 53
307.5647
 43
12373.88082557169
 44
1079.797981181185
 45
10.95203172566192
 46
-0.0000024731155069
 79
     2
 49
4.503300162712156
 49
-1809.889024393901
 53
307.5647
 43
12373.88082557169
 44
1042.92088257911
 45
10.95203172566192
 46
-0.0000024731155069
 79
     2
 49
4.503300162712156
 49
-1809.889024393901
 53
307.5647
 43
12373.88082557169
 44
1006.043783977038
 45
10.95203172566192
 46
-0.0000024731155069
 79
     2
 49
4.503300162712156
 49
-1809.889024393901
 53
307.5647
 43
12373.88082557169
 44
969.1666853749666
 45
10.95203172566192
 46
-0.0000024731155069
 79
     2
 49
4.503300162712156
 49
-1809.889024393901
 53
307.5647
 43
12373.88082557169
 44
932.2895867728984
 45
10.95203172566192
 46
-0.0000024731155069
 79
     2
 49
4.503300162712156
 49
-1809.889024393901
 53
307.5647
 43
12373.88082557169
 44
895.412488170823
 45
10.95203172566192
 46
-0.0000024731155069
 79
     2
 49
4.503300162712156
 49
-1809.889024393901
 53
307.5647
 43
12373.88082557169
 44
858.5353895687548
 45
10.95203172566192
 46
-0.0000024731155069
 79
     2
 49
4.503300162712156
 49
-1809.889024393901
 53
307.5647
 43
12373.88082557169
 44
821.6582909666794
 45
10.95203172566192
 46
-0.0000024731155069
 79
     2
 49
4.503300162712156
 49
-1809.889024393901
 53
307.5647
 43
12373.88082557169
 44
784.7811923646113
 45
10.95203172566192
 46
-0.0000024731155069
 79
     2
 49
4.503300162712156
 49
-1809.889024393901
 53
307.5647
 43
12373.88082557169
 44
747.9040937625395
 45
10.95203172566192
 46
-0.0000024731155069
 79
     2
 49
4.503300162712156
 49
-1809.889024393901
 53
307.5647
 43
12373.88082557169
 44
711.0269951604678
 45
10.95203172566192
 46
-0.0000024731155069
 79
     2
 49
4.503300162712156
 49
-1809.889024393901
 53
307.5647
 43
12373.88082557169
 44
674.1498965583923
 45
10.95203172566192
 46
-0.0000024731155069
 79
     2
 49
4.503300162712156
 49
-1809.889024393901
 53
307.5647
 43
12373.88082557169
 44
637.2727979563242
 45
10.95203172566192
 46
-0.0000024731155069
 79
     2
 49
4.503300162712156
 49
-1809.889024393901
 53
307.5647
 43
12373.88082557169
 44
600.395699354256
 45
10.95203172566192
 46
-0.0000024731155069
 79
     2
 49
4.503300162712156
 49
-1809.889024393901
 53
307.5647
 43
12373.88082557169
 44
563.5186007521806
 45
10.95203172566192
 46
-0.0000024731155069
 79
     2
 49
4.503300162712156
 49
-1809.889024393901
 53
307.5647
 43
12373.88082557169
 44
526.6415021501088
 45
10.95203172566192
 46
-0.0000024731155069
 79
     2
 49
4.503300162712156
 49
-1809.889024393901
 53
307.5647
 43
12373.88082557169
 44
489.7644035480371
 45
10.95203172566192
 46
-0.0000024731155069
 79
     2
 49
4.503300162712156
 49
-1809.889024393901
 53
307.5647
 43
12373.88082557169
 44
452.8873049459616
 45
10.95203172566192
 46
-0.0000024731155069
 79
     2
 49
4.503300162712156
 49
-1809.889024393901
 53
307.5647
 43
12373.88082557169
 44
416.0102063438971
 45
10.95203172566192
 46
-0.0000024731155069
 79
     2
 49
4.503300162712156
 49
-1809.889024393901
 53
307.5647
 43
12373.88082557169
 44
379.1331077418254
 45
10.95203172566192
 46
-0.0000024731155069
 79
     2
 49
4.503300162712156
 49
-1809.889024393901
 53
307.5647
 43
12373.88082557169
 44
342.25600913975
 45
10.95203172566192
 46
-0.0000024731155069
 79
     2
 49
4.503300162712156
 49
-1809.889024393901
 53
307.5647
 43
12373.88082557169
 44
305.3789105376818
 45
10.95203172566192
 46
-0.0000024731155069
 79
     2
 49
4.503300162712156
 49
-1809.889024393901
 53
307.5647
 43
12373.88082557169
 44
268.50181193561
 45
10.95203172566192
 46
-0.0000024731155069
 79
     2
 49
4.503300162712156
 49
-1809.889024393901
 53
307.5647
 43
12373.88082557169
 44
231.6247133335373
 45
10.95203172566192
 46
-0.0000024731155069
 79
     2
 49
4.503300162712156
 49
-1809.889024393901
 53
307.5647
 43
12373.88082557169
 44
194.7476147314655
 45
10.95203172566192
 46
-0.0000024731155069
 79
     2
 49
4.503300162712156
 49
-1809.889024393901
 53
292.9384
 43
12366.82990792916
 44
1584.494576345885
 45
10.95204222721493
 46
-0.0000045639384487
 79
     2
 49
8.386475035331912
 49
-1593.356600854789
 53
292.9384
 43
12366.82990792916
 44
1547.617576082743
 45
10.95204222721493
 46
-0.0000045639384487
 79
     2
 49
8.386475035331912
 49
-1593.356600854789
 53
292.9384
 43
12366.82990792916
 44
1510.740477480667
 45
10.95204222721493
 46
-0.0000045639384487
 79
     2
 49
8.386475035331912
 49
-1593.356600854789
 53
292.9384
 43
12366.82990792916
 44
1473.863378878599
 45
10.95204222721493
 46
-0.0000045639384487
 79
     2
 49
8.386475035331912
 49
-1593.356600854789
 53
292.9384
 43
12366.82990792916
 44
1436.986280276531
 45
10.95204222721493
 46
-0.0000045639384487
 79
     2
 49
8.386475035331912
 49
-1593.356600854789
 53
292.9384
 43
12366.82990792916
 44
1400.109181674455
 45
10.95204222721493
 46
-0.0000045639384487
 79
     2
 49
8.386475035331912
 49
-1593.356600854789
 53
292.9384
 43
12366.82990792916
 44
1363.232083072384
 45
10.95204222721493
 46
-0.0000045639384487
 79
     2
 49
8.386475035331912
 49
-1593.356600854789
 53
292.9384
 43
12366.82990792916
 44
1326.354984470312
 45
10.95204222721493
 46
-0.0000045639384487
 79
     2
 49
8.386475035331912
 49
-1593.356600854789
 53
292.9384
 43
12366.82990792916
 44
1289.477885868244
 45
10.95204222721493
 46
-0.0000045639384487
 79
     2
 49
8.386475035331912
 49
-1593.356600854789
 53
292.9384
 43
12366.82990792916
 44
1252.599148284011
 45
10.95204222721493
 46
-0.0000045639384487
 79
     2
 49
8.386475035331912
 49
-1593.356600854789
 53
292.9384
 43
12366.82990792916
 44
1215.722049681939
 45
10.95204222721493
 46
-0.0000045639384487
 79
     2
 49
8.386475035331912
 49
-1593.356600854789
 53
292.9384
 43
12366.82990792916
 44
1178.844951079863
 45
10.95204222721493
 46
-0.0000045639384487
 79
     2
 49
8.386475035331912
 49
-1593.356600854789
 53
292.9384
 43
12366.82990792916
 44
1141.967852477795
 45
10.95204222721493
 46
-0.0000045639384487
 79
     2
 49
8.386475035331912
 49
-1593.356600854789
 53
292.9384
 43
12366.82990792916
 44
1105.090753875727
 45
10.95204222721493
 46
-0.0000045639384487
 79
     2
 49
8.386475035331912
 49
-1593.356600854789
 53
292.9384
 43
12366.82990792916
 44
1068.213655273652
 45
10.95204222721493
 46
-0.0000045639384487
 79
     2
 49
8.386475035331912
 49
-1593.356600854789
 53
292.9384
 43
12366.82990792916
 44
1031.33655667158
 45
10.95204222721493
 46
-0.0000045639384487
 79
     2
 49
8.386475035331912
 49
-1593.356600854789
 53
292.9384
 43
12366.82990792916
 44
994.4594580695083
 45
10.95204222721493
 46
-0.0000045639384487
 79
     2
 49
8.386475035331912
 49
-1593.356600854789
 53
292.9384
 43
12366.82990792916
 44
957.5823594674366
 45
10.95204222721493
 46
-0.0000045639384487
 79
     2
 49
8.386475035331912
 49
-1593.356600854789
 53
292.9384
 43
12366.82990792916
 44
920.7052608653684
 45
10.95204222721493
 46
-0.0000045639384487
 79
     2
 49
8.386475035331912
 49
-1593.356600854789
 53
292.9384
 43
12366.82990792916
 44
883.8281622632967
 45
10.95204222721493
 46
-0.0000045639384487
 79
     2
 49
8.386475035331912
 49
-1593.356600854789
 53
292.9384
 43
12366.82990792916
 44
846.9510636612213
 45
10.95204222721493
 46
-0.0000045639384487
 79
     2
 49
8.386475035331912
 49
-1593.356600854789
 53
292.9384
 43
12366.82990792916
 44
810.0739650591531
 45
10.95204222721493
 46
-0.0000045639384487
 79
     2
 49
8.386475035331912
 49
-1593.356600854789
 53
292.9384
 43
12366.82990792916
 44
773.1968664570813
 45
10.95204222721493
 46
-0.0000045639384487
 79
     2
 49
8.386475035331912
 49
-1593.356600854789
 53
292.9384
 43
12366.82990792916
 44
736.3197678550095
 45
10.95204222721493
 46
-0.0000045639384487
 79
     2
 49
8.386475035331912
 49
-1593.356600854789
 53
292.9384
 43
12366.82990792916
 44
699.4426692529341
 45
10.95204222721493
 46
-0.0000045639384487
 79
     2
 49
8.386475035331912
 49
-1593.356600854789
 53
292.9384
 43
12366.82990792916
 44
662.5655706508659
 45
10.95204222721493
 46
-0.0000045639384487
 79
     2
 49
8.386475035331912
 49
-1593.356600854789
 53
292.9384
 43
12366.82990792916
 44
625.6884720487906
 45
10.95204222721493
 46
-0.0000045639384487
 79
     2
 49
8.386475035331912
 49
-1593.356600854789
 53
292.9384
 43
12366.82990792916
 44
588.8113734467224
 45
10.95204222721493
 46
-0.0000045639384487
 79
     2
 49
8.386475035331912
 49
-1593.356600854789
 53
292.9384
 43
12366.82990792916
 44
551.934274844647
 45
10.95204222721493
 46
-0.0000045639384487
 79
     2
 49
8.386475035331912
 49
-1593.356600854789
 53
292.9384
 43
12366.82990792916
 44
515.0571762425788
 45
10.95204222721493
 46
-0.0000045639384487
 79
     2
 49
8.386475035331912
 49
-1593.356600854789
 53
292.9384
 43
12366.82990792916
 44
478.1800776405106
 45
10.95204222721493
 46
-0.0000045639384487
 79
     2
 49
8.386475035331912
 49
-1593.356600854789
 53
292.9384
 43
12366.82990792916
 44
441.3029790384353
 45
10.95204222721493
 46
-0.0000045639384487
 79
     2
 49
8.386475035331912
 49
-1593.356600854789
 53
292.9384
 43
12366.82990792916
 44
404.4258804363635
 45
10.95204222721493
 46
-0.0000045639384487
 79
     2
 49
8.386475035331912
 49
-1593.356600854789
 53
292.9384
 43
12366.82990792916
 44
367.5487818342917
 45
10.95204222721493
 46
-0.0000045639384487
 79
     2
 49
8.386475035331912
 49
-1593.356600854789
 53
292.9384
 43
12366.82990792916
 44
330.6716832322199
 45
10.95204222721493
 46
-0.0000045639384487
 79
     2
 49
8.386475035331912
 49
-1593.356600854789
 53
292.9384
 43
12366.82990792916
 44
293.7945846301482
 45
10.95204222721493
 46
-0.0000045639384487
 79
     2
 49
8.386475035331912
 49
-1593.356600854789
 53
292.9384
 43
12366.82990792916
 44
256.91748602808
 45
10.95204222721493
 46
-0.0000045639384487
 79
     2
 49
8.386475035331912
 49
-1593.356600854789
 53
292.9384
 43
12366.82990792916
 44
220.0403874260073
 45
10.95204222721493
 46
-0.0000045639384487
 79
     2
 49
8.386475035331912
 49
-1593.356600854789
 53
292.9384
 43
12366.82990792916
 44
183.1632888239319
 45
10.95204222721493
 46
-0.0000045639384487
 79
     2
 49
8.386475035331912
 49
-1593.356600854789
 53
292.9384
 43
12366.82990792916
 44
146.2861902218637
 45
10.95204222721493
 46
-0.0000045639384487
 79
     2
 49
8.386475035331912
 49
-1593.356600854789
 53
285.109
 43
12371.6246682894
 44
1569.422758638826
 45
0.0000000992044029
 46
-36.87707611878427
 79
     2
 49
3.638966530766021
 49
-416.5337124354709
 53
285.109
 43
12382.57670765921
 44
1569.422758638826
 45
0.0000000992044029
 46
-36.87707611878427
 79
     2
 49
3.638966530766021
 49
-416.5337124354709
 53
285.109
 43
12393.52874702903
 44
1569.422758638826
 45
0.0000000992044029
 46
-36.87707611878427
 79
     2
 49
3.638966530766021
 49
-416.5337124354709
 53
285.109
 43
12404.48085195812
 44
1569.422758638826
 45
0.0000000992044029
 46
-36.87707611878427
 79
     2
 49
3.638966530766021
 49
-416.5337124354709
 53
285.109
 43
12415.43285854828
 44
1569.422758638826
 45
0.0000000992044029
 46
-36.87707611878427
 79
     2
 49
3.638966530766021
 49
-416.5337124354709
 53
285.109
 43
12426.38486513845
 44
1569.422758638826
 45
0.0000000992044029
 46
-36.87707611878427
 79
     2
 49
3.638966530766021
 49
-416.5337124354709
 53
285.109
 43
12437.33687172862
 44
1569.422758638826
 45
0.0000000992044029
 46
-36.87707611878427
 79
     2
 49
3.638966530766021
 49
-416.5337124354709
 53
285.109
 43
12448.28887831879
 44
1569.422758638826
 45
0.0000000992044029
 46
-36.87707611878427
 79
     2
 49
3.638966530766021
 49
-416.5337124354709
 53
285.109
 43
12459.24088490895
 44
1569.422758638826
 45
0.0000000992044029
 46
-36.87707611878427
 79
     2
 49
3.638966530766021
 49
-416.5337124354709
 53
285.109
 43
12470.19289149912
 44
1569.422758638826
 45
0.0000000992044029
 46
-36.87707611878427
 79
     2
 49
3.638966530766021
 49
-416.5337124354709
 53
276.7473999999999
 43
12370.09805474621
 44
1576.77110237395
 45
0.0000035818718473
 46
-36.87716375543
 79
     2
 49
7.399774995313284
 49
-4560.119085052519
 53
276.7473999999999
 43
12381.05009411601
 44
1576.77110237395
 45
0.0000035818718473
 46
-36.87716375543
 79
     2
 49
7.399774995313284
 49
-4560.119085052519
 53
276.7473999999999
 43
12392.00213348582
 44
1576.77110237395
 45
0.0000035818718473
 46
-36.87716375543
 79
     2
 49
7.399774995313284
 49
-4560.119085052519
 53
276.7473999999999
 43
12402.95430397421
 44
1576.77110237395
 45
0.0000035818718473
 46
-36.87716375543
 79
     2
 49
7.399774995313284
 49
-4560.119085052519
 53
276.7473999999999
 43
12413.90631056438
 44
1576.77110237395
 45
0.0000035818718473
 46
-36.87716375543
 79
     2
 49
7.399774995313284
 49
-4560.119085052519
 53
276.7473999999999
 43
12424.85831715455
 44
1576.77110237395
 45
0.0000035818718473
 46
-36.87716375543
 79
     2
 49
7.399774995313284
 49
-4560.119085052519
 53
276.7473999999999
 43
12435.81032374471
 44
1576.77110237395
 45
0.0000035818718473
 46
-36.87716375543
 79
     2
 49
7.399774995313284
 49
-4560.119085052519
 53
276.7473999999999
 43
12446.76233033488
 44
1576.77110237395
 45
0.0000035818718473
 46
-36.87716375543
 79
     2
 49
7.399774995313284
 49
-4560.119085052519
 53
276.7473999999999
 43
12457.71433692504
 44
1576.77110237395
 45
0.0000035818718473
 46
-36.87716375543
 79
     2
 49
7.399774995313284
 49
-4560.119085052519
 53
276.7473999999999
 43
12468.66634351521
 44
1576.77110237395
 45
0.0000035818718473
 46
-36.87716375543
 79
     2
 49
7.399774995313284
 49
-4560.119085052519
 53
276.7473999999999
 43
12479.61835010538
 44
1576.77110237395
 45
0.0000035818718473
 46
-36.87716375543
 79
     2
 49
7.399774995313284
 49
-4560.119085052519
 53
276.7473999999999
 43
12490.57035669555
 44
1576.77110237395
 45
0.0000035818718473
 46
-36.87716375543
 79
     2
 49
7.399774995313284
 49
-4560.119085052519
 53
276.7473999999999
 43
12501.52236328571
 44
1576.77110237395
 45
0.0000035818718473
 46
-36.87716375543
 79
     2
 49
7.399774995313284
 49
-4560.119085052519
 53
276.7473999999999
 43
12512.47436987588
 44
1576.77110237395
 45
0.0000035818718473
 46
-36.87716375543
 79
     2
 49
7.399774995313284
 49
-4560.119085052519
 53
276.7473999999999
 43
12523.42670426248
 44
1576.77110237395
 45
0.0000035818718473
 46
-36.87716375543
 79
     2
 49
7.399774995313284
 49
-4560.119085052519
 53
276.7473999999999
 43
12534.37871085265
 44
1576.77110237395
 45
0.0000035818718473
 46
-36.87716375543
 79
     2
 49
7.399774995313284
 49
-4560.119085052519
 53
276.7473999999999
 43
12545.33071744281
 44
1576.77110237395
 45
0.0000035818718473
 46
-36.87716375543
 79
     2
 49
7.399774995313284
 49
-4560.119085052519
 53
276.7473999999999
 43
12556.28272403298
 44
1576.77110237395
 45
0.0000035818718473
 46
-36.87716375543
 79
     2
 49
7.399774995313284
 49
-4560.119085052519
 53
276.7473999999999
 43
12567.23473062314
 44
1576.77110237395
 45
0.0000035818718473
 46
-36.87716375543
 79
     2
 49
7.399774995313284
 49
-4560.119085052519
 53
276.7473999999999
 43
12578.18673721332
 44
1576.77110237395
 45
0.0000035818718473
 46
-36.87716375543
 79
     2
 49
7.399774995313284
 49
-4560.119085052519
 53
276.7473999999999
 43
12589.13874380348
 44
1576.77110237395
 45
0.0000035818718473
 46
-36.87716375543
 79
     2
 49
7.399774995313284
 49
-4560.119085052519
 53
276.7473999999999
 43
12600.09075039365
 44
1576.77110237395
 45
0.0000035818718473
 46
-36.87716375543
 79
     2
 49
7.399774995313284
 49
-4560.119085052519
 53
276.7473999999999
 43
12611.04275698382
 44
1576.77110237395
 45
0.0000035818718473
 46
-36.87716375543
 79
     2
 49
7.399774995313284
 49
-4560.119085052519
 53
276.7473999999999
 43
12621.99476357399
 44
1576.77110237395
 45
0.0000035818718473
 46
-36.87716375543
 79
     2
 49
7.399774995313284
 49
-4560.119085052519
 53
276.7473999999999
 43
12632.94709796059
 44
1576.77110237395
 45
0.0000035818718473
 46
-36.87716375543
 79
     2
 49
7.399774995313284
 49
-4560.119085052519
 53
276.7473999999999
 43
12643.89910455075
 44
1576.77110237395
 45
0.0000035818718473
 46
-36.87716375543
 79
     2
 49
7.399774995313284
 49
-4560.119085052519
 53
276.7473999999999
 43
12654.85111114092
 44
1576.77110237395
 45
0.0000035818718473
 46
-36.87716375543
 79
     2
 49
7.399774995313284
 49
-4560.119085052519
 53
276.7473999999999
 43
12665.80311773109
 44
1576.77110237395
 45
0.0000035818718473
 46
-36.87716375543
 79
     2
 49
7.399774995313284
 49
-4560.119085052519
 53
276.7473999999999
 43
12676.75512432126
 44
1576.77110237395
 45
0.0000035818718473
 46
-36.87716375543
 79
     2
 49
7.399774995313284
 49
-4560.119085052519
 53
276.7473999999999
 43
12687.70713091142
 44
1576.77110237395
 45
0.0000035818718473
 46
-36.87716375543
 79
     2
 49
7.399774995313284
 49
-4560.119085052519
 53
276.7473999999999
 43
12698.65880970515
 44
1576.77110237395
 45
0.0000035818718473
 46
-36.87716375543
 79
     2
 49
7.399774995313284
 49
-4560.119085052519
 53
276.7473999999999
 43
12709.61048849889
 44
1576.77110237395
 45
0.0000035818718473
 46
-36.87716375543
 79
     2
 49
7.399774995313284
 49
-4560.119085052519
 53
276.7473999999999
 43
12720.56216729263
 44
1576.77110237395
 45
0.0000035818718473
 46
-36.87716375543
 79
     2
 49
7.399774995313284
 49
-4560.119085052519
 53
276.7473999999999
 43
12731.51384608636
 44
1576.77110237395
 45
0.0000035818718473
 46
-36.87716375543
 79
     2
 49
7.399774995313284
 49
-4560.119085052519
 53
276.7473999999999
 43
12742.46880284442
 44
1576.77110237395
 45
0.0000035818718473
 46
-36.87716375543
 79
     2
 49
7.399774995313284
 49
-4560.119085052519
 53
276.7473999999999
 43
12753.42048163815
 44
1576.77110237395
 45
0.0000035818718473
 46
-36.87716375543
 79
     2
 49
7.399774995313284
 49
-4560.119085052519
 53
276.7473999999999
 43
12764.37216043188
 44
1576.77110237395
 45
0.0000035818718473
 46
-36.87716375543
 79
     2
 49
7.399774995313284
 49
-4560.119085052519
 53
276.7473999999999
 43
12775.32383922562
 44
1576.77110237395
 45
0.0000035818718473
 46
-36.87716375543
 79
     2
 49
7.399774995313284
 49
-4560.119085052519
 53
276.7473999999999
 43
12786.27551801935
 44
1576.77110237395
 45
0.0000035818718473
 46
-36.87716375543
 79
     2
 49
7.399774995313284
 49
-4560.119085052519
 53
276.7473999999999
 43
12797.22719681309
 44
1576.77110237395
 45
0.0000035818718473
 46
-36.87716375543
 79
     2
 49
7.399774995313284
 49
-4560.119085052519
 53
276.7473999999999
 43
12808.17887560683
 44
1576.77110237395
 45
0.0000035818718473
 46
-36.87716375543
 79
     2
 49
7.399774995313284
 49
-4560.119085052519
 53
276.7473999999999
 43
12819.13055440056
 44
1576.77110237395
 45
0.0000035818718473
 46
-36.87716375543
 79
     2
 49
7.399774995313284
 49
-4560.119085052519
 53
276.7473999999999
 43
12830.0822331943
 44
1576.77110237395
 45
0.0000035818718473
 46
-36.87716375543
 79
     2
 49
7.399774995313284
 49
-4560.119085052519
 53
276.7473999999999
 43
12841.03718995235
 44
1576.77110237395
 45
0.0000035818718473
 46
-36.87716375543
 79
     2
 49
7.399774995313284
 49
-4560.119085052519
 53
276.7473999999999
 43
12851.98886874609
 44
1576.77110237395
 45
0.0000035818718473
 46
-36.87716375543
 79
     2
 49
7.399774995313284
 49
-4560.119085052519
 53
276.7473999999999
 43
12862.94054753982
 44
1576.77110237395
 45
0.0000035818718473
 46
-36.87716375543
 79
     2
 49
7.399774995313284
 49
-4560.119085052519
 53
276.7473999999999
 43
12873.89222633356
 44
1576.77110237395
 45
0.0000035818718473
 46
-36.87716375543
 79
     2
 49
7.399774995313284
 49
-4560.119085052519
 53
276.7473999999999
 43
12884.84390512729
 44
1576.77110237395
 45
0.0000035818718473
 46
-36.87716375543
 79
     2
 49
7.399774995313284
 49
-4560.119085052519
 53
276.7473999999999
 43
12895.79558392103
 44
1576.77110237395
 45
0.0000035818718473
 46
-36.87716375543
 79
     2
 49
7.399774995313284
 49
-4560.119085052519
 53
276.1416
 43
12365.96743781992
 44
1592.508838532663
 45
-0.0000356891682921
 46
-36.87700042616381
 79
     2
 49
8.060547042976009
 49
-2551.147945737283
 53
276.1416
 43
12376.91946571687
 44
1592.508838532663
 45
-0.0000356891682921
 46
-36.87700042616381
 79
     2
 49
8.060547042976009
 49
-2551.147945737283
 53
276.1416
 43
12387.87150508668
 44
1592.508838532663
 45
-0.0000356891682921
 46
-36.87700042616381
 79
     2
 49
8.060547042976009
 49
-2551.147945737283
 53
276.1416
 43
12398.82341333791
 44
1592.508838532663
 45
-0.0000356891682921
 46
-36.87700042616381
 79
     2
 49
8.060547042976009
 49
-2551.147945737283
 53
276.1416
 43
12409.77574772452
 44
1592.508838532663
 45
-0.0000356891682921
 46
-36.87700042616381
 79
     2
 49
8.060547042976009
 49
-2551.147945737283
 53
276.1416
 43
12420.72775431467
 44
1592.508838532663
 45
-0.0000356891682921
 46
-36.87700042616381
 79
     2
 49
8.060547042976009
 49
-2551.147945737283
 53
276.1416
 43
12431.67976090484
 44
1592.508838532663
 45
-0.0000356891682921
 46
-36.87700042616381
 79
     2
 49
8.060547042976009
 49
-2551.147945737283
 53
276.1416
 43
12442.63176749502
 44
1592.508838532663
 45
-0.0000356891682921
 46
-36.87700042616381
 79
     2
 49
8.060547042976009
 49
-2551.147945737283
 53
276.1416
 43
12453.58377408518
 44
1592.508838532663
 45
-0.0000356891682921
 46
-36.87700042616381
 79
     2
 49
8.060547042976009
 49
-2551.147945737283
 53
276.1416
 43
12464.53578067535
 44
1592.508838532663
 45
-0.0000356891682921
 46
-36.87700042616381
 79
     2
 49
8.060547042976009
 49
-2551.147945737283
 53
276.1416
 43
12475.48778726552
 44
1592.508838532663
 45
-0.0000356891682921
 46
-36.87700042616381
 79
     2
 49
8.060547042976009
 49
-2551.147945737283
 53
276.1416
 43
12486.43979385569
 44
1592.508838532663
 45
-0.0000356891682921
 46
-36.87700042616381
 79
     2
 49
8.060547042976009
 49
-2551.147945737283
 53
276.1416
 43
12497.39180044585
 44
1592.508838532663
 45
-0.0000356891682921
 46
-36.87700042616381
 79
     2
 49
8.060547042976009
 49
-2551.147945737283
 53
276.1416
 43
12508.34380703601
 44
1592.508838532663
 45
-0.0000356891682921
 46
-36.87700042616381
 79
     2
 49
8.060547042976009
 49
-2551.147945737283
 53
276.1416
 43
12519.29581362619
 44
1592.508838532663
 45
-0.0000356891682921
 46
-36.87700042616381
 79
     2
 49
8.060547042976009
 49
-2551.147945737283
 53
276.1416
 43
12530.24814801278
 44
1592.508838532663
 45
-0.0000356891682921
 46
-36.87700042616381
 79
     2
 49
8.060547042976009
 49
-2551.147945737283
 53
276.1416
 43
12541.20015460296
 44
1592.508838532663
 45
-0.0000356891682921
 46
-36.87700042616381
 79
     2
 49
8.060547042976009
 49
-2551.147945737283
 53
276.1416
 43
12552.15216119311
 44
1592.508838532663
 45
-0.0000356891682921
 46
-36.87700042616381
 79
     2
 49
8.060547042976009
 49
-2551.147945737283
 53
276.1416
 43
12563.10416778328
 44
1592.508838532663
 45
-0.0000356891682921
 46
-36.87700042616381
 79
     2
 49
8.060547042976009
 49
-2551.147945737283
 53
276.1416
 43
12574.05617437346
 44
1592.508838532663
 45
-0.0000356891682921
 46
-36.87700042616381
 79
     2
 49
8.060547042976009
 49
-2551.147945737283
 53
276.1416
 43
12585.00818096361
 44
1592.508838532663
 45
-0.0000356891682921
 46
-36.87700042616381
 79
     2
 49
8.060547042976009
 49
-2551.147945737283
 53
276.1416
 43
12595.96018755378
 44
1592.508838532663
 45
-0.0000356891682921
 46
-36.87700042616381
 79
     2
 49
8.060547042976009
 49
-2551.147945737283
 53
276.1416
 43
12606.91219414395
 44
1592.508838532663
 45
-0.0000356891682921
 46
-36.87700042616381
 79
     2
 49
8.060547042976009
 49
-2551.147945737283
 53
276.1416
 43
12617.86420073412
 44
1592.508838532663
 45
-0.0000356891682921
 46
-36.87700042616381
 79
     2
 49
8.060547042976009
 49
-2551.147945737283
 53
276.1416
 43
12628.81620732429
 44
1592.508838532663
 45
-0.0000356891682921
 46
-36.87700042616381
 79
     2
 49
8.060547042976009
 49
-2551.147945737283
 53
83.85800000000008
 43
12375.76385217542
 44
1584.494576345885
 45
10.9520277214346
 46
-0.0000684758235829
 79
     2
 49
8.060547042975892
 49
-2551.147945737253
 53
83.85800000000008
 43
12375.76385217542
 44
1547.617576082743
 45
10.9520277214346
 46
-0.0000684758235829
 79
     2
 49
8.060547042975892
 49
-2551.147945737253
 53
83.85800000000008
 43
12375.76385217542
 44
1510.740477480667
 45
10.9520277214346
 46
-0.0000684758235829
 79
     2
 49
8.060547042975892
 49
-2551.147945737253
 53
83.85800000000008
 43
12375.76385217542
 44
1473.863378878599
 45
10.9520277214346
 46
-0.0000684758235829
 79
     2
 49
8.060547042975892
 49
-2551.147945737253
 53
83.85800000000008
 43
12375.76385217542
 44
1436.986280276531
 45
10.9520277214346
 46
-0.0000684758235829
 79
     2
 49
8.060547042975892
 49
-2551.147945737253
 53
83.85800000000008
 43
12375.76385217542
 44
1400.109181674455
 45
10.9520277214346
 46
-0.0000684758235829
 79
     2
 49
8.060547042975892
 49
-2551.147945737253
 53
83.85800000000008
 43
12375.76385217542
 44
1363.232083072384
 45
10.9520277214346
 46
-0.0000684758235829
 79
     2
 49
8.060547042975892
 49
-2551.147945737253
 53
83.85800000000008
 43
12375.76385217542
 44
1326.354984470312
 45
10.9520277214346
 46
-0.0000684758235829
 79
     2
 49
8.060547042975892
 49
-2551.147945737253
 53
83.85800000000008
 43
12375.76385217542
 44
1289.477885868244
 45
10.9520277214346
 46
-0.0000684758235829
 79
     2
 49
8.060547042975892
 49
-2551.147945737253
 53
83.85800000000008
 43
12375.76385217542
 44
1252.599148284011
 45
10.9520277214346
 46
-0.0000684758235829
 79
     2
 49
8.060547042975892
 49
-2551.147945737253
 53
83.85800000000008
 43
12375.76385217542
 44
1215.722049681939
 45
10.9520277214346
 46
-0.0000684758235829
 79
     2
 49
8.060547042975892
 49
-2551.147945737253
 53
83.85800000000008
 43
12375.76385217542
 44
1178.844951079863
 45
10.9520277214346
 46
-0.0000684758235829
 79
     2
 49
8.060547042975892
 49
-2551.147945737253
 53
83.85800000000008
 43
12375.76385217542
 44
1141.967852477795
 45
10.9520277214346
 46
-0.0000684758235829
 79
     2
 49
8.060547042975892
 49
-2551.147945737253
 53
83.85800000000008
 43
12375.76385217542
 44
1105.090753875727
 45
10.9520277214346
 46
-0.0000684758235829
 79
     2
 49
8.060547042975892
 49
-2551.147945737253
 53
83.85800000000008
 43
12375.76385217542
 44
1068.213655273652
 45
10.9520277214346
 46
-0.0000684758235829
 79
     2
 49
8.060547042975892
 49
-2551.147945737253
 53
83.85800000000008
 43
12375.76385217542
 44
1031.33655667158
 45
10.9520277214346
 46
-0.0000684758235829
 79
     2
 49
8.060547042975892
 49
-2551.147945737253
 53
83.85800000000008
 43
12375.76385217542
 44
994.4594580695083
 45
10.9520277214346
 46
-0.0000684758235829
 79
     2
 49
8.060547042975892
 49
-2551.147945737253
 53
83.85800000000008
 43
12375.76385217542
 44
957.5823594674366
 45
10.9520277214346
 46
-0.0000684758235829
 79
     2
 49
8.060547042975892
 49
-2551.147945737253
 53
83.85800000000008
 43
12375.76385217542
 44
920.7052608653684
 45
10.9520277214346
 46
-0.0000684758235829
 79
     2
 49
8.060547042975892
 49
-2551.147945737253
 53
83.85800000000008
 43
12375.76385217542
 44
883.8281622632967
 45
10.9520277214346
 46
-0.0000684758235829
 79
     2
 49
8.060547042975892
 49
-2551.147945737253
 53
83.85800000000008
 43
12375.76385217542
 44
846.9510636612213
 45
10.9520277214346
 46
-0.0000684758235829
 79
     2
 49
8.060547042975892
 49
-2551.147945737253
 53
83.85800000000008
 43
12375.76385217542
 44
810.0739650591531
 45
10.9520277214346
 46
-0.0000684758235829
 79
     2
 49
8.060547042975892
 49
-2551.147945737253
 53
83.85800000000008
 43
12375.76385217542
 44
773.1968664570813
 45
10.9520277214346
 46
-0.0000684758235829
 79
     2
 49
8.060547042975892
 49
-2551.147945737253
 53
83.85800000000008
 43
12375.76385217542
 44
736.3197678550095
 45
10.9520277214346
 46
-0.0000684758235829
 79
     2
 49
8.060547042975892
 49
-2551.147945737253
 53
83.85800000000008
 43
12375.76385217542
 44
699.4426692529341
 45
10.9520277214346
 46
-0.0000684758235829
 79
     2
 49
8.060547042975892
 49
-2551.147945737253
 53
83.85800000000008
 43
12375.76385217542
 44
662.5655706508659
 45
10.9520277214346
 46
-0.0000684758235829
 79
     2
 49
8.060547042975892
 49
-2551.147945737253
 53
83.85800000000008
 43
12375.76385217542
 44
625.6884720487906
 45
10.9520277214346
 46
-0.0000684758235829
 79
     2
 49
8.060547042975892
 49
-2551.147945737253
 53
83.85800000000008
 43
12375.76385217542
 44
588.8113734467224
 45
10.9520277214346
 46
-0.0000684758235829
 79
     2
 49
8.060547042975892
 49
-2551.147945737253
 53
83.85800000000008
 43
12375.76385217542
 44
551.934274844647
 45
10.9520277214346
 46
-0.0000684758235829
 79
     2
 49
8.060547042975892
 49
-2551.147945737253
 53
83.85800000000008
 43
12375.76385217542
 44
515.0571762425788
 45
10.9520277214346
 46
-0.0000684758235829
 79
     2
 49
8.060547042975892
 49
-2551.147945737253
 53
83.85800000000008
 43
12375.76385217542
 44
478.1800776405106
 45
10.9520277214346
 46
-0.0000684758235829
 79
     2
 49
8.060547042975892
 49
-2551.147945737253
 53
83.85800000000008
 43
12375.76385217542
 44
441.3029790384353
 45
10.9520277214346
 46
-0.0000684758235829
 79
     2
 49
8.060547042975892
 49
-2551.147945737253
 53
83.85800000000008
 43
12375.76385217542
 44
404.4258804363635
 45
10.9520277214346
 46
-0.0000684758235829
 79
     2
 49
8.060547042975892
 49
-2551.147945737253
 53
83.85800000000008
 43
12375.76385217542
 44
367.5487818342917
 45
10.9520277214346
 46
-0.0000684758235829
 79
     2
 49
8.060547042975892
 49
-2551.147945737253
 53
83.85800000000008
 43
12375.76385217542
 44
330.6716832322199
 45
10.9520277214346
 46
-0.0000684758235829
 79
     2
 49
8.060547042975892
 49
-2551.147945737253
 53
83.85800000000008
 43
12375.76385217542
 44
293.7945846301482
 45
10.9520277214346
 46
-0.0000684758235829
 79
     2
 49
8.060547042975892
 49
-2551.147945737253
 53
83.85800000000008
 43
12375.76385217542
 44
256.91748602808
 45
10.9520277214346
 46
-0.0000684758235829
 79
     2
 49
8.060547042975892
 49
-2551.147945737253
 53
83.85800000000008
 43
12375.76385217542
 44
220.0403874260073
 45
10.9520277214346
 46
-0.0000684758235829
 79
     2
 49
8.060547042975892
 49
-2551.147945737253
 53
83.85800000000008
 43
12375.76385217542
 44
183.1632888239319
 45
10.9520277214346
 46
-0.0000684758235829
 79
     2
 49
8.060547042975892
 49
-2551.147945737253
 53
83.85800000000008
 43
12375.76385217542
 44
146.2861902218637
 45
10.9520277214346
 46
-0.0000684758235829
 79
     2
 49
8.060547042975892
 49
-2551.147945737253
 53
83.85800000000008
 43
12375.76385217542
 44
109.4090916197919
 45
10.9520277214346
 46
-0.0000684758235829
 79
     2
 49
8.060547042975892
 49
-2551.147945737253
 53
83.85800000000008
 43
12375.76385217542
 44
72.5319930177202
 45
10.9520277214346
 46
-0.0000684758235829
 79
     2
 49
8.060547042975892
 49
-2551.147945737253
 53
83.85800000000008
 43
12375.76385217542
 44
35.65489441564841
 45
10.9520277214346
 46
-0.0000684758235829
 79
     2
 49
8.060547042975892
 49
-2551.147945737253
 53
83.85800000000008
 43
12375.76385217542
 44
-1.222204186423368
 45
10.9520277214346
 46
-0.0000684758235829
 79
     2
 49
8.060547042975892
 49
-2551.147945737253
 53
83.85800000000008
 43
12375.76385217542
 44
-38.09930278849515
 45
10.9520277214346
 46
-0.0000684758235829
 79
     2
 49
8.060547042975892
 49
-2551.147945737253
 53
83.85800000000008
 43
12375.76385217542
 44
-74.97640139056693
 45
10.9520277214346
 46
-0.0000684758235829
 79
     2
 49
8.060547042975892
 49
-2551.147945737253
 53
83.85800000000008
 43
12375.76385217542
 44
-111.8534999926387
 45
10.9520277214346
 46
-0.0000684758235829
 79
     2
 49
8.060547042975892
 49
-2551.147945737253
 53
83.85800000000008
 43
12375.76385217542
 44
-148.7305985947141
 45
10.9520277214346
 46
-0.0000684758235829
 79
     2
 49
8.060547042975892
 49
-2551.147945737253
 53
83.85800000000008
 43
12375.76385217542
 44
-185.6076971967786
 45
10.9520277214346
 46
-0.0000684758235829
 79
     2
 49
8.060547042975892
 49
-2551.147945737253
 53
83.85800000000008
 43
12375.76385217542
 44
-222.4847957988504
 45
10.9520277214346
 46
-0.0000684758235829
 79
     2
 49
8.060547042975892
 49
-2551.147945737253
 53
83.85800000000008
 43
12375.76385217542
 44
-259.3618944009258
 45
10.9520277214346
 46
-0.0000684758235829
 79
     2
 49
8.060547042975892
 49
-2551.147945737253
 53
83.85800000000008
 43
12375.76385217542
 44
-296.2389930029976
 45
10.9520277214346
 46
-0.0000684758235829
 79
     2
 49
8.060547042975892
 49
-2551.147945737253
 53
83.85800000000008
 43
12375.76385217542
 44
-333.1160916050694
 45
10.9520277214346
 46
-0.0000684758235829
 79
     2
 49
8.060547042975892
 49
-2551.147945737253
 53
83.85800000000008
 43
12375.76385217542
 44
-369.9931902071412
 45
10.9520277214346
 46
-0.0000684758235829
 79
     2
 49
8.060547042975892
 49
-2551.147945737253
 53
83.85800000000008
 43
12375.76385217542
 44
-406.8702888092093
 45
10.9520277214346
 46
-0.0000684758235829
 79
     2
 49
8.060547042975892
 49
-2551.147945737253
 53
83.85800000000008
 43
12375.76385217542
 44
-443.7473874112811
 45
10.9520277214346
 46
-0.0000684758235829
 79
     2
 49
8.060547042975892
 49
-2551.147945737253
 53
83.85800000000008
 43
12375.76385217542
 44
-480.6244860133565
 45
10.9520277214346
 46
-0.0000684758235829
 79
     2
 49
8.060547042975892
 49
-2551.147945737253
 53
83.85800000000008
 43
12375.76385217542
 44
-517.5015846154247
 45
10.9520277214346
 46
-0.0000684758235829
 79
     2
 49
8.060547042975892
 49
-2551.147945737253
 53
83.85800000000008
 43
12375.76385217542
 44
-554.3786832174965
 45
10.9520277214346
 46
-0.0000684758235829
 79
     2
 49
8.060547042975892
 49
-2551.147945737253
 53
83.85800000000008
 43
12375.76385217542
 44
-591.2557818195682
 45
10.9520277214346
 46
-0.0000684758235829
 79
     2
 49
8.060547042975892
 49
-2551.147945737253
 53
83.85800000000008
 43
12375.76385217542
 44
-628.13288042164
 45
10.9520277214346
 46
-0.0000684758235829
 79
     2
 49
8.060547042975892
 49
-2551.147945737253
 53
83.85800000000008
 43
12375.76385217542
 44
-665.0099790237118
 45
10.9520277214346
 46
-0.0000684758235829
 79
     2
 49
8.060547042975892
 49
-2551.147945737253
 53
83.85800000000008
 43
12375.76385217542
 44
-701.8870776257836
 45
10.9520277214346
 46
-0.0000684758235829
 79
     2
 49
8.060547042975892
 49
-2551.147945737253
 53
83.85800000000008
 43
12375.76385217542
 44
-738.7641762278554
 45
10.9520277214346
 46
-0.0000684758235829
 79
     2
 49
8.060547042975892
 49
-2551.147945737253
 53
83.85800000000008
 43
12375.76385217542
 44
-775.6412748299271
 45
10.9520277214346
 46
-0.0000684758235829
 79
     2
 49
8.060547042975892
 49
-2551.147945737253
 53
83.85800000000008
 43
12375.76385217542
 44
-812.5183734320026
 45
10.9520277214346
 46
-0.0000684758235829
 79
     2
 49
8.060547042975892
 49
-2551.147945737253
 53
83.85800000000008
 43
12375.76385217542
 44
-849.3954720340706
 45
10.9520277214346
 46
-0.0000684758235829
 79
     2
 49
8.060547042975892
 49
-2551.147945737253
 53
83.85800000000008
 43
12375.76385217542
 44
-886.2725706361388
 45
10.9520277214346
 46
-0.0000684758235829
 79
     2
 49
8.060547042975892
 49
-2551.147945737253
 53
83.85800000000008
 43
12375.76385217542
 44
-923.1496692382142
 45
10.9520277214346
 46
-0.0000684758235829
 79
     2
 49
8.060547042975892
 49
-2551.147945737253
 53
83.25300000000003
 43
12371.6246682894
 44
1569.422758638826
 45
10.95204383447483
 46
0.0000798601498432
 79
     2
 49
7.399774995313283
 49
-4560.119085052519
 53
83.25300000000003
 43
12371.6246682894
 44
1532.545823934968
 45
10.95204383447483
 46
0.0000798601498432
 79
     2
 49
7.399774995313283
 49
-4560.119085052519
 53
83.25300000000003
 43
12371.6246682894
 44
1495.668725332896
 45
10.95204383447483
 46
0.0000798601498432
 79
     2
 49
7.399774995313283
 49
-4560.119085052519
 53
83.25300000000003
 43
12371.6246682894
 44
1458.791626730825
 45
10.95204383447483
 46
0.0000798601498432
 79
     2
 49
7.399774995313283
 49
-4560.119085052519
 53
83.25300000000003
 43
12371.6246682894
 44
1421.914528128756
 45
10.95204383447483
 46
0.0000798601498432
 79
     2
 49
7.399774995313283
 49
-4560.119085052519
 53
83.25300000000003
 43
12371.6246682894
 44
1385.037429526685
 45
10.95204383447483
 46
0.0000798601498432
 79
     2
 49
7.399774995313283
 49
-4560.119085052519
 53
83.25300000000003
 43
12371.6246682894
 44
1348.160330924609
 45
10.95204383447483
 46
0.0000798601498432
 79
     2
 49
7.399774995313283
 49
-4560.119085052519
 53
83.25300000000003
 43
12371.6246682894
 44
1311.283232322541
 45
10.95204383447483
 46
0.0000798601498432
 79
     2
 49
7.399774995313283
 49
-4560.119085052519
 53
83.25300000000003
 43
12371.6246682894
 44
1274.406133720465
 45
10.95204383447483
 46
0.0000798601498432
 79
     2
 49
7.399774995313283
 49
-4560.119085052519
 53
83.25300000000003
 43
12371.6246682894
 44
1237.530346304123
 45
10.95204383447483
 46
0.0000798601498432
 79
     2
 49
7.399774995313283
 49
-4560.119085052519
 53
83.25300000000003
 43
12371.6246682894
 44
1200.653247702055
 45
10.95204383447483
 46
0.0000798601498432
 79
     2
 49
7.399774995313283
 49
-4560.119085052519
 53
83.25300000000003
 43
12371.6246682894
 44
1163.77614909998
 45
10.95204383447483
 46
0.0000798601498432
 79
     2
 49
7.399774995313283
 49
-4560.119085052519
 53
83.25300000000003
 43
12371.6246682894
 44
1126.899050497912
 45
10.95204383447483
 46
0.0000798601498432
 79
     2
 49
7.399774995313283
 49
-4560.119085052519
 53
83.25300000000003
 43
12371.6246682894
 44
1090.021951895836
 45
10.95204383447483
 46
0.0000798601498432
 79
     2
 49
7.399774995313283
 49
-4560.119085052519
 53
83.25300000000003
 43
12371.6246682894
 44
1053.144853293761
 45
10.95204383447483
 46
0.0000798601498432
 79
     2
 49
7.399774995313283
 49
-4560.119085052519
 53
83.25300000000003
 43
12371.6246682894
 44
1016.267754691693
 45
10.95204383447483
 46
0.0000798601498432
 79
     2
 49
7.399774995313283
 49
-4560.119085052519
 53
83.25300000000003
 43
12371.6246682894
 44
979.3906560896248
 45
10.95204383447483
 46
0.0000798601498432
 79
     2
 49
7.399774995313283
 49
-4560.119085052519
 53
83.25300000000003
 43
12371.6246682894
 44
942.5135574875493
 45
10.95204383447483
 46
0.0000798601498432
 79
     2
 49
7.399774995313283
 49
-4560.119085052519
 53
83.25300000000003
 43
12371.6246682894
 44
905.6364588854776
 45
10.95204383447483
 46
0.0000798601498432
 79
     2
 49
7.399774995313283
 49
-4560.119085052519
 53
83.25300000000003
 43
12371.6246682894
 44
868.7593602834057
 45
10.95204383447483
 46
0.0000798601498432
 79
     2
 49
7.399774995313283
 49
-4560.119085052519
 53
83.25300000000003
 43
12371.6246682894
 44
831.8822616813376
 45
10.95204383447483
 46
0.0000798601498432
 79
     2
 49
7.399774995313283
 49
-4560.119085052519
 53
83.25300000000003
 43
12371.6246682894
 44
795.0051630792695
 45
10.95204383447483
 46
0.0000798601498432
 79
     2
 49
7.399774995313283
 49
-4560.119085052519
 53
83.25300000000003
 43
12371.6246682894
 44
758.1280644771941
 45
10.95204383447483
 46
0.0000798601498432
 79
     2
 49
7.399774995313283
 49
-4560.119085052519
 53
83.25300000000003
 43
12371.6246682894
 44
721.2509658751187
 45
10.95204383447483
 46
0.0000798601498432
 79
     2
 49
7.399774995313283
 49
-4560.119085052519
 53
83.25300000000003
 43
12371.6246682894
 44
684.3738672730506
 45
10.95204383447483
 46
0.0000798601498432
 79
     2
 49
7.399774995313283
 49
-4560.119085052519
 53
83.25300000000003
 43
12371.6246682894
 44
647.4967686709788
 45
10.95204383447483
 46
0.0000798601498432
 79
     2
 49
7.399774995313283
 49
-4560.119085052519
 53
83.25300000000003
 43
12371.6246682894
 44
610.619670068907
 45
10.95204383447483
 46
0.0000798601498432
 79
     2
 49
7.399774995313283
 49
-4560.119085052519
 53
83.25300000000003
 43
12371.6246682894
 44
573.7425714668352
 45
10.95204383447483
 46
0.0000798601498432
 79
     2
 49
7.399774995313283
 49
-4560.119085052519
 53
83.25300000000003
 43
12371.6246682894
 44
536.8654728647634
 45
10.95204383447483
 46
0.0000798601498432
 79
     2
 49
7.399774995313283
 49
-4560.119085052519
 53
83.25300000000003
 43
12371.6246682894
 44
499.9883742626916
 45
10.95204383447483
 46
0.0000798601498432
 79
     2
 49
7.399774995313283
 49
-4560.119085052519
 53
83.25300000000003
 43
12371.6246682894
 44
463.1112756606198
 45
10.95204383447483
 46
0.0000798601498432
 79
     2
 49
7.399774995313283
 49
-4560.119085052519
 53
83.25300000000003
 43
12371.6246682894
 44
426.234177058548
 45
10.95204383447483
 46
0.0000798601498432
 79
     2
 49
7.399774995313283
 49
-4560.119085052519
 53
83.25300000000003
 43
12371.6246682894
 44
389.3570784564763
 45
10.95204383447483
 46
0.0000798601498432
 79
     2
 49
7.399774995313283
 49
-4560.119085052519
 53
83.25300000000003
 43
12371.6246682894
 44
352.4799798544082
 45
10.95204383447483
 46
0.0000798601498432
 79
     2
 49
7.399774995313283
 49
-4560.119085052519
 53
83.25300000000003
 43
12371.6246682894
 44
315.6028812523364
 45
10.95204383447483
 46
0.0000798601498432
 79
     2
 49
7.399774995313283
 49
-4560.119085052519
 53
83.25300000000003
 43
12371.6246682894
 44
278.7257826502646
 45
10.95204383447483
 46
0.0000798601498432
 79
     2
 49
7.399774995313283
 49
-4560.119085052519
 53
83.25300000000003
 43
12371.6246682894
 44
241.8486840481882
 45
10.95204383447483
 46
0.0000798601498432
 79
     2
 49
7.399774995313283
 49
-4560.119085052519
 53
83.25300000000003
 43
12371.6246682894
 44
204.9715854461201
 45
10.95204383447483
 46
0.0000798601498432
 79
     2
 49
7.399774995313283
 49
-4560.119085052519
 53
83.25300000000003
 43
12371.6246682894
 44
168.0944868440447
 45
10.95204383447483
 46
0.0000798601498432
 79
     2
 49
7.399774995313283
 49
-4560.119085052519
 53
83.25300000000003
 43
12371.6246682894
 44
131.2173882419765
 45
10.95204383447483
 46
0.0000798601498432
 79
     2
 49
7.399774995313283
 49
-4560.119085052519
 53
83.25300000000003
 43
12371.6246682894
 44
94.34028963990476
 45
10.95204383447483
 46
0.0000798601498432
 79
     2
 49
7.399774995313283
 49
-4560.119085052519
 53
83.25300000000003
 43
12371.6246682894
 44
57.46319103783299
 45
10.95204383447483
 46
0.0000798601498432
 79
     2
 49
7.399774995313283
 49
-4560.119085052519
 53
83.25300000000003
 43
12371.6246682894
 44
20.5860924357612
 45
10.95204383447483
 46
0.0000798601498432
 79
     2
 49
7.399774995313283
 49
-4560.119085052519
 53
83.25300000000003
 43
12371.6246682894
 44
-16.29100616631058
 45
10.95204383447483
 46
0.0000798601498432
 79
     2
 49
7.399774995313283
 49
-4560.119085052519
 53
83.25300000000003
 43
12371.6246682894
 44
-53.16810476838236
 45
10.95204383447483
 46
0.0000798601498432
 79
     2
 49
7.399774995313283
 49
-4560.119085052519
 53
83.25300000000003
 43
12371.6246682894
 44
-90.04520337045414
 45
10.95204383447483
 46
0.0000798601498432
 79
     2
 49
7.399774995313283
 49
-4560.119085052519
 53
83.25300000000003
 43
12371.6246682894
 44
-126.9223019725223
 45
10.95204383447483
 46
0.0000798601498432
 79
     2
 49
7.399774995313283
 49
-4560.119085052519
 53
83.25300000000003
 43
12371.6246682894
 44
-163.7994005745977
 45
10.95204383447483
 46
0.0000798601498432
 79
     2
 49
7.399774995313283
 49
-4560.119085052519
 53
83.25300000000003
 43
12371.6246682894
 44
-200.6764991766695
 45
10.95204383447483
 46
0.0000798601498432
 79
     2
 49
7.399774995313283
 49
-4560.119085052519
 53
83.25300000000003
 43
12371.6246682894
 44
-237.5535977787413
 45
10.95204383447483
 46
0.0000798601498432
 79
     2
 49
7.399774995313283
 49
-4560.119085052519
 53
83.25300000000003
 43
12371.6246682894
 44
-274.430696380813
 45
10.95204383447483
 46
0.0000798601498432
 79
     2
 49
7.399774995313283
 49
-4560.119085052519
 53
83.25300000000003
 43
12371.6246682894
 44
-311.3077949828812
 45
10.95204383447483
 46
0.0000798601498432
 79
     2
 49
7.399774995313283
 49
-4560.119085052519
 53
83.25300000000003
 43
12371.6246682894
 44
-348.184893584953
 45
10.95204383447483
 46
0.0000798601498432
 79
     2
 49
7.399774995313283
 49
-4560.119085052519
 53
83.25300000000003
 43
12371.6246682894
 44
-385.0619921870248
 45
10.95204383447483
 46
0.0000798601498432
 79
     2
 49
7.399774995313283
 49
-4560.119085052519
 53
83.25300000000003
 43
12371.6246682894
 44
-421.9390907891002
 45
10.95204383447483
 46
0.0000798601498432
 79
     2
 49
7.399774995313283
 49
-4560.119085052519
 53
83.25300000000003
 43
12371.6246682894
 44
-458.8161893911683
 45
10.95204383447483
 46
0.0000798601498432
 79
     2
 49
7.399774995313283
 49
-4560.119085052519
 53
83.25300000000003
 43
12371.6246682894
 44
-495.6932879932437
 45
10.95204383447483
 46
0.0000798601498432
 79
     2
 49
7.399774995313283
 49
-4560.119085052519
 53
83.25300000000003
 43
12371.6246682894
 44
-532.5703865953118
 45
10.95204383447483
 46
0.0000798601498432
 79
     2
 49
7.399774995313283
 49
-4560.119085052519
 53
83.25300000000003
 43
12371.6246682894
 44
-569.4474851973836
 45
10.95204383447483
 46
0.0000798601498432
 79
     2
 49
7.399774995313283
 49
-4560.119085052519
 53
83.25300000000003
 43
12371.6246682894
 44
-606.3245837994554
 45
10.95204383447483
 46
0.0000798601498432
 79
     2
 49
7.399774995313283
 49
-4560.119085052519
 53
83.25300000000003
 43
12371.6246682894
 44
-643.2016824015272
 45
10.95204383447483
 46
0.0000798601498432
 79
     2
 49
7.399774995313283
 49
-4560.119085052519
 53
83.25300000000003
 43
12371.6246682894
 44
-680.078781003599
 45
10.95204383447483
 46
0.0000798601498432
 79
     2
 49
7.399774995313283
 49
-4560.119085052519
 53
83.25300000000003
 43
12371.6246682894
 44
-716.9558796056707
 45
10.95204383447483
 46
0.0000798601498432
 79
     2
 49
7.399774995313283
 49
-4560.119085052519
 53
83.25300000000003
 43
12371.6246682894
 44
-753.8329782077425
 45
10.95204383447483
 46
0.0000798601498432
 79
     2
 49
7.399774995313283
 49
-4560.119085052519
 53
83.25300000000003
 43
12371.6246682894
 44
-790.7100768098143
 45
10.95204383447483
 46
0.0000798601498432
 79
     2
 49
7.399774995313283
 49
-4560.119085052519
 53
83.25300000000003
 43
12371.6246682894
 44
-827.5871754118824
 45
10.95204383447483
 46
0.0000798601498432
 79
     2
 49
7.399774995313283
 49
-4560.119085052519
 53
83.25300000000003
 43
12371.6246682894
 44
-864.4642740139579
 45
10.95204383447483
 46
0.0000798601498432
 79
     2
 49
7.399774995313283
 49
-4560.119085052519
 53
83.25300000000003
 43
12371.6246682894
 44
-901.3413726160298
 45
10.95204383447483
 46
0.0000798601498432
 79
     2
 49
7.399774995313283
 49
-4560.119085052519
 53
83.25300000000003
 43
12371.6246682894
 44
-938.2184712181015
 45
10.95204383447483
 46
0.0000798601498432
 79
     2
 49
7.399774995313283
 49
-4560.119085052519
 53
83.25300000000003
 43
12371.6246682894
 44
-975.0955698201696
 45
10.95204383447483
 46
0.0000798601498432
 79
     2
 49
7.399774995313283
 49
-4560.119085052519
 53
83.25300000000003
 43
12371.6246682894
 44
-1011.972668422241
 45
10.95204383447483
 46
0.0000798601498432
 79
     2
 49
7.399774995313283
 49
-4560.119085052519
 53
83.25300000000003
 43
12371.6246682894
 44
-1048.849767024313
 45
10.95204383447483
 46
0.0000798601498432
 79
     2
 49
7.399774995313283
 49
-4560.119085052519
 53
83.25300000000003
 43
12371.6246682894
 44
-1085.726865626388
 45
10.95204383447483
 46
0.0000798601498432
 79
     2
 49
7.399774995313283
 49
-4560.119085052519
 53
83.25300000000003
 43
12371.6246682894
 44
-1122.603964228457
 45
10.95204383447483
 46
0.0000798601498432
 79
     2
 49
7.399774995313283
 49
-4560.119085052519
 53
83.25300000000003
 43
12371.6246682894
 44
-1159.481062830525
 45
10.95204383447483
 46
0.0000798601498432
 79
     2
 49
7.399774995313283
 49
-4560.119085052519
 53
83.25300000000003
 43
12371.6246682894
 44
-1196.3581614326
 45
10.95204383447483
 46
0.0000798601498432
 79
     2
 49
7.399774995313283
 49
-4560.119085052519
 53
83.25300000000003
 43
12371.6246682894
 44
-1233.235260034672
 45
10.95204383447483
 46
0.0000798601498432
 79
     2
 49
7.399774995313283
 49
-4560.119085052519
 53
83.25300000000003
 43
12371.6246682894
 44
-1270.112358636744
 45
10.95204383447483
 46
0.0000798601498432
 79
     2
 49
7.399774995313283
 49
-4560.119085052519
 53
83.25300000000003
 43
12371.6246682894
 44
-1306.989457238816
 45
10.95204383447483
 46
0.0000798601498432
 79
     2
 49
7.399774995313283
 49
-4560.119085052519
 53
83.25300000000003
 43
12371.6246682894
 44
-1343.866555840887
 45
10.95204383447483
 46
0.0000798601498432
 79
     2
 49
7.399774995313283
 49
-4560.119085052519
 53
83.25300000000003
 43
12371.6246682894
 44
-1380.743654442959
 45
10.95204383447483
 46
0.0000798601498432
 79
     2
 49
7.399774995313283
 49
-4560.119085052519
 53
83.25300000000003
 43
12371.6246682894
 44
-1417.620753045031
 45
10.95204383447483
 46
0.0000798601498432
 79
     2
 49
7.399774995313283
 49
-4560.119085052519
 53
83.25300000000003
 43
12371.6246682894
 44
-1454.497851647103
 45
10.95204383447483
 46
0.0000798601498432
 79
     2
 49
7.399774995313283
 49
-4560.119085052519
 53
83.25300000000003
 43
12371.6246682894
 44
-1491.374950249171
 45
10.95204383447483
 46
0.0000798601498432
 79
     2
 49
7.399774995313283
 49
-4560.119085052519
 53
83.25300000000003
 43
12371.6246682894
 44
-1528.252048851246
 45
10.95204383447483
 46
0.0000798601498432
 79
     2
 49
7.399774995313283
 49
-4560.119085052519
 53
83.25300000000003
 43
12371.6246682894
 44
-1565.129147453318
 45
10.95204383447483
 46
0.0000798601498432
 79
     2
 49
7.399774995313283
 49
-4560.119085052519
 53
83.25300000000003
 43
12371.6246682894
 44
-1602.006246055386
 45
10.95204383447483
 46
0.0000798601498432
 79
     2
 49
7.399774995313283
 49
-4560.119085052519
 53
83.25300000000003
 43
12371.6246682894
 44
-1638.883344657458
 45
10.95204383447483
 46
0.0000798601498432
 79
     2
 49
7.399774995313283
 49
-4560.119085052519
 53
83.25300000000003
 43
12371.6246682894
 44
-1675.76044325953
 45
10.95204383447483
 46
0.0000798601498432
 79
     2
 49
7.399774995313283
 49
-4560.119085052519
 53
83.25300000000003
 43
12371.6246682894
 44
-1712.640819825924
 45
10.95204383447483
 46
0.0000798601498432
 79
     2
 49
7.399774995313283
 49
-4560.119085052519
 53
83.25300000000003
 43
12371.6246682894
 44
-1749.517918427996
 45
10.95204383447483
 46
0.0000798601498432
 79
     2
 49
7.399774995313283
 49
-4560.119085052519
 53
83.25300000000003
 43
12371.6246682894
 44
-1786.395017030068
 45
10.95204383447483
 46
0.0000798601498432
 79
     2
 49
7.399774995313283
 49
-4560.119085052519
 53
83.25300000000003
 43
12371.6246682894
 44
-1823.272115632136
 45
10.95204383447483
 46
0.0000798601498432
 79
     2
 49
7.399774995313283
 49
-4560.119085052519
 53
83.25300000000003
 43
12371.6246682894
 44
-1860.149214234208
 45
10.95204383447483
 46
0.0000798601498432
 79
     2
 49
7.399774995313283
 49
-4560.119085052519
 53
83.25300000000003
 43
12371.6246682894
 44
-1897.026312836283
 45
10.95204383447483
 46
0.0000798601498432
 79
     2
 49
7.399774995313283
 49
-4560.119085052519
 53
83.25300000000003
 43
12371.6246682894
 44
-1933.903411438355
 45
10.95204383447483
 46
0.0000798601498432
 79
     2
 49
7.399774995313283
 49
-4560.119085052519
 53
83.25300000000003
 43
12371.6246682894
 44
-1970.780510040427
 45
10.95204383447483
 46
0.0000798601498432
 79
     2
 49
7.399774995313283
 49
-4560.119085052519
 53
83.25300000000003
 43
12371.6246682894
 44
-2007.657608642499
 45
10.95204383447483
 46
0.0000798601498432
 79
     2
 49
7.399774995313283
 49
-4560.119085052519
 53
83.25300000000003
 43
12371.6246682894
 44
-2044.534707244567
 45
10.95204383447483
 46
0.0000798601498432
 79
     2
 49
7.399774995313283
 49
-4560.119085052519
 53
83.25300000000003
 43
12371.6246682894
 44
-2081.411805846638
 45
10.95204383447483
 46
0.0000798601498432
 79
     2
 49
7.399774995313283
 49
-4560.119085052519
 53
83.25300000000003
 43
12371.6246682894
 44
-2118.288904448714
 45
10.95204383447483
 46
0.0000798601498432
 79
     2
 49
7.399774995313283
 49
-4560.119085052519
 53
83.25300000000003
 43
12371.6246682894
 44
-2155.166003050782
 45
10.95204383447483
 46
0.0000798601498432
 79
     2
 49
7.399774995313283
 49
-4560.119085052519
 53
83.25300000000003
 43
12371.6246682894
 44
-2192.043101652854
 45
10.95204383447483
 46
0.0000798601498432
 79
     2
 49
7.399774995313283
 49
-4560.119085052519
 53
83.25300000000003
 43
12371.6246682894
 44
-2228.920200254925
 45
10.95204383447483
 46
0.0000798601498432
 79
     2
 49
7.399774995313283
 49
-4560.119085052519
 53
83.25300000000003
 43
12371.6246682894
 44
-2265.797298856997
 45
10.95204383447483
 46
0.0000798601498432
 79
     2
 49
7.399774995313283
 49
-4560.119085052519
 53
83.25300000000003
 43
12371.6246682894
 44
-2302.674397459069
 45
10.95204383447483
 46
0.0000798601498432
 79
     2
 49
7.399774995313283
 49
-4560.119085052519
 53
83.25300000000003
 43
12371.6246682894
 44
-2339.551496061141
 45
10.95204383447483
 46
0.0000798601498432
 79
     2
 49
7.399774995313283
 49
-4560.119085052519
 53
83.25300000000003
 43
12371.6246682894
 44
-2376.428594663213
 45
10.95204383447483
 46
0.0000798601498432
 79
     2
 49
7.399774995313283
 49
-4560.119085052519
 53
83.25300000000003
 43
12371.6246682894
 44
-2413.305693265284
 45
10.95204383447483
 46
0.0000798601498432
 79
     2
 49
7.399774995313283
 49
-4560.119085052519
 53
83.25300000000003
 43
12371.6246682894
 44
-2450.18279186736
 45
10.95204383447483
 46
0.0000798601498432
 79
     2
 49
7.399774995313283
 49
-4560.119085052519
 53
83.25300000000003
 43
12371.6246682894
 44
-2487.059890469428
 45
10.95204383447483
 46
0.0000798601498432
 79
     2
 49
7.399774995313283
 49
-4560.119085052519
 53
83.25300000000003
 43
12371.6246682894
 44
-2523.9369890715
 45
10.95204383447483
 46
0.0000798601498432
 79
     2
 49
7.399774995313283
 49
-4560.119085052519
 53
83.25300000000003
 43
12371.6246682894
 44
-2560.814087673572
 45
10.95204383447483
 46
0.0000798601498432
 79
     2
 49
7.399774995313283
 49
-4560.119085052519
 53
83.25300000000003
 43
12371.6246682894
 44
-2597.691186275643
 45
10.95204383447483
 46
0.0000798601498432
 79
     2
 49
7.399774995313283
 49
-4560.119085052519
 53
83.25300000000003
 43
12371.6246682894
 44
-2634.568284877715
 45
10.95204383447483
 46
0.0000798601498432
 79
     2
 49
7.399774995313283
 49
-4560.119085052519
 53
83.25300000000003
 43
12371.6246682894
 44
-2671.445383479787
 45
10.95204383447483
 46
0.0000798601498432
 79
     2
 49
7.399774995313283
 49
-4560.119085052519
 53
83.25300000000003
 43
12371.6246682894
 44
-2708.322482081855
 45
10.95204383447483
 46
0.0000798601498432
 79
     2
 49
7.399774995313283
 49
-4560.119085052519
 53
83.25300000000003
 43
12371.6246682894
 44
-2745.199580683927
 45
10.95204383447483
 46
0.0000798601498432
 79
     2
 49
7.399774995313283
 49
-4560.119085052519
 53
83.25300000000003
 43
12371.6246682894
 44
-2782.076679286002
 45
10.95204383447483
 46
0.0000798601498432
 79
     2
 49
7.399774995313283
 49
-4560.119085052519
 53
83.25300000000003
 43
12371.6246682894
 44
-2818.953777888071
 45
10.95204383447483
 46
0.0000798601498432
 79
     2
 49
7.399774995313283
 49
-4560.119085052519
 53
83.25300000000003
 43
12371.6246682894
 44
-2855.830876490142
 45
10.95204383447483
 46
0.0000798601498432
 79
     2
 49
7.399774995313283
 49
-4560.119085052519
 53
83.25300000000003
 43
12371.6246682894
 44
-2892.707975092214
 45
10.95204383447483
 46
0.0000798601498432
 79
     2
 49
7.399774995313283
 49
-4560.119085052519
 53
83.25300000000003
 43
12371.6246682894
 44
-2929.585073694286
 45
10.95204383447483
 46
0.0000798601498432
 79
     2
 49
7.399774995313283
 49
-4560.119085052519
 53
74.89100000000004
 43
12370.02121926254
 44
1565.909272582237
 45
10.95202665113163
 46
-0.000003043705463
 79
     2
 49
3.63896653076602
 49
-416.5337124354707
 53
74.89100000000004
 43
12370.02121926254
 44
1529.032173980162
 45
10.95202665113163
 46
-0.000003043705463
 79
     2
 49
3.63896653076602
 49
-416.5337124354707
 53
74.89100000000004
 43
12370.02121926254
 44
1492.155075378094
 45
10.95202665113163
 46
-0.000003043705463
 79
     2
 49
3.63896653076602
 49
-416.5337124354707
 53
74.89100000000004
 43
12370.02121926254
 44
1455.277976776018
 45
10.95202665113163
 46
-0.000003043705463
 79
     2
 49
3.63896653076602
 49
-416.5337124354707
 53
74.89100000000004
 43
12370.02121926254
 44
1418.400878173946
 45
10.95202665113163
 46
-0.000003043705463
 79
     2
 49
3.63896653076602
 49
-416.5337124354707
 53
74.89100000000004
 43
12370.02121926254
 44
1381.523779571875
 45
10.95202665113163
 46
-0.000003043705463
 79
     2
 49
3.63896653076602
 49
-416.5337124354707
 53
74.89100000000004
 43
12370.02121926254
 44
1344.646680969806
 45
10.95202665113163
 46
-0.000003043705463
 79
     2
 49
3.63896653076602
 49
-416.5337124354707
 53
74.89100000000004
 43
12370.02121926254
 44
1307.769582367731
 45
10.95202665113163
 46
-0.000003043705463
 79
     2
 49
3.63896653076602
 49
-416.5337124354707
 53
74.89100000000004
 43
12370.02121926254
 44
1270.893467154961
 45
10.95202665113163
 46
-0.000003043705463
 79
     2
 49
3.63896653076602
 49
-416.5337124354707
 53
74.89100000000004
 43
12370.02121926254
 44
1234.016368552886
 45
10.95202665113163
 46
-0.000003043705463
 79
     2
 49
3.63896653076602
 49
-416.5337124354707
 53
74.89100000000004
 43
12370.02121926254
 44
1197.139269950814
 45
10.95202665113163
 46
-0.000003043705463
 79
     2
 49
3.63896653076602
 49
-416.5337124354707
 53
67.06200000000002
 43
12372.49572174821
 44
1576.77110237395
 45
10.95204222691618
 46
0.0000810236171289
 79
     2
 49
8.386475035331908
 49
-1593.356600854788
 53
67.06200000000002
 43
12372.49572174821
 44
1539.894036551526
 45
10.95204222691618
 46
0.0000810236171289
 79
     2
 49
8.386475035331908
 49
-1593.356600854788
 53
67.06200000000002
 43
12372.49572174821
 44
1503.016937949454
 45
10.95204222691618
 46
0.0000810236171289
 79
     2
 49
8.386475035331908
 49
-1593.356600854788
 53
67.06200000000002
 43
12372.49572174821
 44
1466.139839347382
 45
10.95204222691618
 46
0.0000810236171289
 79
     2
 49
8.386475035331908
 49
-1593.356600854788
 53
67.06200000000002
 43
12372.49572174821
 44
1429.262740745307
 45
10.95204222691618
 46
0.0000810236171289
 79
     2
 49
8.386475035331908
 49
-1593.356600854788
 53
67.06200000000002
 43
12372.49572174821
 44
1392.385642143239
 45
10.95204222691618
 46
0.0000810236171289
 79
     2
 49
8.386475035331908
 49
-1593.356600854788
 53
67.06200000000002
 43
12372.49572174821
 44
1355.508543541167
 45
10.95204222691618
 46
0.0000810236171289
 79
     2
 49
8.386475035331908
 49
-1593.356600854788
 53
67.06200000000002
 43
12372.49572174821
 44
1318.631444939096
 45
10.95204222691618
 46
0.0000810236171289
 79
     2
 49
8.386475035331908
 49
-1593.356600854788
 53
67.06200000000002
 43
12372.49572174821
 44
1281.754346337027
 45
10.95204222691618
 46
0.0000810236171289
 79
     2
 49
8.386475035331908
 49
-1593.356600854788
 53
67.06200000000002
 43
12372.49572174821
 44
1244.876264345654
 45
10.95204222691618
 46
0.0000810236171289
 79
     2
 49
8.386475035331908
 49
-1593.356600854788
 53
67.06200000000002
 43
12372.49572174821
 44
1207.999165743586
 45
10.95204222691618
 46
0.0000810236171289
 79
     2
 49
8.386475035331908
 49
-1593.356600854788
 53
67.06200000000002
 43
12372.49572174821
 44
1171.12206714151
 45
10.95204222691618
 46
0.0000810236171289
 79
     2
 49
8.386475035331908
 49
-1593.356600854788
 53
67.06200000000002
 43
12372.49572174821
 44
1134.244968539442
 45
10.95204222691618
 46
0.0000810236171289
 79
     2
 49
8.386475035331908
 49
-1593.356600854788
 53
67.06200000000002
 43
12372.49572174821
 44
1097.367869937374
 45
10.95204222691618
 46
0.0000810236171289
 79
     2
 49
8.386475035331908
 49
-1593.356600854788
 53
67.06200000000002
 43
12372.49572174821
 44
1060.490771335298
 45
10.95204222691618
 46
0.0000810236171289
 79
     2
 49
8.386475035331908
 49
-1593.356600854788
 53
67.06200000000002
 43
12372.49572174821
 44
1023.61367273323
 45
10.95204222691618
 46
0.0000810236171289
 79
     2
 49
8.386475035331908
 49
-1593.356600854788
 53
67.06200000000002
 43
12372.49572174821
 44
986.736574131155
 45
10.95204222691618
 46
0.0000810236171289
 79
     2
 49
8.386475035331908
 49
-1593.356600854788
 53
67.06200000000002
 43
12372.49572174821
 44
949.8594755290795
 45
10.95204222691618
 46
0.0000810236171289
 79
     2
 49
8.386475035331908
 49
-1593.356600854788
 53
67.06200000000002
 43
12372.49572174821
 44
912.9823769270116
 45
10.95204222691618
 46
0.0000810236171289
 79
     2
 49
8.386475035331908
 49
-1593.356600854788
 53
67.06200000000002
 43
12372.49572174821
 44
876.1052783249434
 45
10.95204222691618
 46
0.0000810236171289
 79
     2
 49
8.386475035331908
 49
-1593.356600854788
 53
67.06200000000002
 43
12372.49572174821
 44
839.228179722868
 45
10.95204222691618
 46
0.0000810236171289
 79
     2
 49
8.386475035331908
 49
-1593.356600854788
 53
67.06200000000002
 43
12372.49572174821
 44
802.3510811207961
 45
10.95204222691618
 46
0.0000810236171289
 79
     2
 49
8.386475035331908
 49
-1593.356600854788
 53
67.06200000000002
 43
12372.49572174821
 44
765.4739825187244
 45
10.95204222691618
 46
0.0000810236171289
 79
     2
 49
8.386475035331908
 49
-1593.356600854788
 53
67.06200000000002
 43
12372.49572174821
 44
728.5968839166526
 45
10.95204222691618
 46
0.0000810236171289
 79
     2
 49
8.386475035331908
 49
-1593.356600854788
 53
67.06200000000002
 43
12372.49572174821
 44
691.7197853145844
 45
10.95204222691618
 46
0.0000810236171289
 79
     2
 49
8.386475035331908
 49
-1593.356600854788
 53
67.06200000000002
 43
12372.49572174821
 44
654.8426867125126
 45
10.95204222691618
 46
0.0000810236171289
 79
     2
 49
8.386475035331908
 49
-1593.356600854788
 53
67.06200000000002
 43
12372.49572174821
 44
617.9655881104372
 45
10.95204222691618
 46
0.0000810236171289
 79
     2
 49
8.386475035331908
 49
-1593.356600854788
 53
67.06200000000002
 43
12372.49572174821
 44
581.0884895083691
 45
10.95204222691618
 46
0.0000810236171289
 79
     2
 49
8.386475035331908
 49
-1593.356600854788
 53
67.06200000000002
 43
12372.49572174821
 44
544.2113909062973
 45
10.95204222691618
 46
0.0000810236171289
 79
     2
 49
8.386475035331908
 49
-1593.356600854788
 53
67.06200000000002
 43
12372.49572174821
 44
507.3342923042255
 45
10.95204222691618
 46
0.0000810236171289
 79
     2
 49
8.386475035331908
 49
-1593.356600854788
 53
67.06200000000002
 43
12372.49572174821
 44
470.45719370215
 45
10.95204222691618
 46
0.0000810236171289
 79
     2
 49
8.386475035331908
 49
-1593.356600854788
 53
67.06200000000002
 43
12372.49572174821
 44
433.5800951000819
 45
10.95204222691618
 46
0.0000810236171289
 79
     2
 49
8.386475035331908
 49
-1593.356600854788
 53
67.06200000000002
 43
12372.49572174821
 44
396.7029964980102
 45
10.95204222691618
 46
0.0000810236171289
 79
     2
 49
8.386475035331908
 49
-1593.356600854788
 53
67.06200000000002
 43
12372.49572174821
 44
359.8258978959384
 45
10.95204222691618
 46
0.0000810236171289
 79
     2
 49
8.386475035331908
 49
-1593.356600854788
 53
67.06200000000002
 43
12372.49572174821
 44
322.9487992938666
 45
10.95204222691618
 46
0.0000810236171289
 79
     2
 49
8.386475035331908
 49
-1593.356600854788
 53
67.06200000000002
 43
12372.49572174821
 44
286.0717006917948
 45
10.95204222691618
 46
0.0000810236171289
 79
     2
 49
8.386475035331908
 49
-1593.356600854788
 53
67.06200000000002
 43
12372.49572174821
 44
249.1946020897221
 45
10.95204222691618
 46
0.0000810236171289
 79
     2
 49
8.386475035331908
 49
-1593.356600854788
 53
67.06200000000002
 43
12372.49572174821
 44
212.317503487654
 45
10.95204222691618
 46
0.0000810236171289
 79
     2
 49
8.386475035331908
 49
-1593.356600854788
 53
67.06200000000002
 43
12372.49572174821
 44
175.4404048855822
 45
10.95204222691618
 46
0.0000810236171289
 79
     2
 49
8.386475035331908
 49
-1593.356600854788
 53
67.06200000000002
 43
12372.49572174821
 44
138.5633062835068
 45
10.95204222691618
 46
0.0000810236171289
 79
     2
 49
8.386475035331908
 49
-1593.356600854788
 53
52.43499999999998
 43
12365.96743781992
 44
1592.508838532663
 45
10.95203172552474
 46
-0.000054871588512
 79
     2
 49
4.503300162712174
 49
-1809.889024393906
 53
52.43499999999998
 43
12365.96743781992
 44
1555.631871049165
 45
10.95203172552474
 46
-0.000054871588512
 79
     2
 49
4.503300162712174
 49
-1809.889024393906
 53
52.43499999999998
 43
12365.96743781992
 44
1518.754772447089
 45
10.95203172552474
 46
-0.000054871588512
 79
     2
 49
4.503300162712174
 49
-1809.889024393906
 53
52.43499999999998
 43
12365.96743781992
 44
1481.877673845014
 45
10.95203172552474
 46
-0.000054871588512
 79
     2
 49
4.503300162712174
 49
-1809.889024393906
 53
52.43499999999998
 43
12365.96743781992
 44
1445.000575242946
 45
10.95203172552474
 46
-0.000054871588512
 79
     2
 49
4.503300162712174
 49
-1809.889024393906
 53
52.43499999999998
 43
12365.96743781992
 44
1408.123476640878
 45
10.95203172552474
 46
-0.000054871588512
 79
     2
 49
4.503300162712174
 49
-1809.889024393906
 53
52.43499999999998
 43
12365.96743781992
 44
1371.246378038806
 45
10.95203172552474
 46
-0.000054871588512
 79
     2
 49
4.503300162712174
 49
-1809.889024393906
 53
52.43499999999998
 43
12365.96743781992
 44
1334.369279436734
 45
10.95203172552474
 46
-0.000054871588512
 79
     2
 49
4.503300162712174
 49
-1809.889024393906
 53
52.43499999999998
 43
12365.96743781992
 44
1297.492180834659
 45
10.95203172552474
 46
-0.000054871588512
 79
     2
 49
4.503300162712174
 49
-1809.889024393906
 53
52.43499999999998
 43
12365.96743781992
 44
1260.613771046857
 45
10.95203172552474
 46
-0.000054871588512
 79
     2
 49
4.503300162712174
 49
-1809.889024393906
 53
52.43499999999998
 43
12365.96743781992
 44
1223.736672444789
 45
10.95203172552474
 46
-0.000054871588512
 79
     2
 49
4.503300162712174
 49
-1809.889024393906
 53
52.43499999999998
 43
12365.96743781992
 44
1186.859573842721
 45
10.95203172552474
 46
-0.000054871588512
 79
     2
 49
4.503300162712174
 49
-1809.889024393906
 53
52.43499999999998
 43
12365.96743781992
 44
1149.982475240646
 45
10.95203172552474
 46
-0.000054871588512
 79
     2
 49
4.503300162712174
 49
-1809.889024393906
 53
52.43499999999998
 43
12365.96743781992
 44
1113.10537663857
 45
10.95203172552474
 46
-0.000054871588512
 79
     2
 49
4.503300162712174
 49
-1809.889024393906
 53
52.43499999999998
 43
12365.96743781992
 44
1076.228278036502
 45
10.95203172552474
 46
-0.000054871588512
 79
     2
 49
4.503300162712174
 49
-1809.889024393906
 53
52.43499999999998
 43
12365.96743781992
 44
1039.351179434434
 45
10.95203172552474
 46
-0.000054871588512
 79
     2
 49
4.503300162712174
 49
-1809.889024393906
 53
52.43499999999998
 43
12365.96743781992
 44
1002.474080832358
 45
10.95203172552474
 46
-0.000054871588512
 79
     2
 49
4.503300162712174
 49
-1809.889024393906
 53
52.43499999999998
 43
12365.96743781992
 44
965.5969822302905
 45
10.95203172552474
 46
-0.000054871588512
 79
     2
 49
4.503300162712174
 49
-1809.889024393906
 53
52.43499999999998
 43
12365.96743781992
 44
928.7198836282151
 45
10.95203172552474
 46
-0.000054871588512
 79
     2
 49
4.503300162712174
 49
-1809.889024393906
 53
52.43499999999998
 43
12365.96743781992
 44
891.8427850261469
 45
10.95203172552474
 46
-0.000054871588512
 79
     2
 49
4.503300162712174
 49
-1809.889024393906
 53
52.43499999999998
 43
12365.96743781992
 44
854.9656864240787
 45
10.95203172552474
 46
-0.000054871588512
 79
     2
 49
4.503300162712174
 49
-1809.889024393906
 53
52.43499999999998
 43
12365.96743781992
 44
818.0885878220033
 45
10.95203172552474
 46
-0.000054871588512
 79
     2
 49
4.503300162712174
 49
-1809.889024393906
 53
52.43499999999998
 43
12365.96743781992
 44
781.2114892199279
 45
10.95203172552474
 46
-0.000054871588512
 79
     2
 49
4.503300162712174
 49
-1809.889024393906
 53
52.43499999999998
 43
12365.96743781992
 44
744.3343906178597
 45
10.95203172552474
 46
-0.000054871588512
 79
     2
 49
4.503300162712174
 49
-1809.889024393906
 53
52.43499999999998
 43
12365.96743781992
 44
707.4572920157843
 45
10.95203172552474
 46
-0.000054871588512
 79
     2
 49
4.503300162712174
 49
-1809.889024393906
 53
52.43499999999998
 43
12365.96743781992
 44
670.5801934137162
 45
10.95203172552474
 46
-0.000054871588512
 79
     2
 49
4.503300162712174
 49
-1809.889024393906
 53
52.43499999999998
 43
12365.96743781992
 44
633.7030948116407
 45
10.95203172552474
 46
-0.000054871588512
 79
     2
 49
4.503300162712174
 49
-1809.889024393906
 53
52.43499999999998
 43
12365.96743781992
 44
596.8259962095726
 45
10.95203172552474
 46
-0.000054871588512
 79
     2
 49
4.503300162712174
 49
-1809.889024393906
 53
52.43499999999998
 43
12365.96743781992
 44
559.9488976075008
 45
10.95203172552474
 46
-0.000054871588512
 79
     2
 49
4.503300162712174
 49
-1809.889024393906
 53
52.43499999999998
 43
12365.96743781992
 44
523.071799005429
 45
10.95203172552474
 46
-0.000054871588512
 79
     2
 49
4.503300162712174
 49
-1809.889024393906
 53
52.43499999999998
 43
12365.96743781992
 44
486.1947004033573
 45
10.95203172552474
 46
-0.000054871588512
 79
     2
 49
4.503300162712174
 49
-1809.889024393906
 53
52.43499999999998
 43
12365.96743781992
 44
449.3176018012855
 45
10.95203172552474
 46
-0.000054871588512
 79
     2
 49
4.503300162712174
 49
-1809.889024393906
 53
52.43499999999998
 43
12365.96743781992
 44
412.4405031992173
 45
10.95203172552474
 46
-0.000054871588512
 79
     2
 49
4.503300162712174
 49
-1809.889024393906
 53
52.43499999999998
 43
12365.96743781992
 44
375.5634045971419
 45
10.95203172552474
 46
-0.000054871588512
 79
     2
 49
4.503300162712174
 49
-1809.889024393906
 53
52.43499999999998
 43
12365.96743781992
 44
338.6863059950738
 45
10.95203172552474
 46
-0.000054871588512
 79
     2
 49
4.503300162712174
 49
-1809.889024393906
 53
52.43499999999998
 43
12365.96743781992
 44
301.8092073929984
 45
10.95203172552474
 46
-0.000054871588512
 79
     2
 49
4.503300162712174
 49
-1809.889024393906
 53
52.43499999999998
 43
12365.96743781992
 44
264.9321087909266
 45
10.95203172552474
 46
-0.000054871588512
 79
     2
 49
4.503300162712174
 49
-1809.889024393906
 53
52.43499999999998
 43
12365.96743781992
 44
228.0550101888539
 45
10.95203172552474
 46
-0.000054871588512
 79
     2
 49
4.503300162712174
 49
-1809.889024393906
 53
52.43499999999998
 43
12365.96743781992
 44
191.1779115867857
 45
10.95203172552474
 46
-0.000054871588512
 79
     2
 49
4.503300162712174
 49
-1809.889024393906
 53
25.04599999999999
 43
12365.8208685623
 44
1563.946755343742
 45
10.95203652759968
 46
0.0000881814618674
 79
     2
 49
4.636287175181985
 49
-2957.10206110897
 53
25.04599999999999
 43
12365.8208685623
 44
1527.069656741671
 45
10.95203652759968
 46
0.0000881814618674
 79
     2
 49
4.636287175181985
 49
-2957.10206110897
 53
25.04599999999999
 43
12365.8208685623
 44
1490.192558139595
 45
10.95203652759968
 46
0.0000881814618674
 79
     2
 49
4.636287175181985
 49
-2957.10206110897
 53
25.04599999999999
 43
12365.8208685623
 44
1453.315459537527
 45
10.95203652759968
 46
0.0000881814618674
 79
     2
 49
4.636287175181985
 49
-2957.10206110897
 53
25.04599999999999
 43
12365.8208685623
 44
1416.438360935452
 45
10.95203652759968
 46
0.0000881814618674
 79
     2
 49
4.636287175181985
 49
-2957.10206110897
 53
25.04599999999999
 43
12365.8208685623
 44
1379.561262333383
 45
10.95203652759968
 46
0.0000881814618674
 79
     2
 49
4.636287175181985
 49
-2957.10206110897
 53
25.04599999999999
 43
12365.8208685623
 44
1342.684163731312
 45
10.95203652759968
 46
0.0000881814618674
 79
     2
 49
4.636287175181985
 49
-2957.10206110897
 53
25.04599999999999
 43
12365.8208685623
 44
1305.80706512924
 45
10.95203652759968
 46
0.0000881814618674
 79
     2
 49
4.636287175181985
 49
-2957.10206110897
 53
25.04599999999999
 43
12365.8208685623
 44
1268.929966527165
 45
10.95203652759968
 46
0.0000881814618674
 79
     2
 49
4.636287175181985
 49
-2957.10206110897
 53
25.04599999999999
 43
12365.8208685623
 44
1232.052867925096
 45
10.95203652759968
 46
0.0000881814618674
 79
     2
 49
4.636287175181985
 49
-2957.10206110897
 53
25.04599999999999
 43
12365.8208685623
 44
1195.175769323021
 45
10.95203652759968
 46
0.0000881814618674
 79
     2
 49
4.636287175181985
 49
-2957.10206110897
 53
25.04599999999999
 43
12365.8208685623
 44
1158.298670720953
 45
10.95203652759968
 46
0.0000881814618674
 79
     2
 49
4.636287175181985
 49
-2957.10206110897
 53
25.04599999999999
 43
12365.8208685623
 44
1121.421572118885
 45
10.95203652759968
 46
0.0000881814618674
 79
     2
 49
4.636287175181985
 49
-2957.10206110897
 53
25.04599999999999
 43
12365.8208685623
 44
1084.544473516809
 45
10.95203652759968
 46
0.0000881814618674
 79
     2
 49
4.636287175181985
 49
-2957.10206110897
 53
25.04599999999999
 43
12365.8208685623
 44
1047.667374914741
 45
10.95203652759968
 46
0.0000881814618674
 79
     2
 49
4.636287175181985
 49
-2957.10206110897
 53
25.04599999999999
 43
12365.8208685623
 44
1010.790276312666
 45
10.95203652759968
 46
0.0000881814618674
 79
     2
 49
4.636287175181985
 49
-2957.10206110897
 53
25.04599999999999
 43
12365.8208685623
 44
973.9131777105903
 45
10.95203652759968
 46
0.0000881814618674
 79
     2
 49
4.636287175181985
 49
-2957.10206110897
 53
25.04599999999999
 43
12365.8208685623
 44
937.0360791085222
 45
10.95203652759968
 46
0.0000881814618674
 79
     2
 49
4.636287175181985
 49
-2957.10206110897
 53
25.04599999999999
 43
12365.8208685623
 44
900.158980506454
 45
10.95203652759968
 46
0.0000881814618674
 79
     2
 49
4.636287175181985
 49
-2957.10206110897
 53
25.04599999999999
 43
12365.8208685623
 44
863.2818819043787
 45
10.95203652759968
 46
0.0000881814618674
 79
     2
 49
4.636287175181985
 49
-2957.10206110897
 53
25.04599999999999
 43
12365.8208685623
 44
826.4047833023106
 45
10.95203652759968
 46
0.0000881814618674
 79
     2
 49
4.636287175181985
 49
-2957.10206110897
 53
25.04599999999999
 43
12365.8208685623
 44
789.527684700235
 45
10.95203652759968
 46
0.0000881814618674
 79
     2
 49
4.636287175181985
 49
-2957.10206110897
 53
25.04599999999999
 43
12365.8208685623
 44
752.6505860981633
 45
10.95203652759968
 46
0.0000881814618674
 79
     2
 49
4.636287175181985
 49
-2957.10206110897
 53
25.04599999999999
 43
12365.8208685623
 44
715.7734874960952
 45
10.95203652759968
 46
0.0000881814618674
 79
     2
 49
4.636287175181985
 49
-2957.10206110897
 53
25.04599999999999
 43
12365.8208685623
 44
678.8963888940234
 45
10.95203652759968
 46
0.0000881814618674
 79
     2
 49
4.636287175181985
 49
-2957.10206110897
 53
25.04599999999999
 43
12365.8208685623
 44
642.0192902919479
 45
10.95203652759968
 46
0.0000881814618674
 79
     2
 49
4.636287175181985
 49
-2957.10206110897
 53
25.04599999999999
 43
12365.8208685623
 44
605.1421916898798
 45
10.95203652759968
 46
0.0000881814618674
 79
     2
 49
4.636287175181985
 49
-2957.10206110897
 53
25.04599999999999
 43
12365.8208685623
 44
568.2650930878081
 45
10.95203652759968
 46
0.0000881814618674
 79
     2
 49
4.636287175181985
 49
-2957.10206110897
 53
25.04599999999999
 43
12365.8208685623
 44
531.3879944857363
 45
10.95203652759968
 46
0.0000881814618674
 79
     2
 49
4.636287175181985
 49
-2957.10206110897
 53
25.04599999999999
 43
12365.8208685623
 44
494.5108958836608
 45
10.95203652759968
 46
0.0000881814618674
 79
     2
 49
4.636287175181985
 49
-2957.10206110897
 53
25.04599999999999
 43
12365.8208685623
 44
457.6337972815927
 45
10.95203652759968
 46
0.0000881814618674
 79
     2
 49
4.636287175181985
 49
-2957.10206110897
 53
25.04599999999999
 43
12365.8208685623
 44
420.7566986795209
 45
10.95203652759968
 46
0.0000881814618674
 79
     2
 49
4.636287175181985
 49
-2957.10206110897
 53
25.04599999999999
 43
12365.8208685623
 44
383.8796000774491
 45
10.95203652759968
 46
0.0000881814618674
 79
     2
 49
4.636287175181985
 49
-2957.10206110897
 53
25.04599999999999
 43
12365.8208685623
 44
347.0025014753773
 45
10.95203652759968
 46
0.0000881814618674
 79
     2
 49
4.636287175181985
 49
-2957.10206110897
 53
14.07599999999998
 43
12368.71294436678
 44
1596.07841055877
 45
10.95202660951167
 46
-0.0000805056871684
 79
     2
 49
2.663936043727242
 49
-1058.697838380728
 53
14.07599999999998
 43
12368.71294436678
 44
1559.20124639741
 45
10.95202660951167
 46
-0.0000805056871684
 79
     2
 49
2.663936043727242
 49
-1058.697838380728
 53
14.07599999999998
 43
12368.71294436678
 44
1522.324147795338
 45
10.95202660951167
 46
-0.0000805056871684
 79
     2
 49
2.663936043727242
 49
-1058.697838380728
 53
14.07599999999998
 43
12368.71294436678
 44
1485.44704919327
 45
10.95202660951167
 46
-0.0000805056871684
 79
     2
 49
2.663936043727242
 49
-1058.697838380728
 53
14.07599999999998
 43
12368.71294436678
 44
1448.569950591194
 45
10.95202660951167
 46
-0.0000805056871684
 79
     2
 49
2.663936043727242
 49
-1058.697838380728
 53
14.07599999999998
 43
12368.71294436678
 44
1411.692851989119
 45
10.95202660951167
 46
-0.0000805056871684
 79
     2
 49
2.663936043727242
 49
-1058.697838380728
 53
14.07599999999998
 43
12368.71294436678
 44
1374.815753387051
 45
10.95202660951167
 46
-0.0000805056871684
 79
     2
 49
2.663936043727242
 49
-1058.697838380728
 98
        1
 10
1890.55539858144
 20
433.2137921560606
  0
POLYLINE
  5
777C
330
67
100
AcDbEntity
  8
F_01 sichtbar
370
    13
100
AcDb2dPolyline
 66
     1
 10
0.0
 20
0.0
 30
0.0
  0
VERTEX
  5
777D
330
777C
100
AcDbEntity
  8
F_01 sichtbar
370
    13
100
AcDbVertex
100
AcDb2dVertex
 10
314.8081161323644
 20
320.4956774907041
 30
0.0
  0
VERTEX
  5
777E
330
777C
100
AcDbEntity
  8
F_01 sichtbar
370
    13
100
AcDbVertex
100
AcDb2dVertex
 10
476.7517686961873
 20
320.4956774907041
 30
0.0
  0
VERTEX
  5
777F
330
777C
100
AcDbEntity
  8
F_01 sichtbar
370
    13
100
AcDbVertex
100
AcDb2dVertex
 10
476.7517686961873
 20
308.4956774907005
 30
0.0
  0
VERTEX
  5
7780
330
777C
100
AcDbEntity
  8
F_01 sichtbar
370
    13
100
AcDbVertex
100
AcDb2dVertex
 10
314.8081161323644
 20
308.4956774907005
 30
0.0
  0
SEQEND
  5
7781
330
777C
100
AcDbEntity
  8
F_01 sichtbar
370
    13
  0
POLYLINE
  5
7782
330
67
100
AcDbEntity
  8
F_01 sichtbar
370
    13
100
AcDb2dPolyline
 66
     1
 10
0.0
 20
0.0
 30
0.0
  0
VERTEX
  5
7783
330
7782
100
AcDbEntity
  8
F_01 sichtbar
370
    13
100
AcDbVertex
100
AcDb2dVertex
 10
314.8081161323644
 20
323.4956774907041
 30
0.0
  0
VERTEX
  5
7784
330
7782
100
AcDbEntity
  8
F_01 sichtbar
370
    13
100
AcDbVertex
100
AcDb2dVertex
 10
476.7517686961873
 20
323.4956774907041
 30
0.0
  0
VERTEX
  5
7785
330
7782
100
AcDbEntity
  8
F_01 sichtbar
370
    13
100
AcDbVertex
100
AcDb2dVertex
 10
476.7517686961873
 20
513.4956776484032
 30
0.0
  0
VERTEX
  5
7786
330
7782
100
AcDbEntity
  8
F_01 sichtbar
370
    13
100
AcDbVertex
100
AcDb2dVertex
 10
314.8081161323644
 20
513.4956776484032
 30
0.0
  0
SEQEND
  5
7787
330
7782
100
AcDbEntity
  8
F_01 sichtbar
370
    13
  0
POLYLINE
  5
7788
330
67
100
AcDbEntity
  8
F_01 sichtbar
370
    13
100
AcDb2dPolyline
 66
     1
 10
0.0
 20
0.0
 30
0.0
  0
VERTEX
  5
7789
330
7788
100
AcDbEntity
  8
F_01 sichtbar
370
    13
100
AcDbVertex
100
AcDb2dVertex
 10
314.8081161323644
 20
516.4956776484031
 30
0.0
  0
VERTEX
  5
778A
330
7788
100
AcDbEntity
  8
F_01 sichtbar
370
    13
100
AcDbVertex
100
AcDb2dVertex
 10
476.7517686961946
 20
516.4956776484031
 30
0.0
  0
VERTEX
  5
778B
330
7788
100
AcDbEntity
  8
F_01 sichtbar
370
    13
100
AcDbVertex
100
AcDb2dVertex
 10
476.7517686962019
 20
636.4956776484032
 30
0.0
  0
VERTEX
  5
778C
330
7788
100
AcDbEntity
  8
F_01 sichtbar
370
    13
100
AcDbVertex
100
AcDb2dVertex
 10
314.8081161323644
 20
636.4956776484032
 30
0.0
  0
SEQEND
  5
778D
330
7788
100
AcDbEntity
  8
F_01 sichtbar
370
    13
  0
POLYLINE
  5
778E
330
67
100
AcDbEntity
  8
F_01 sichtbar
370
    13
100
AcDb2dPolyline
 66
     1
 10
0.0
 20
0.0
 30
0.0
  0
VERTEX
  5
778F
330
778E
100
AcDbEntity
  8
F_01 sichtbar
370
    13
100
AcDbVertex
100
AcDb2dVertex
 10
476.7517686961946
 20
546.4956776484032
 30
0.0
  0
VERTEX
  5
7790
330
778E
100
AcDbEntity
  8
F_01 sichtbar
370
    13
100
AcDbVertex
100
AcDb2dVertex
 10
314.8081161323644
 20
546.4956776484032
 30
0.0
  0
SEQEND
  5
7791
330
778E
100
AcDbEntity
  8
F_01 sichtbar
370
    13
  0
LINE
  5
7792
330
67
100
AcDbEntity
  8
F_01 sichtbar
370
    13
100
AcDbLine
 10
713.0941133387969
 20
342.9957139144172
 30
0.0
 11
515.2524709484423
 21
342.9957139144208
 31
0.0
  0
LINE
  5
7793
330
67
100
AcDbEntity
  8
F_02 unsichtbar
370
    13
100
AcDbLine
 10
476.7517686962019
 20
514.9956776484032
 30
0.0
 11
314.8081161323716
 21
514.9956776484032
 31
0.0
  0
LINE
  5
7794
330
67
100
AcDbEntity
  8
F_01 sichtbar
370
    13
100
AcDbLine
 10
505.2517551905839
 20
636.4956776402977
 30
0.0
 11
505.2517551905839
 21
346.4956801187327
 31
0.0
  0
LINE
  5
7795
330
67
100
AcDbEntity
  8
F_01 sichtbar
370
    13
100
AcDbLine
 10
483.2517551905839
 20
308.4956787521551
 30
0.0
 11
483.2517551905839
 21
636.495677521445
 31
0.0
  0
LINE
  5
7796
330
67
100
AcDbEntity
  8
F_02 unsichtbar
370
    13
100
AcDbLine
 10
476.7517686962019
 20
321.9956774907041
 30
0.0
 11
314.8081161323716
 21
321.9956774907041
 31
0.0
  0
LINE
  5
7797
330
67
100
AcDbEntity
  8
F_01 sichtbar
370
    13
100
AcDbLine
 10
496.2365709505611
 20
311.0068181205934
 30
0.0
 11
713.0941133387969
 21
311.0068181205897
 31
0.0
  0
LINE
  5
7798
330
67
100
AcDbEntity
  8
F_01 sichtbar
370
    13
100
AcDbLine
 10
554.2365709505538
 20
311.0068181205934
 30
0.0
 11
554.2365709505538
 21
342.9957139144208
 31
0.0
  0
POLYLINE
  5
7799
330
67
100
AcDbEntity
  8
F_31 Ansichtsfenster
370
    13
100
AcDb2dPolyline
 66
     1
 10
0.0
 20
0.0
 30
0.0
  0
VERTEX
  5
779A
330
7799
100
AcDbEntity
  8
F_31 Ansichtsfenster
370
    13
100
AcDbVertex
100
AcDb2dVertex
 10
314.8081161323644
 20
308.4956774907005
 30
0.0
  0
VERTEX
  5
779B
330
7799
100
AcDbEntity
  8
F_31 Ansichtsfenster
370
    13
100
AcDbVertex
100
AcDb2dVertex
 10
314.8081161323644
 20
636.4956776484032
 30
0.0
  0
SEQEND
  5
779C
330
7799
100
AcDbEntity
  8
F_31 Ansichtsfenster
370
    13
  0
LINE
  5
779D
330
67
100
AcDbEntity
  8
F_01 sichtbar
370
    13
100
AcDbLine
 10
506.7524709484496
 20
636.4956776484032
 30
0.0
 11
713.0941133387969
 21
636.4956776484032
 31
0.0
  0
HATCH
  5
779E
330
67
100
AcDbEntity
  8
F_01 sichtbar
370
    13
100
AcDbHatch
 10
0.0
 20
0.0
 30
0.0
210
0.0
220
0.0
230
1.0
  2
JIS_WOOD
 70
     0
 71
     0
 91
        1
 92
        1
 93
       10
 72
     1
 10
483.2517551905839
 20
636.495677521445
 11
505.2517551905839
 21
636.4956776402977
 72
     1
 10
505.2517551905839
 20
636.4956776402977
 11
505.2517410830914
 21
346.4956801187091
 72
     1
 10
505.2517410830914
 20
346.4956801187073
 11
502.7517441299714
 21
346.4956798559069
 72
     1
 10
502.7517441299714
 20
346.4956798559069
 11
502.7517550078846
 21
354.4956789098105
 72
     1
 10
502.7517550078846
 20
354.4956789098105
 11
498.7518182464336
 21
354.4956789094667
 72
     1
 10
498.7518182464336
 20
354.4956789094686
 11
498.7517441299714
 21
346.4956794354239
 72
     1
 10
498.7517441299714
 20
346.495679435422
 11
493.7517594609598
 21
346.4956787521533
 72
     1
 10
493.7517594609598
 20
346.4956787521551
 11
493.7517480656242
 21
308.4956787521569
 72
     1
 10
493.7517480656242
 20
308.4956787521551
 11
483.2517584515371
 21
308.4956778060641
 72
     1
 10
483.2517584515371
 20
308.4956778060659
 11
483.2517551905839
 21
636.495677521445
 97
        0
 75
     0
 76
     1
 52
315.0
 41
30.0
 77
     0
 78
     1
 53
0.0
 43
-23227.06916395606
 44
-14178.04503543127
 45
0.0000000000000071
 46
21.2132034
 79
     0
 98
        1
 10
-23227.06916395606
 20
-14178.04503543127
1001
ACAD
1010
0.0
1020
0.0
1030
0.0
  0
HATCH
  5
779F
330
67
100
AcDbEntity
  8
F_01 sichtbar
370
    13
100
AcDbHatch
 10
0.0
 20
0.0
 30
0.0
210
0.0
220
0.0
230
1.0
  2
JIS_WOOD
 70
     0
 71
     0
 91
        1
 92
        1
 93
        6
 72
     1
 10
554.2365709505538
 20
310.9957599234149
 11
554.2366356857164
 21
342.9957139144208
 72
     1
 10
554.2366356857164
 20
342.9957139144208
 11
515.2524709484423
 21
342.9957139144189
 72
     1
 10
515.2524709484423
 20
342.9957139144208
 11
515.2360069194255
 21
342.4957672088585
 72
     1
 10
515.2360069194255
 20
342.4957672088567
 11
497.8208183693713
 21
342.4957139144208
 72
     1
 10
497.8208183693713
 20
342.4957139144208
 11
496.2208183693801
 21
310.9957139144208
 72
     1
 10
496.2208183693801
 20
310.9957139144208
 11
554.2365709505538
 21
310.9957599234149
 97
        0
 75
     0
 76
     1
 52
0.0
 41
15.0
 77
     0
 78
     1
 53
45.0
 43
-32656.89952233136
 44
-14080.55271658654
 45
-7.499999987414763
 46
7.499999987414764
 79
     0
 98
        1
 10
560.6749030083592
 20
334.0188349427917
1001
ACAD
1010
0.0
1020
0.0
1030
0.0
  0
LWPOLYLINE
  5
77A0
330
67
100
AcDbEntity
  8
F_01 sichtbar
370
    13
100
AcDbPolyline
 90
       59
 70
     1
 43
0.0
 10
503.0699621358289
 20
342.3138779409128
 10
504.4158519272387
 20
340.9679884324687
 42
-2.295511712501342
 10
503.7688013486841
 20
340.6250894853911
 10
502.1206980713977
 20
342.2731924161744
 42
0.4142135623730925
 10
501.9792767151593
 20
342.2731924013096
 10
501.6017641282596
 20
341.8956797350402
 10
500.7517641282539
 20
341.8956796456841
 10
499.9017641282626
 20
341.8956795563317
 10
499.449481883581
 20
342.3479617059238
 42
-0.8501016268507996
 10
498.4646812182254
 20
342.2827622746045
 10
495.2517637498167
 20
345.4956790675169
 10
495.2517635921394
 20
346.9956790675169
 10
495.678540332301
 20
346.5689024170861
 42
0.198912367379658
 10
495.8553170352898
 20
346.4956791309632
 10
498.7187509428113
 20
346.4956794319733
 42
0.1316524975873961
 10
498.8437509392897
 20
346.5291730941681
 10
499.5267635997224
 20
346.9235107332643
 42
0.2679491924311224
 10
499.6517635769633
 20
347.1400170973502
 10
499.651763355614
 20
349.2456795300532
 42
0.4142135623730951
 10
499.4017633293333
 20
349.4956795037724
 10
498.4017633293333
 20
349.4956793986494
 42
-0.5773502691896217
 10
498.1852569389666
 20
349.8706793758902
 10
498.430630758703
 20
350.2956794016863
 10
499.4017632452377
 20
350.2956795037717
 42
0.4142135623730951
 10
499.651763218957
 20
350.5456795300525
 10
499.6517630402522
 20
352.2456795300532
 42
0.4142135623730951
 10
499.4017630139787
 20
352.4956795037724
 10
498.4017630139788
 20
352.4956793986494
 42
-0.577350269189623
 10
498.1852566236121
 20
352.8706793758902
 10
498.4306304433339
 20
353.2956794016864
 10
499.401762929876
 20
353.2956795037717
 42
0.4142135623730951
 10
499.6517629035952
 20
353.5456795300524
 10
499.6517628825749
 20
353.7456795300532
 42
-0.4142135623730951
 10
499.9017628562942
 20
353.9956795563339
 10
500.7517628562927
 20
353.9956796456863
 10
501.6017628562913
 20
353.9956797350387
 42
-0.4142135623730951
 10
501.851762882572
 20
353.7456797613195
 10
501.8517629035995
 20
353.5456797613187
 42
0.4142135623730951
 10
502.1017629298803
 20
353.2956797875995
 10
503.0728954164151
 20
353.2956798896848
 10
503.3182693255002
 20
352.8706799154788
 42
-0.5773502691896199
 10
503.1017630139758
 20
352.4956798927196
 10
502.1017630139758
 20
352.4956797876003
 42
0.4142135623730951
 10
501.8517630402566
 20
352.2456797613195
 10
501.8517632189541
 20
350.5456797613188
 42
0.4142135623730951
 10
502.1017632452348
 20
350.2956797875995
 10
503.0728957317842
 20
350.2956798896848
 10
503.3182696408621
 20
349.8706799154788
 42
-0.5773502691896196
 10
503.1017633293377
 20
349.4956798927197
 10
502.1017633293377
 20
349.4956797876002
 42
0.4142135623730951
 10
501.8517633556184
 20
349.2456797613195
 10
501.8517635769676
 20
347.1400173286165
 42
0.2679491924311216
 10
501.9767635997268
 20
346.9235109908114
 10
502.659776343069
 20
346.5291734953134
 42
0.1316524975873966
 10
502.7847763465906
 20
346.4956798593994
 10
505.6482102541122
 20
346.4956801604058
 42
0.198912367379658
 10
505.8249869417123
 20
346.5689034836942
 10
506.2517635921394
 20
346.9956802238521
 10
506.2517637498167
 20
345.4956802238521
  0
HATCH
  5
77A1
330
67
100
AcDbEntity
  8
F_01 sichtbar
370
    13
100
AcDbHatch
 10
0.0
 20
0.0
 30
0.0
210
0.0
220
0.0
230
1.0
  2
BATT_INSULATION
 70
     0
 71
     0
 91
        1
 92
        1
 93
        4
 72
     1
 10
476.7517686961946
 20
546.4956776484032
 11
476.7517686961946
 21
516.4956776484031
 72
     1
 10
476.7517686961946
 20
516.4956776484031
 11
314.8081161323644
 21
516.4956776484031
 72
     1
 10
314.8081161323644
 20
516.4956776484031
 11
314.8081161323644
 21
546.495677648405
 72
     1
 10
314.8081161323644
 20
546.4956776484068
 11
476.7517686961946
 21
546.495677648405
 97
        0
 75
     0
 76
     2
 52
180.0
 41
32.77964320184142
 77
     0
 78
   528
 53
0.000000000000007
 43
12131.94630215602
 44
1804.3238176798
 45
10.95203936981043
 46
-36.87709860207159
 79
     2
 49
0.0
 49
-10.95203936981043
 53
345.9236
 43
12126.47026608129
 44
1800.226362279569
 45
10.95202660980681
 46
0.000004046117522
 79
     2
 49
2.663936043727233
 49
-1058.697838380723
 53
345.9236
 43
12126.47026608129
 44
1763.349263677493
 45
10.95202660980681
 46
0.000004046117522
 79
     2
 49
2.663936043727233
 49
-1058.697838380723
 53
345.9236
 43
12126.47026608129
 44
1726.472165075425
 45
10.95202660980681
 46
0.000004046117522
 79
     2
 49
2.663936043727233
 49
-1058.697838380723
 53
345.9236
 43
12126.47026608129
 44
1689.59506647335
 45
10.95202660980681
 46
0.000004046117522
 79
     2
 49
2.663936043727233
 49
-1058.697838380723
 53
345.9236
 43
12126.47026608129
 44
1652.717967871282
 45
10.95202660980681
 46
0.000004046117522
 79
     2
 49
2.663936043727233
 49
-1058.697838380723
 53
345.9236
 43
12126.47026608129
 44
1615.840869269214
 45
10.95202660980681
 46
0.000004046117522
 79
     2
 49
2.663936043727233
 49
-1058.697838380723
 53
345.9236
 43
12126.47026608129
 44
1578.963770667138
 45
10.95202660980681
 46
0.000004046117522
 79
     2
 49
2.663936043727233
 49
-1058.697838380723
 53
334.9544
 43
12127.74595145577
 44
1769.409236316224
 45
10.9520365279484
 46
-0.0000117218229823
 79
     2
 49
4.636287175181991
 49
-2957.102061108974
 53
334.9544
 43
12127.74595145577
 44
1732.532137714148
 45
10.9520365279484
 46
-0.0000117218229823
 79
     2
 49
4.636287175181991
 49
-2957.102061108974
 53
334.9544
 43
12127.74595145577
 44
1695.65503911208
 45
10.9520365279484
 46
-0.0000117218229823
 79
     2
 49
4.636287175181991
 49
-2957.102061108974
 53
334.9544
 43
12127.74595145577
 44
1658.777940510004
 45
10.9520365279484
 46
-0.0000117218229823
 79
     2
 49
4.636287175181991
 49
-2957.102061108974
 53
334.9544
 43
12127.74595145577
 44
1621.900841907932
 45
10.9520365279484
 46
-0.0000117218229823
 79
     2
 49
4.636287175181991
 49
-2957.102061108974
 53
334.9544
 43
12127.74595145577
 44
1585.023743305861
 45
10.9520365279484
 46
-0.0000117218229823
 79
     2
 49
4.636287175181991
 49
-2957.102061108974
 53
334.9544
 43
12127.74595145577
 44
1548.146644703793
 45
10.9520365279484
 46
-0.0000117218229823
 79
     2
 49
4.636287175181991
 49
-2957.102061108974
 53
334.9544
 43
12127.74595145577
 44
1511.269546101717
 45
10.9520365279484
 46
-0.0000117218229823
 79
     2
 49
4.636287175181991
 49
-2957.102061108974
 53
334.9544
 43
12127.74595145577
 44
1474.393430888947
 45
10.9520365279484
 46
-0.0000117218229823
 79
     2
 49
4.636287175181991
 49
-2957.102061108974
 53
334.9544
 43
12127.74595145577
 44
1437.516332286872
 45
10.9520365279484
 46
-0.0000117218229823
 79
     2
 49
4.636287175181991
 49
-2957.102061108974
 53
334.9544
 43
12127.74595145577
 44
1400.6392336848
 45
10.9520365279484
 46
-0.0000117218229823
 79
     2
 49
4.636287175181991
 49
-2957.102061108974
 53
334.9544
 43
12127.74595145577
 44
1363.762135082728
 45
10.9520365279484
 46
-0.0000117218229823
 79
     2
 49
4.636287175181991
 49
-2957.102061108974
 53
334.9544
 43
12127.74595145577
 44
1326.885036480657
 45
10.9520365279484
 46
-0.0000117218229823
 79
     2
 49
4.636287175181991
 49
-2957.102061108974
 53
334.9544
 43
12127.74595145577
 44
1290.007937878588
 45
10.9520365279484
 46
-0.0000117218229823
 79
     2
 49
4.636287175181991
 49
-2957.102061108974
 53
334.9544
 43
12127.74595145577
 44
1253.130839276517
 45
10.9520365279484
 46
-0.0000117218229823
 79
     2
 49
4.636287175181991
 49
-2957.102061108974
 53
334.9544
 43
12127.74595145577
 44
1216.253740674441
 45
10.9520365279484
 46
-0.0000117218229823
 79
     2
 49
4.636287175181991
 49
-2957.102061108974
 53
334.9544
 43
12127.74595145577
 44
1179.376642072373
 45
10.9520365279484
 46
-0.0000117218229823
 79
     2
 49
4.636287175181991
 49
-2957.102061108974
 53
334.9544
 43
12127.74595145577
 44
1142.499543470301
 45
10.9520365279484
 46
-0.0000117218229823
 79
     2
 49
4.636287175181991
 49
-2957.102061108974
 53
334.9544
 43
12127.74595145577
 44
1105.622444868229
 45
10.9520365279484
 46
-0.0000117218229823
 79
     2
 49
4.636287175181991
 49
-2957.102061108974
 53
334.9544
 43
12127.74595145577
 44
1068.745346266154
 45
10.9520365279484
 46
-0.0000117218229823
 79
     2
 49
4.636287175181991
 49
-2957.102061108974
 53
334.9544
 43
12127.74595145577
 44
1031.868247664086
 45
10.9520365279484
 46
-0.0000117218229823
 79
     2
 49
4.636287175181991
 49
-2957.102061108974
 53
334.9544
 43
12127.74595145577
 44
994.9911490620143
 45
10.9520365279484
 46
-0.0000117218229823
 79
     2
 49
4.636287175181991
 49
-2957.102061108974
 53
334.9544
 43
12127.74595145577
 44
958.1140504599424
 45
10.9520365279484
 46
-0.0000117218229823
 79
     2
 49
4.636287175181991
 49
-2957.102061108974
 53
334.9544
 43
12127.74595145577
 44
921.236951857867
 45
10.9520365279484
 46
-0.0000117218229823
 79
     2
 49
4.636287175181991
 49
-2957.102061108974
 53
334.9544
 43
12127.74595145577
 44
884.3598532557988
 45
10.9520365279484
 46
-0.0000117218229823
 79
     2
 49
4.636287175181991
 49
-2957.102061108974
 53
334.9544
 43
12127.74595145577
 44
847.4827546537309
 45
10.9520365279484
 46
-0.0000117218229823
 79
     2
 49
4.636287175181991
 49
-2957.102061108974
 53
334.9544
 43
12127.74595145577
 44
810.6056560516554
 45
10.9520365279484
 46
-0.0000117218229823
 79
     2
 49
4.636287175181991
 49
-2957.102061108974
 53
334.9544
 43
12127.74595145577
 44
773.7285574495872
 45
10.9520365279484
 46
-0.0000117218229823
 79
     2
 49
4.636287175181991
 49
-2957.102061108974
 53
334.9544
 43
12127.74595145577
 44
736.8514588475118
 45
10.9520365279484
 46
-0.0000117218229823
 79
     2
 49
4.636287175181991
 49
-2957.102061108974
 53
334.9544
 43
12127.74595145577
 44
699.9743602454364
 45
10.9520365279484
 46
-0.0000117218229823
 79
     2
 49
4.636287175181991
 49
-2957.102061108974
 53
334.9544
 43
12127.74595145577
 44
663.0972616433682
 45
10.9520365279484
 46
-0.0000117218229823
 79
     2
 49
4.636287175181991
 49
-2957.102061108974
 53
334.9544
 43
12127.74595145577
 44
626.2201630413001
 45
10.9520365279484
 46
-0.0000117218229823
 79
     2
 49
4.636287175181991
 49
-2957.102061108974
 53
334.9544
 43
12127.74595145577
 44
589.3430644392246
 45
10.9520365279484
 46
-0.0000117218229823
 79
     2
 49
4.636287175181991
 49
-2957.102061108974
 53
334.9544
 43
12127.74595145577
 44
552.4659658371529
 45
10.9520365279484
 46
-0.0000117218229823
 79
     2
 49
4.636287175181991
 49
-2957.102061108974
 53
307.5647
 43
12129.0542197956
 44
1799.578374292756
 45
10.95203172566192
 46
-0.0000024731155069
 79
     2
 49
4.503300162712156
 49
-1809.889024393901
 53
307.5647
 43
12129.0542197956
 44
1762.701210131396
 45
10.95203172566192
 46
-0.0000024731155069
 79
     2
 49
4.503300162712156
 49
-1809.889024393901
 53
307.5647
 43
12129.0542197956
 44
1725.824111529324
 45
10.95203172566192
 46
-0.0000024731155069
 79
     2
 49
4.503300162712156
 49
-1809.889024393901
 53
307.5647
 43
12129.0542197956
 44
1688.947012927256
 45
10.95203172566192
 46
-0.0000024731155069
 79
     2
 49
4.503300162712156
 49
-1809.889024393901
 53
307.5647
 43
12129.0542197956
 44
1652.06991432518
 45
10.95203172566192
 46
-0.0000024731155069
 79
     2
 49
4.503300162712156
 49
-1809.889024393901
 53
307.5647
 43
12129.0542197956
 44
1615.192815723105
 45
10.95203172566192
 46
-0.0000024731155069
 79
     2
 49
4.503300162712156
 49
-1809.889024393901
 53
307.5647
 43
12129.0542197956
 44
1578.315717121037
 45
10.95203172566192
 46
-0.0000024731155069
 79
     2
 49
4.503300162712156
 49
-1809.889024393901
 53
307.5647
 43
12129.0542197956
 44
1541.438618518968
 45
10.95203172566192
 46
-0.0000024731155069
 79
     2
 49
4.503300162712156
 49
-1809.889024393901
 53
307.5647
 43
12129.0542197956
 44
1504.561519916893
 45
10.95203172566192
 46
-0.0000024731155069
 79
     2
 49
4.503300162712156
 49
-1809.889024393901
 53
307.5647
 43
12129.0542197956
 44
1467.683437925527
 45
10.95203172566192
 46
-0.0000024731155069
 79
     2
 49
4.503300162712156
 49
-1809.889024393901
 53
307.5647
 43
12129.0542197956
 44
1430.806339323459
 45
10.95203172566192
 46
-0.0000024731155069
 79
     2
 49
4.503300162712156
 49
-1809.889024393901
 53
307.5647
 43
12129.0542197956
 44
1393.929240721383
 45
10.95203172566192
 46
-0.0000024731155069
 79
     2
 49
4.503300162712156
 49
-1809.889024393901
 53
307.5647
 43
12129.0542197956
 44
1357.052142119308
 45
10.95203172566192
 46
-0.0000024731155069
 79
     2
 49
4.503300162712156
 49
-1809.889024393901
 53
307.5647
 43
12129.0542197956
 44
1320.17504351724
 45
10.95203172566192
 46
-0.0000024731155069
 79
     2
 49
4.503300162712156
 49
-1809.889024393901
 53
307.5647
 43
12129.0542197956
 44
1283.297944915172
 45
10.95203172566192
 46
-0.0000024731155069
 79
     2
 49
4.503300162712156
 49
-1809.889024393901
 53
307.5647
 43
12129.0542197956
 44
1246.420846313096
 45
10.95203172566192
 46
-0.0000024731155069
 79
     2
 49
4.503300162712156
 49
-1809.889024393901
 53
307.5647
 43
12129.0542197956
 44
1209.543747711024
 45
10.95203172566192
 46
-0.0000024731155069
 79
     2
 49
4.503300162712156
 49
-1809.889024393901
 53
307.5647
 43
12129.0542197956
 44
1172.666649108953
 45
10.95203172566192
 46
-0.0000024731155069
 79
     2
 49
4.503300162712156
 49
-1809.889024393901
 53
307.5647
 43
12129.0542197956
 44
1135.789550506884
 45
10.95203172566192
 46
-0.0000024731155069
 79
     2
 49
4.503300162712156
 49
-1809.889024393901
 53
307.5647
 43
12129.0542197956
 44
1098.912451904809
 45
10.95203172566192
 46
-0.0000024731155069
 79
     2
 49
4.503300162712156
 49
-1809.889024393901
 53
307.5647
 43
12129.0542197956
 44
1062.035353302741
 45
10.95203172566192
 46
-0.0000024731155069
 79
     2
 49
4.503300162712156
 49
-1809.889024393901
 53
307.5647
 43
12129.0542197956
 44
1025.158254700665
 45
10.95203172566192
 46
-0.0000024731155069
 79
     2
 49
4.503300162712156
 49
-1809.889024393901
 53
307.5647
 43
12129.0542197956
 44
988.2811560985974
 45
10.95203172566192
 46
-0.0000024731155069
 79
     2
 49
4.503300162712156
 49
-1809.889024393901
 53
307.5647
 43
12129.0542197956
 44
951.4040574965257
 45
10.95203172566192
 46
-0.0000024731155069
 79
     2
 49
4.503300162712156
 49
-1809.889024393901
 53
307.5647
 43
12129.0542197956
 44
914.5269588944538
 45
10.95203172566192
 46
-0.0000024731155069
 79
     2
 49
4.503300162712156
 49
-1809.889024393901
 53
307.5647
 43
12129.0542197956
 44
877.6498602923783
 45
10.95203172566192
 46
-0.0000024731155069
 79
     2
 49
4.503300162712156
 49
-1809.889024393901
 53
307.5647
 43
12129.0542197956
 44
840.7727616903102
 45
10.95203172566192
 46
-0.0000024731155069
 79
     2
 49
4.503300162712156
 49
-1809.889024393901
 53
307.5647
 43
12129.0542197956
 44
803.895663088242
 45
10.95203172566192
 46
-0.0000024731155069
 79
     2
 49
4.503300162712156
 49
-1809.889024393901
 53
307.5647
 43
12129.0542197956
 44
767.0185644861667
 45
10.95203172566192
 46
-0.0000024731155069
 79
     2
 49
4.503300162712156
 49
-1809.889024393901
 53
307.5647
 43
12129.0542197956
 44
730.1414658840949
 45
10.95203172566192
 46
-0.0000024731155069
 79
     2
 49
4.503300162712156
 49
-1809.889024393901
 53
307.5647
 43
12129.0542197956
 44
693.2643672820232
 45
10.95203172566192
 46
-0.0000024731155069
 79
     2
 49
4.503300162712156
 49
-1809.889024393901
 53
307.5647
 43
12129.0542197956
 44
656.3872686799477
 45
10.95203172566192
 46
-0.0000024731155069
 79
     2
 49
4.503300162712156
 49
-1809.889024393901
 53
307.5647
 43
12129.0542197956
 44
619.5101700778832
 45
10.95203172566192
 46
-0.0000024731155069
 79
     2
 49
4.503300162712156
 49
-1809.889024393901
 53
307.5647
 43
12129.0542197956
 44
582.6330714758114
 45
10.95203172566192
 46
-0.0000024731155069
 79
     2
 49
4.503300162712156
 49
-1809.889024393901
 53
307.5647
 43
12129.0542197956
 44
545.755972873736
 45
10.95203172566192
 46
-0.0000024731155069
 79
     2
 49
4.503300162712156
 49
-1809.889024393901
 53
307.5647
 43
12129.0542197956
 44
508.8788742716679
 45
10.95203172566192
 46
-0.0000024731155069
 79
     2
 49
4.503300162712156
 49
-1809.889024393901
 53
307.5647
 43
12129.0542197956
 44
472.0017756695961
 45
10.95203172566192
 46
-0.0000024731155069
 79
     2
 49
4.503300162712156
 49
-1809.889024393901
 53
307.5647
 43
12129.0542197956
 44
435.1246770675243
 45
10.95203172566192
 46
-0.0000024731155069
 79
     2
 49
4.503300162712156
 49
-1809.889024393901
 53
307.5647
 43
12129.0542197956
 44
398.2475784654525
 45
10.95203172566192
 46
-0.0000024731155069
 79
     2
 49
4.503300162712156
 49
-1809.889024393901
 53
292.9384
 43
12122.00330215307
 44
1787.994540079871
 45
10.95204222721493
 46
-0.0000045639384487
 79
     2
 49
8.386475035331912
 49
-1593.356600854789
 53
292.9384
 43
12122.00330215307
 44
1751.117539816729
 45
10.95204222721493
 46
-0.0000045639384487
 79
     2
 49
8.386475035331912
 49
-1593.356600854789
 53
292.9384
 43
12122.00330215307
 44
1714.240441214653
 45
10.95204222721493
 46
-0.0000045639384487
 79
     2
 49
8.386475035331912
 49
-1593.356600854789
 53
292.9384
 43
12122.00330215307
 44
1677.363342612585
 45
10.95204222721493
 46
-0.0000045639384487
 79
     2
 49
8.386475035331912
 49
-1593.356600854789
 53
292.9384
 43
12122.00330215307
 44
1640.486244010517
 45
10.95204222721493
 46
-0.0000045639384487
 79
     2
 49
8.386475035331912
 49
-1593.356600854789
 53
292.9384
 43
12122.00330215307
 44
1603.609145408442
 45
10.95204222721493
 46
-0.0000045639384487
 79
     2
 49
8.386475035331912
 49
-1593.356600854789
 53
292.9384
 43
12122.00330215307
 44
1566.73204680637
 45
10.95204222721493
 46
-0.0000045639384487
 79
     2
 49
8.386475035331912
 49
-1593.356600854789
 53
292.9384
 43
12122.00330215307
 44
1529.854948204298
 45
10.95204222721493
 46
-0.0000045639384487
 79
     2
 49
8.386475035331912
 49
-1593.356600854789
 53
292.9384
 43
12122.00330215307
 44
1492.97784960223
 45
10.95204222721493
 46
-0.0000045639384487
 79
     2
 49
8.386475035331912
 49
-1593.356600854789
 53
292.9384
 43
12122.00330215307
 44
1456.099112017997
 45
10.95204222721493
 46
-0.0000045639384487
 79
     2
 49
8.386475035331912
 49
-1593.356600854789
 53
292.9384
 43
12122.00330215307
 44
1419.222013415925
 45
10.95204222721493
 46
-0.0000045639384487
 79
     2
 49
8.386475035331912
 49
-1593.356600854789
 53
292.9384
 43
12122.00330215307
 44
1382.34491481385
 45
10.95204222721493
 46
-0.0000045639384487
 79
     2
 49
8.386475035331912
 49
-1593.356600854789
 53
292.9384
 43
12122.00330215307
 44
1345.467816211781
 45
10.95204222721493
 46
-0.0000045639384487
 79
     2
 49
8.386475035331912
 49
-1593.356600854789
 53
292.9384
 43
12122.00330215307
 44
1308.590717609713
 45
10.95204222721493
 46
-0.0000045639384487
 79
     2
 49
8.386475035331912
 49
-1593.356600854789
 53
292.9384
 43
12122.00330215307
 44
1271.713619007638
 45
10.95204222721493
 46
-0.0000045639384487
 79
     2
 49
8.386475035331912
 49
-1593.356600854789
 53
292.9384
 43
12122.00330215307
 44
1234.836520405566
 45
10.95204222721493
 46
-0.0000045639384487
 79
     2
 49
8.386475035331912
 49
-1593.356600854789
 53
292.9384
 43
12122.00330215307
 44
1197.959421803494
 45
10.95204222721493
 46
-0.0000045639384487
 79
     2
 49
8.386475035331912
 49
-1593.356600854789
 53
292.9384
 43
12122.00330215307
 44
1161.082323201422
 45
10.95204222721493
 46
-0.0000045639384487
 79
     2
 49
8.386475035331912
 49
-1593.356600854789
 53
292.9384
 43
12122.00330215307
 44
1124.205224599355
 45
10.95204222721493
 46
-0.0000045639384487
 79
     2
 49
8.386475035331912
 49
-1593.356600854789
 53
292.9384
 43
12122.00330215307
 44
1087.328125997283
 45
10.95204222721493
 46
-0.0000045639384487
 79
     2
 49
8.386475035331912
 49
-1593.356600854789
 53
292.9384
 43
12122.00330215307
 44
1050.451027395207
 45
10.95204222721493
 46
-0.0000045639384487
 79
     2
 49
8.386475035331912
 49
-1593.356600854789
 53
292.9384
 43
12122.00330215307
 44
1013.573928793139
 45
10.95204222721493
 46
-0.0000045639384487
 79
     2
 49
8.386475035331912
 49
-1593.356600854789
 53
292.9384
 43
12122.00330215307
 44
976.6968301910674
 45
10.95204222721493
 46
-0.0000045639384487
 79
     2
 49
8.386475035331912
 49
-1593.356600854789
 53
292.9384
 43
12122.00330215307
 44
939.8197315889957
 45
10.95204222721493
 46
-0.0000045639384487
 79
     2
 49
8.386475035331912
 49
-1593.356600854789
 53
292.9384
 43
12122.00330215307
 44
902.9426329869203
 45
10.95204222721493
 46
-0.0000045639384487
 79
     2
 49
8.386475035331912
 49
-1593.356600854789
 53
292.9384
 43
12122.00330215307
 44
866.0655343848521
 45
10.95204222721493
 46
-0.0000045639384487
 79
     2
 49
8.386475035331912
 49
-1593.356600854789
 53
292.9384
 43
12122.00330215307
 44
829.1884357827767
 45
10.95204222721493
 46
-0.0000045639384487
 79
     2
 49
8.386475035331912
 49
-1593.356600854789
 53
292.9384
 43
12122.00330215307
 44
792.3113371807085
 45
10.95204222721493
 46
-0.0000045639384487
 79
     2
 49
8.386475035331912
 49
-1593.356600854789
 53
292.9384
 43
12122.00330215307
 44
755.434238578633
 45
10.95204222721493
 46
-0.0000045639384487
 79
     2
 49
8.386475035331912
 49
-1593.356600854789
 53
292.9384
 43
12122.00330215307
 44
718.5571399765649
 45
10.95204222721493
 46
-0.0000045639384487
 79
     2
 49
8.386475035331912
 49
-1593.356600854789
 53
292.9384
 43
12122.00330215307
 44
681.6800413744967
 45
10.95204222721493
 46
-0.0000045639384487
 79
     2
 49
8.386475035331912
 49
-1593.356600854789
 53
292.9384
 43
12122.00330215307
 44
644.8029427724214
 45
10.95204222721493
 46
-0.0000045639384487
 79
     2
 49
8.386475035331912
 49
-1593.356600854789
 53
292.9384
 43
12122.00330215307
 44
607.9258441703496
 45
10.95204222721493
 46
-0.0000045639384487
 79
     2
 49
8.386475035331912
 49
-1593.356600854789
 53
292.9384
 43
12122.00330215307
 44
571.0487455682778
 45
10.95204222721493
 46
-0.0000045639384487
 79
     2
 49
8.386475035331912
 49
-1593.356600854789
 53
292.9384
 43
12122.00330215307
 44
534.171646966206
 45
10.95204222721493
 46
-0.0000045639384487
 79
     2
 49
8.386475035331912
 49
-1593.356600854789
 53
292.9384
 43
12122.00330215307
 44
497.2945483641342
 45
10.95204222721493
 46
-0.0000045639384487
 79
     2
 49
8.386475035331912
 49
-1593.356600854789
 53
292.9384
 43
12122.00330215307
 44
460.417449762066
 45
10.95204222721493
 46
-0.0000045639384487
 79
     2
 49
8.386475035331912
 49
-1593.356600854789
 53
292.9384
 43
12122.00330215307
 44
423.5403511599943
 45
10.95204222721493
 46
-0.0000045639384487
 79
     2
 49
8.386475035331912
 49
-1593.356600854789
 53
292.9384
 43
12122.00330215307
 44
386.6632525579189
 45
10.95204222721493
 46
-0.0000045639384487
 79
     2
 49
8.386475035331912
 49
-1593.356600854789
 53
292.9384
 43
12122.00330215307
 44
349.7861539558507
 45
10.95204222721493
 46
-0.0000045639384487
 79
     2
 49
8.386475035331912
 49
-1593.356600854789
 53
285.109
 43
12126.79806251331
 44
1772.922722372812
 45
0.0000000992044029
 46
-36.87707611878427
 79
     2
 49
3.638966530766021
 49
-416.5337124354709
 53
285.109
 43
12137.75010188312
 44
1772.922722372812
 45
0.0000000992044029
 46
-36.87707611878427
 79
     2
 49
3.638966530766021
 49
-416.5337124354709
 53
285.109
 43
12148.70214125293
 44
1772.922722372812
 45
0.0000000992044029
 46
-36.87707611878427
 79
     2
 49
3.638966530766021
 49
-416.5337124354709
 53
285.109
 43
12159.65424618203
 44
1772.922722372812
 45
0.0000000992044029
 46
-36.87707611878427
 79
     2
 49
3.638966530766021
 49
-416.5337124354709
 53
285.109
 43
12170.60625277219
 44
1772.922722372812
 45
0.0000000992044029
 46
-36.87707611878427
 79
     2
 49
3.638966530766021
 49
-416.5337124354709
 53
285.109
 43
12181.55825936236
 44
1772.922722372812
 45
0.0000000992044029
 46
-36.87707611878427
 79
     2
 49
3.638966530766021
 49
-416.5337124354709
 53
285.109
 43
12192.51026595253
 44
1772.922722372812
 45
0.0000000992044029
 46
-36.87707611878427
 79
     2
 49
3.638966530766021
 49
-416.5337124354709
 53
285.109
 43
12203.46227254269
 44
1772.922722372812
 45
0.0000000992044029
 46
-36.87707611878427
 79
     2
 49
3.638966530766021
 49
-416.5337124354709
 53
285.109
 43
12214.41427913286
 44
1772.922722372812
 45
0.0000000992044029
 46
-36.87707611878427
 79
     2
 49
3.638966530766021
 49
-416.5337124354709
 53
285.109
 43
12225.36628572303
 44
1772.922722372812
 45
0.0000000992044029
 46
-36.87707611878427
 79
     2
 49
3.638966530766021
 49
-416.5337124354709
 53
276.7473999999999
 43
12125.27144897012
 44
1780.271066107936
 45
0.0000035818718473
 46
-36.87716375543
 79
     2
 49
7.399774995313284
 49
-4560.119085052519
 53
276.7473999999999
 43
12136.22348833992
 44
1780.271066107936
 45
0.0000035818718473
 46
-36.87716375543
 79
     2
 49
7.399774995313284
 49
-4560.119085052519
 53
276.7473999999999
 43
12147.17552770973
 44
1780.271066107936
 45
0.0000035818718473
 46
-36.87716375543
 79
     2
 49
7.399774995313284
 49
-4560.119085052519
 53
276.7473999999999
 43
12158.12769819812
 44
1780.271066107936
 45
0.0000035818718473
 46
-36.87716375543
 79
     2
 49
7.399774995313284
 49
-4560.119085052519
 53
276.7473999999999
 43
12169.07970478829
 44
1780.271066107936
 45
0.0000035818718473
 46
-36.87716375543
 79
     2
 49
7.399774995313284
 49
-4560.119085052519
 53
276.7473999999999
 43
12180.03171137845
 44
1780.271066107936
 45
0.0000035818718473
 46
-36.87716375543
 79
     2
 49
7.399774995313284
 49
-4560.119085052519
 53
276.7473999999999
 43
12190.98371796862
 44
1780.271066107936
 45
0.0000035818718473
 46
-36.87716375543
 79
     2
 49
7.399774995313284
 49
-4560.119085052519
 53
276.7473999999999
 43
12201.93572455879
 44
1780.271066107936
 45
0.0000035818718473
 46
-36.87716375543
 79
     2
 49
7.399774995313284
 49
-4560.119085052519
 53
276.7473999999999
 43
12212.88773114895
 44
1780.271066107936
 45
0.0000035818718473
 46
-36.87716375543
 79
     2
 49
7.399774995313284
 49
-4560.119085052519
 53
276.7473999999999
 43
12223.83973773912
 44
1780.271066107936
 45
0.0000035818718473
 46
-36.87716375543
 79
     2
 49
7.399774995313284
 49
-4560.119085052519
 53
276.7473999999999
 43
12234.79174432929
 44
1780.271066107936
 45
0.0000035818718473
 46
-36.87716375543
 79
     2
 49
7.399774995313284
 49
-4560.119085052519
 53
276.7473999999999
 43
12245.74375091945
 44
1780.271066107936
 45
0.0000035818718473
 46
-36.87716375543
 79
     2
 49
7.399774995313284
 49
-4560.119085052519
 53
276.7473999999999
 43
12256.69575750962
 44
1780.271066107936
 45
0.0000035818718473
 46
-36.87716375543
 79
     2
 49
7.399774995313284
 49
-4560.119085052519
 53
276.7473999999999
 43
12267.64776409979
 44
1780.271066107936
 45
0.0000035818718473
 46
-36.87716375543
 79
     2
 49
7.399774995313284
 49
-4560.119085052519
 53
276.7473999999999
 43
12278.60009848639
 44
1780.271066107936
 45
0.0000035818718473
 46
-36.87716375543
 79
     2
 49
7.399774995313284
 49
-4560.119085052519
 53
276.7473999999999
 43
12289.55210507656
 44
1780.271066107936
 45
0.0000035818718473
 46
-36.87716375543
 79
     2
 49
7.399774995313284
 49
-4560.119085052519
 53
276.7473999999999
 43
12300.50411166672
 44
1780.271066107936
 45
0.0000035818718473
 46
-36.87716375543
 79
     2
 49
7.399774995313284
 49
-4560.119085052519
 53
276.7473999999999
 43
12311.45611825689
 44
1780.271066107936
 45
0.0000035818718473
 46
-36.87716375543
 79
     2
 49
7.399774995313284
 49
-4560.119085052519
 53
276.7473999999999
 43
12322.40812484705
 44
1780.271066107936
 45
0.0000035818718473
 46
-36.87716375543
 79
     2
 49
7.399774995313284
 49
-4560.119085052519
 53
276.7473999999999
 43
12333.36013143722
 44
1780.271066107936
 45
0.0000035818718473
 46
-36.87716375543
 79
     2
 49
7.399774995313284
 49
-4560.119085052519
 53
276.7473999999999
 43
12344.31213802739
 44
1780.271066107936
 45
0.0000035818718473
 46
-36.87716375543
 79
     2
 49
7.399774995313284
 49
-4560.119085052519
 53
276.7473999999999
 43
12355.26414461756
 44
1780.271066107936
 45
0.0000035818718473
 46
-36.87716375543
 79
     2
 49
7.399774995313284
 49
-4560.119085052519
 53
276.7473999999999
 43
12366.21615120773
 44
1780.271066107936
 45
0.0000035818718473
 46
-36.87716375543
 79
     2
 49
7.399774995313284
 49
-4560.119085052519
 53
276.7473999999999
 43
12377.16815779789
 44
1780.271066107936
 45
0.0000035818718473
 46
-36.87716375543
 79
     2
 49
7.399774995313284
 49
-4560.119085052519
 53
276.7473999999999
 43
12388.1204921845
 44
1780.271066107936
 45
0.0000035818718473
 46
-36.87716375543
 79
     2
 49
7.399774995313284
 49
-4560.119085052519
 53
276.7473999999999
 43
12399.07249877466
 44
1780.271066107936
 45
0.0000035818718473
 46
-36.87716375543
 79
     2
 49
7.399774995313284
 49
-4560.119085052519
 53
276.7473999999999
 43
12410.02450536483
 44
1780.271066107936
 45
0.0000035818718473
 46
-36.87716375543
 79
     2
 49
7.399774995313284
 49
-4560.119085052519
 53
276.7473999999999
 43
12420.976511955
 44
1780.271066107936
 45
0.0000035818718473
 46
-36.87716375543
 79
     2
 49
7.399774995313284
 49
-4560.119085052519
 53
276.7473999999999
 43
12431.92851854517
 44
1780.271066107936
 45
0.0000035818718473
 46
-36.87716375543
 79
     2
 49
7.399774995313284
 49
-4560.119085052519
 53
276.7473999999999
 43
12442.88052513533
 44
1780.271066107936
 45
0.0000035818718473
 46
-36.87716375543
 79
     2
 49
7.399774995313284
 49
-4560.119085052519
 53
276.7473999999999
 43
12453.83220392906
 44
1780.271066107936
 45
0.0000035818718473
 46
-36.87716375543
 79
     2
 49
7.399774995313284
 49
-4560.119085052519
 53
276.7473999999999
 43
12464.7838827228
 44
1780.271066107936
 45
0.0000035818718473
 46
-36.87716375543
 79
     2
 49
7.399774995313284
 49
-4560.119085052519
 53
276.7473999999999
 43
12475.73556151653
 44
1780.271066107936
 45
0.0000035818718473
 46
-36.87716375543
 79
     2
 49
7.399774995313284
 49
-4560.119085052519
 53
276.7473999999999
 43
12486.68724031027
 44
1780.271066107936
 45
0.0000035818718473
 46
-36.87716375543
 79
     2
 49
7.399774995313284
 49
-4560.119085052519
 53
276.7473999999999
 43
12497.64219706833
 44
1780.271066107936
 45
0.0000035818718473
 46
-36.87716375543
 79
     2
 49
7.399774995313284
 49
-4560.119085052519
 53
276.7473999999999
 43
12508.59387586206
 44
1780.271066107936
 45
0.0000035818718473
 46
-36.87716375543
 79
     2
 49
7.399774995313284
 49
-4560.119085052519
 53
276.7473999999999
 43
12519.54555465579
 44
1780.271066107936
 45
0.0000035818718473
 46
-36.87716375543
 79
     2
 49
7.399774995313284
 49
-4560.119085052519
 53
276.7473999999999
 43
12530.49723344953
 44
1780.271066107936
 45
0.0000035818718473
 46
-36.87716375543
 79
     2
 49
7.399774995313284
 49
-4560.119085052519
 53
276.7473999999999
 43
12541.44891224326
 44
1780.271066107936
 45
0.0000035818718473
 46
-36.87716375543
 79
     2
 49
7.399774995313284
 49
-4560.119085052519
 53
276.7473999999999
 43
12552.400591037
 44
1780.271066107936
 45
0.0000035818718473
 46
-36.87716375543
 79
     2
 49
7.399774995313284
 49
-4560.119085052519
 53
276.7473999999999
 43
12563.35226983073
 44
1780.271066107936
 45
0.0000035818718473
 46
-36.87716375543
 79
     2
 49
7.399774995313284
 49
-4560.119085052519
 53
276.7473999999999
 43
12574.30394862447
 44
1780.271066107936
 45
0.0000035818718473
 46
-36.87716375543
 79
     2
 49
7.399774995313284
 49
-4560.119085052519
 53
276.7473999999999
 43
12585.2556274182
 44
1780.271066107936
 45
0.0000035818718473
 46
-36.87716375543
 79
     2
 49
7.399774995313284
 49
-4560.119085052519
 53
276.7473999999999
 43
12596.21058417626
 44
1780.271066107936
 45
0.0000035818718473
 46
-36.87716375543
 79
     2
 49
7.399774995313284
 49
-4560.119085052519
 53
276.7473999999999
 43
12607.16226297
 44
1780.271066107936
 45
0.0000035818718473
 46
-36.87716375543
 79
     2
 49
7.399774995313284
 49
-4560.119085052519
 53
276.7473999999999
 43
12618.11394176373
 44
1780.271066107936
 45
0.0000035818718473
 46
-36.87716375543
 79
     2
 49
7.399774995313284
 49
-4560.119085052519
 53
276.7473999999999
 43
12629.06562055747
 44
1780.271066107936
 45
0.0000035818718473
 46
-36.87716375543
 79
     2
 49
7.399774995313284
 49
-4560.119085052519
 53
276.7473999999999
 43
12640.0172993512
 44
1780.271066107936
 45
0.0000035818718473
 46
-36.87716375543
 79
     2
 49
7.399774995313284
 49
-4560.119085052519
 53
276.7473999999999
 43
12650.96897814494
 44
1780.271066107936
 45
0.0000035818718473
 46
-36.87716375543
 79
     2
 49
7.399774995313284
 49
-4560.119085052519
 53
276.1416
 43
12121.14083204383
 44
1796.00880226665
 45
-0.0000356891682921
 46
-36.87700042616381
 79
     2
 49
8.060547042976009
 49
-2551.147945737283
 53
276.1416
 43
12132.09285994078
 44
1796.00880226665
 45
-0.0000356891682921
 46
-36.87700042616381
 79
     2
 49
8.060547042976009
 49
-2551.147945737283
 53
276.1416
 43
12143.04489931059
 44
1796.00880226665
 45
-0.0000356891682921
 46
-36.87700042616381
 79
     2
 49
8.060547042976009
 49
-2551.147945737283
 53
276.1416
 43
12153.99680756182
 44
1796.00880226665
 45
-0.0000356891682921
 46
-36.87700042616381
 79
     2
 49
8.060547042976009
 49
-2551.147945737283
 53
276.1416
 43
12164.94914194842
 44
1796.00880226665
 45
-0.0000356891682921
 46
-36.87700042616381
 79
     2
 49
8.060547042976009
 49
-2551.147945737283
 53
276.1416
 43
12175.90114853858
 44
1796.00880226665
 45
-0.0000356891682921
 46
-36.87700042616381
 79
     2
 49
8.060547042976009
 49
-2551.147945737283
 53
276.1416
 43
12186.85315512875
 44
1796.00880226665
 45
-0.0000356891682921
 46
-36.87700042616381
 79
     2
 49
8.060547042976009
 49
-2551.147945737283
 53
276.1416
 43
12197.80516171892
 44
1796.00880226665
 45
-0.0000356891682921
 46
-36.87700042616381
 79
     2
 49
8.060547042976009
 49
-2551.147945737283
 53
276.1416
 43
12208.75716830909
 44
1796.00880226665
 45
-0.0000356891682921
 46
-36.87700042616381
 79
     2
 49
8.060547042976009
 49
-2551.147945737283
 53
276.1416
 43
12219.70917489926
 44
1796.00880226665
 45
-0.0000356891682921
 46
-36.87700042616381
 79
     2
 49
8.060547042976009
 49
-2551.147945737283
 53
276.1416
 43
12230.66118148943
 44
1796.00880226665
 45
-0.0000356891682921
 46
-36.87700042616381
 79
     2
 49
8.060547042976009
 49
-2551.147945737283
 53
276.1416
 43
12241.61318807959
 44
1796.00880226665
 45
-0.0000356891682921
 46
-36.87700042616381
 79
     2
 49
8.060547042976009
 49
-2551.147945737283
 53
276.1416
 43
12252.56519466976
 44
1796.00880226665
 45
-0.0000356891682921
 46
-36.87700042616381
 79
     2
 49
8.060547042976009
 49
-2551.147945737283
 53
276.1416
 43
12263.51720125992
 44
1796.00880226665
 45
-0.0000356891682921
 46
-36.87700042616381
 79
     2
 49
8.060547042976009
 49
-2551.147945737283
 53
276.1416
 43
12274.46920785009
 44
1796.00880226665
 45
-0.0000356891682921
 46
-36.87700042616381
 79
     2
 49
8.060547042976009
 49
-2551.147945737283
 53
276.1416
 43
12285.42154223669
 44
1796.00880226665
 45
-0.0000356891682921
 46
-36.87700042616381
 79
     2
 49
8.060547042976009
 49
-2551.147945737283
 53
276.1416
 43
12296.37354882686
 44
1796.00880226665
 45
-0.0000356891682921
 46
-36.87700042616381
 79
     2
 49
8.060547042976009
 49
-2551.147945737283
 53
276.1416
 43
12307.32555541702
 44
1796.00880226665
 45
-0.0000356891682921
 46
-36.87700042616381
 79
     2
 49
8.060547042976009
 49
-2551.147945737283
 53
276.1416
 43
12318.27756200719
 44
1796.00880226665
 45
-0.0000356891682921
 46
-36.87700042616381
 79
     2
 49
8.060547042976009
 49
-2551.147945737283
 53
276.1416
 43
12329.22956859736
 44
1796.00880226665
 45
-0.0000356891682921
 46
-36.87700042616381
 79
     2
 49
8.060547042976009
 49
-2551.147945737283
 53
276.1416
 43
12340.18157518752
 44
1796.00880226665
 45
-0.0000356891682921
 46
-36.87700042616381
 79
     2
 49
8.060547042976009
 49
-2551.147945737283
 53
276.1416
 43
12351.13358177769
 44
1796.00880226665
 45
-0.0000356891682921
 46
-36.87700042616381
 79
     2
 49
8.060547042976009
 49
-2551.147945737283
 53
276.1416
 43
12362.08558836786
 44
1796.00880226665
 45
-0.0000356891682921
 46
-36.87700042616381
 79
     2
 49
8.060547042976009
 49
-2551.147945737283
 53
276.1416
 43
12373.03759495803
 44
1796.00880226665
 45
-0.0000356891682921
 46
-36.87700042616381
 79
     2
 49
8.060547042976009
 49
-2551.147945737283
 53
276.1416
 43
12383.9896015482
 44
1796.00880226665
 45
-0.0000356891682921
 46
-36.87700042616381
 79
     2
 49
8.060547042976009
 49
-2551.147945737283
 53
83.85800000000008
 43
12130.93724639933
 44
1787.994540079871
 45
10.9520277214346
 46
-0.0000684758235829
 79
     2
 49
8.060547042975892
 49
-2551.147945737253
 53
83.85800000000008
 43
12130.93724639933
 44
1751.117539816729
 45
10.9520277214346
 46
-0.0000684758235829
 79
     2
 49
8.060547042975892
 49
-2551.147945737253
 53
83.85800000000008
 43
12130.93724639933
 44
1714.240441214653
 45
10.9520277214346
 46
-0.0000684758235829
 79
     2
 49
8.060547042975892
 49
-2551.147945737253
 53
83.85800000000008
 43
12130.93724639933
 44
1677.363342612585
 45
10.9520277214346
 46
-0.0000684758235829
 79
     2
 49
8.060547042975892
 49
-2551.147945737253
 53
83.85800000000008
 43
12130.93724639933
 44
1640.486244010517
 45
10.9520277214346
 46
-0.0000684758235829
 79
     2
 49
8.060547042975892
 49
-2551.147945737253
 53
83.85800000000008
 43
12130.93724639933
 44
1603.609145408442
 45
10.9520277214346
 46
-0.0000684758235829
 79
     2
 49
8.060547042975892
 49
-2551.147945737253
 53
83.85800000000008
 43
12130.93724639933
 44
1566.73204680637
 45
10.9520277214346
 46
-0.0000684758235829
 79
     2
 49
8.060547042975892
 49
-2551.147945737253
 53
83.85800000000008
 43
12130.93724639933
 44
1529.854948204298
 45
10.9520277214346
 46
-0.0000684758235829
 79
     2
 49
8.060547042975892
 49
-2551.147945737253
 53
83.85800000000008
 43
12130.93724639933
 44
1492.97784960223
 45
10.9520277214346
 46
-0.0000684758235829
 79
     2
 49
8.060547042975892
 49
-2551.147945737253
 53
83.85800000000008
 43
12130.93724639933
 44
1456.099112017997
 45
10.9520277214346
 46
-0.0000684758235829
 79
     2
 49
8.060547042975892
 49
-2551.147945737253
 53
83.85800000000008
 43
12130.93724639933
 44
1419.222013415925
 45
10.9520277214346
 46
-0.0000684758235829
 79
     2
 49
8.060547042975892
 49
-2551.147945737253
 53
83.85800000000008
 43
12130.93724639933
 44
1382.34491481385
 45
10.9520277214346
 46
-0.0000684758235829
 79
     2
 49
8.060547042975892
 49
-2551.147945737253
 53
83.85800000000008
 43
12130.93724639933
 44
1345.467816211781
 45
10.9520277214346
 46
-0.0000684758235829
 79
     2
 49
8.060547042975892
 49
-2551.147945737253
 53
83.85800000000008
 43
12130.93724639933
 44
1308.590717609713
 45
10.9520277214346
 46
-0.0000684758235829
 79
     2
 49
8.060547042975892
 49
-2551.147945737253
 53
83.85800000000008
 43
12130.93724639933
 44
1271.713619007638
 45
10.9520277214346
 46
-0.0000684758235829
 79
     2
 49
8.060547042975892
 49
-2551.147945737253
 53
83.85800000000008
 43
12130.93724639933
 44
1234.836520405566
 45
10.9520277214346
 46
-0.0000684758235829
 79
     2
 49
8.060547042975892
 49
-2551.147945737253
 53
83.85800000000008
 43
12130.93724639933
 44
1197.959421803494
 45
10.9520277214346
 46
-0.0000684758235829
 79
     2
 49
8.060547042975892
 49
-2551.147945737253
 53
83.85800000000008
 43
12130.93724639933
 44
1161.082323201422
 45
10.9520277214346
 46
-0.0000684758235829
 79
     2
 49
8.060547042975892
 49
-2551.147945737253
 53
83.85800000000008
 43
12130.93724639933
 44
1124.205224599355
 45
10.9520277214346
 46
-0.0000684758235829
 79
     2
 49
8.060547042975892
 49
-2551.147945737253
 53
83.85800000000008
 43
12130.93724639933
 44
1087.328125997283
 45
10.9520277214346
 46
-0.0000684758235829
 79
     2
 49
8.060547042975892
 49
-2551.147945737253
 53
83.85800000000008
 43
12130.93724639933
 44
1050.451027395207
 45
10.9520277214346
 46
-0.0000684758235829
 79
     2
 49
8.060547042975892
 49
-2551.147945737253
 53
83.85800000000008
 43
12130.93724639933
 44
1013.573928793139
 45
10.9520277214346
 46
-0.0000684758235829
 79
     2
 49
8.060547042975892
 49
-2551.147945737253
 53
83.85800000000008
 43
12130.93724639933
 44
976.6968301910674
 45
10.9520277214346
 46
-0.0000684758235829
 79
     2
 49
8.060547042975892
 49
-2551.147945737253
 53
83.85800000000008
 43
12130.93724639933
 44
939.8197315889957
 45
10.9520277214346
 46
-0.0000684758235829
 79
     2
 49
8.060547042975892
 49
-2551.147945737253
 53
83.85800000000008
 43
12130.93724639933
 44
902.9426329869203
 45
10.9520277214346
 46
-0.0000684758235829
 79
     2
 49
8.060547042975892
 49
-2551.147945737253
 53
83.85800000000008
 43
12130.93724639933
 44
866.0655343848521
 45
10.9520277214346
 46
-0.0000684758235829
 79
     2
 49
8.060547042975892
 49
-2551.147945737253
 53
83.85800000000008
 43
12130.93724639933
 44
829.1884357827767
 45
10.9520277214346
 46
-0.0000684758235829
 79
     2
 49
8.060547042975892
 49
-2551.147945737253
 53
83.85800000000008
 43
12130.93724639933
 44
792.3113371807085
 45
10.9520277214346
 46
-0.0000684758235829
 79
     2
 49
8.060547042975892
 49
-2551.147945737253
 53
83.85800000000008
 43
12130.93724639933
 44
755.434238578633
 45
10.9520277214346
 46
-0.0000684758235829
 79
     2
 49
8.060547042975892
 49
-2551.147945737253
 53
83.85800000000008
 43
12130.93724639933
 44
718.5571399765649
 45
10.9520277214346
 46
-0.0000684758235829
 79
     2
 49
8.060547042975892
 49
-2551.147945737253
 53
83.85800000000008
 43
12130.93724639933
 44
681.6800413744967
 45
10.9520277214346
 46
-0.0000684758235829
 79
     2
 49
8.060547042975892
 49
-2551.147945737253
 53
83.85800000000008
 43
12130.93724639933
 44
644.8029427724214
 45
10.9520277214346
 46
-0.0000684758235829
 79
     2
 49
8.060547042975892
 49
-2551.147945737253
 53
83.85800000000008
 43
12130.93724639933
 44
607.9258441703496
 45
10.9520277214346
 46
-0.0000684758235829
 79
     2
 49
8.060547042975892
 49
-2551.147945737253
 53
83.85800000000008
 43
12130.93724639933
 44
571.0487455682778
 45
10.9520277214346
 46
-0.0000684758235829
 79
     2
 49
8.060547042975892
 49
-2551.147945737253
 53
83.85800000000008
 43
12130.93724639933
 44
534.171646966206
 45
10.9520277214346
 46
-0.0000684758235829
 79
     2
 49
8.060547042975892
 49
-2551.147945737253
 53
83.85800000000008
 43
12130.93724639933
 44
497.2945483641342
 45
10.9520277214346
 46
-0.0000684758235829
 79
     2
 49
8.060547042975892
 49
-2551.147945737253
 53
83.85800000000008
 43
12130.93724639933
 44
460.417449762066
 45
10.9520277214346
 46
-0.0000684758235829
 79
     2
 49
8.060547042975892
 49
-2551.147945737253
 53
83.85800000000008
 43
12130.93724639933
 44
423.5403511599943
 45
10.9520277214346
 46
-0.0000684758235829
 79
     2
 49
8.060547042975892
 49
-2551.147945737253
 53
83.85800000000008
 43
12130.93724639933
 44
386.6632525579189
 45
10.9520277214346
 46
-0.0000684758235829
 79
     2
 49
8.060547042975892
 49
-2551.147945737253
 53
83.85800000000008
 43
12130.93724639933
 44
349.7861539558507
 45
10.9520277214346
 46
-0.0000684758235829
 79
     2
 49
8.060547042975892
 49
-2551.147945737253
 53
83.85800000000008
 43
12130.93724639933
 44
312.9090553537789
 45
10.9520277214346
 46
-0.0000684758235829
 79
     2
 49
8.060547042975892
 49
-2551.147945737253
 53
83.85800000000008
 43
12130.93724639933
 44
276.0319567517072
 45
10.9520277214346
 46
-0.0000684758235829
 79
     2
 49
8.060547042975892
 49
-2551.147945737253
 53
83.85800000000008
 43
12130.93724639933
 44
239.1548581496345
 45
10.9520277214346
 46
-0.0000684758235829
 79
     2
 49
8.060547042975892
 49
-2551.147945737253
 53
83.85800000000008
 43
12130.93724639933
 44
202.2777595475627
 45
10.9520277214346
 46
-0.0000684758235829
 79
     2
 49
8.060547042975892
 49
-2551.147945737253
 53
83.85800000000008
 43
12130.93724639933
 44
165.4006609454909
 45
10.9520277214346
 46
-0.0000684758235829
 79
     2
 49
8.060547042975892
 49
-2551.147945737253
 53
83.85800000000008
 43
12130.93724639933
 44
128.5235623434191
 45
10.9520277214346
 46
-0.0000684758235829
 79
     2
 49
8.060547042975892
 49
-2551.147945737253
 53
83.85800000000008
 43
12130.93724639933
 44
91.64646374134736
 45
10.9520277214346
 46
-0.0000684758235829
 79
     2
 49
8.060547042975892
 49
-2551.147945737253
 53
83.85800000000008
 43
12130.93724639933
 44
54.76936513927194
 45
10.9520277214346
 46
-0.0000684758235829
 79
     2
 49
8.060547042975892
 49
-2551.147945737253
 53
83.85800000000008
 43
12130.93724639933
 44
17.89226653720743
 45
10.9520277214346
 46
-0.0000684758235829
 79
     2
 49
8.060547042975892
 49
-2551.147945737253
 53
83.85800000000008
 43
12130.93724639933
 44
-18.98483206486435
 45
10.9520277214346
 46
-0.0000684758235829
 79
     2
 49
8.060547042975892
 49
-2551.147945737253
 53
83.85800000000008
 43
12130.93724639933
 44
-55.86193066693977
 45
10.9520277214346
 46
-0.0000684758235829
 79
     2
 49
8.060547042975892
 49
-2551.147945737253
 53
83.85800000000008
 43
12130.93724639933
 44
-92.73902926901156
 45
10.9520277214346
 46
-0.0000684758235829
 79
     2
 49
8.060547042975892
 49
-2551.147945737253
 53
83.85800000000008
 43
12130.93724639933
 44
-129.6161278710833
 45
10.9520277214346
 46
-0.0000684758235829
 79
     2
 49
8.060547042975892
 49
-2551.147945737253
 53
83.85800000000008
 43
12130.93724639933
 44
-166.4932264731551
 45
10.9520277214346
 46
-0.0000684758235829
 79
     2
 49
8.060547042975892
 49
-2551.147945737253
 53
83.85800000000008
 43
12130.93724639933
 44
-203.3703250752233
 45
10.9520277214346
 46
-0.0000684758235829
 79
     2
 49
8.060547042975892
 49
-2551.147945737253
 53
83.85800000000008
 43
12130.93724639933
 44
-240.247423677295
 45
10.9520277214346
 46
-0.0000684758235829
 79
     2
 49
8.060547042975892
 49
-2551.147945737253
 53
83.85800000000008
 43
12130.93724639933
 44
-277.1245222793705
 45
10.9520277214346
 46
-0.0000684758235829
 79
     2
 49
8.060547042975892
 49
-2551.147945737253
 53
83.85800000000008
 43
12130.93724639933
 44
-314.0016208814386
 45
10.9520277214346
 46
-0.0000684758235829
 79
     2
 49
8.060547042975892
 49
-2551.147945737253
 53
83.85800000000008
 43
12130.93724639933
 44
-350.8787194835104
 45
10.9520277214346
 46
-0.0000684758235829
 79
     2
 49
8.060547042975892
 49
-2551.147945737253
 53
83.85800000000008
 43
12130.93724639933
 44
-387.7558180855822
 45
10.9520277214346
 46
-0.0000684758235829
 79
     2
 49
8.060547042975892
 49
-2551.147945737253
 53
83.85800000000008
 43
12130.93724639933
 44
-424.6329166876539
 45
10.9520277214346
 46
-0.0000684758235829
 79
     2
 49
8.060547042975892
 49
-2551.147945737253
 53
83.85800000000008
 43
12130.93724639933
 44
-461.5100152897257
 45
10.9520277214346
 46
-0.0000684758235829
 79
     2
 49
8.060547042975892
 49
-2551.147945737253
 53
83.85800000000008
 43
12130.93724639933
 44
-498.3871138917975
 45
10.9520277214346
 46
-0.0000684758235829
 79
     2
 49
8.060547042975892
 49
-2551.147945737253
 53
83.85800000000008
 43
12130.93724639933
 44
-535.2642124938693
 45
10.9520277214346
 46
-0.0000684758235829
 79
     2
 49
8.060547042975892
 49
-2551.147945737253
 53
83.85800000000008
 43
12130.93724639933
 44
-572.141311095941
 45
10.9520277214346
 46
-0.0000684758235829
 79
     2
 49
8.060547042975892
 49
-2551.147945737253
 53
83.85800000000008
 43
12130.93724639933
 44
-609.0184096980165
 45
10.9520277214346
 46
-0.0000684758235829
 79
     2
 49
8.060547042975892
 49
-2551.147945737253
 53
83.85800000000008
 43
12130.93724639933
 44
-645.8955083000846
 45
10.9520277214346
 46
-0.0000684758235829
 79
     2
 49
8.060547042975892
 49
-2551.147945737253
 53
83.85800000000008
 43
12130.93724639933
 44
-682.7726069021528
 45
10.9520277214346
 46
-0.0000684758235829
 79
     2
 49
8.060547042975892
 49
-2551.147945737253
 53
83.85800000000008
 43
12130.93724639933
 44
-719.6497055042282
 45
10.9520277214346
 46
-0.0000684758235829
 79
     2
 49
8.060547042975892
 49
-2551.147945737253
 53
83.25300000000003
 43
12126.79806251331
 44
1772.922722372812
 45
10.95204383447483
 46
0.0000798601498432
 79
     2
 49
7.399774995313283
 49
-4560.119085052519
 53
83.25300000000003
 43
12126.79806251331
 44
1736.045787668954
 45
10.95204383447483
 46
0.0000798601498432
 79
     2
 49
7.399774995313283
 49
-4560.119085052519
 53
83.25300000000003
 43
12126.79806251331
 44
1699.168689066882
 45
10.95204383447483
 46
0.0000798601498432
 79
     2
 49
7.399774995313283
 49
-4560.119085052519
 53
83.25300000000003
 43
12126.79806251331
 44
1662.291590464811
 45
10.95204383447483
 46
0.0000798601498432
 79
     2
 49
7.399774995313283
 49
-4560.119085052519
 53
83.25300000000003
 43
12126.79806251331
 44
1625.414491862742
 45
10.95204383447483
 46
0.0000798601498432
 79
     2
 49
7.399774995313283
 49
-4560.119085052519
 53
83.25300000000003
 43
12126.79806251331
 44
1588.53739326067
 45
10.95204383447483
 46
0.0000798601498432
 79
     2
 49
7.399774995313283
 49
-4560.119085052519
 53
83.25300000000003
 43
12126.79806251331
 44
1551.660294658595
 45
10.95204383447483
 46
0.0000798601498432
 79
     2
 49
7.399774995313283
 49
-4560.119085052519
 53
83.25300000000003
 43
12126.79806251331
 44
1514.783196056527
 45
10.95204383447483
 46
0.0000798601498432
 79
     2
 49
7.399774995313283
 49
-4560.119085052519
 53
83.25300000000003
 43
12126.79806251331
 44
1477.906097454452
 45
10.95204383447483
 46
0.0000798601498432
 79
     2
 49
7.399774995313283
 49
-4560.119085052519
 53
83.25300000000003
 43
12126.79806251331
 44
1441.03031003811
 45
10.95204383447483
 46
0.0000798601498432
 79
     2
 49
7.399774995313283
 49
-4560.119085052519
 53
83.25300000000003
 43
12126.79806251331
 44
1404.153211436041
 45
10.95204383447483
 46
0.0000798601498432
 79
     2
 49
7.399774995313283
 49
-4560.119085052519
 53
83.25300000000003
 43
12126.79806251331
 44
1367.276112833966
 45
10.95204383447483
 46
0.0000798601498432
 79
     2
 49
7.399774995313283
 49
-4560.119085052519
 53
83.25300000000003
 43
12126.79806251331
 44
1330.399014231898
 45
10.95204383447483
 46
0.0000798601498432
 79
     2
 49
7.399774995313283
 49
-4560.119085052519
 53
83.25300000000003
 43
12126.79806251331
 44
1293.521915629822
 45
10.95204383447483
 46
0.0000798601498432
 79
     2
 49
7.399774995313283
 49
-4560.119085052519
 53
83.25300000000003
 43
12126.79806251331
 44
1256.644817027747
 45
10.95204383447483
 46
0.0000798601498432
 79
     2
 49
7.399774995313283
 49
-4560.119085052519
 53
83.25300000000003
 43
12126.79806251331
 44
1219.767718425679
 45
10.95204383447483
 46
0.0000798601498432
 79
     2
 49
7.399774995313283
 49
-4560.119085052519
 53
83.25300000000003
 43
12126.79806251331
 44
1182.890619823611
 45
10.95204383447483
 46
0.0000798601498432
 79
     2
 49
7.399774995313283
 49
-4560.119085052519
 53
83.25300000000003
 43
12126.79806251331
 44
1146.013521221535
 45
10.95204383447483
 46
0.0000798601498432
 79
     2
 49
7.399774995313283
 49
-4560.119085052519
 53
83.25300000000003
 43
12126.79806251331
 44
1109.136422619463
 45
10.95204383447483
 46
0.0000798601498432
 79
     2
 49
7.399774995313283
 49
-4560.119085052519
 53
83.25300000000003
 43
12126.79806251331
 44
1072.259324017392
 45
10.95204383447483
 46
0.0000798601498432
 79
     2
 49
7.399774995313283
 49
-4560.119085052519
 53
83.25300000000003
 43
12126.79806251331
 44
1035.382225415323
 45
10.95204383447483
 46
0.0000798601498432
 79
     2
 49
7.399774995313283
 49
-4560.119085052519
 53
83.25300000000003
 43
12126.79806251331
 44
998.5051268132556
 45
10.95204383447483
 46
0.0000798601498432
 79
     2
 49
7.399774995313283
 49
-4560.119085052519
 53
83.25300000000003
 43
12126.79806251331
 44
961.6280282111802
 45
10.95204383447483
 46
0.0000798601498432
 79
     2
 49
7.399774995313283
 49
-4560.119085052519
 53
83.25300000000003
 43
12126.79806251331
 44
924.7509296091047
 45
10.95204383447483
 46
0.0000798601498432
 79
     2
 49
7.399774995313283
 49
-4560.119085052519
 53
83.25300000000003
 43
12126.79806251331
 44
887.8738310070366
 45
10.95204383447483
 46
0.0000798601498432
 79
     2
 49
7.399774995313283
 49
-4560.119085052519
 53
83.25300000000003
 43
12126.79806251331
 44
850.9967324049648
 45
10.95204383447483
 46
0.0000798601498432
 79
     2
 49
7.399774995313283
 49
-4560.119085052519
 53
83.25300000000003
 43
12126.79806251331
 44
814.119633802893
 45
10.95204383447483
 46
0.0000798601498432
 79
     2
 49
7.399774995313283
 49
-4560.119085052519
 53
83.25300000000003
 43
12126.79806251331
 44
777.2425352008212
 45
10.95204383447483
 46
0.0000798601498432
 79
     2
 49
7.399774995313283
 49
-4560.119085052519
 53
83.25300000000003
 43
12126.79806251331
 44
740.3654365987494
 45
10.95204383447483
 46
0.0000798601498432
 79
     2
 49
7.399774995313283
 49
-4560.119085052519
 53
83.25300000000003
 43
12126.79806251331
 44
703.4883379966777
 45
10.95204383447483
 46
0.0000798601498432
 79
     2
 49
7.399774995313283
 49
-4560.119085052519
 53
83.25300000000003
 43
12126.79806251331
 44
666.6112393946059
 45
10.95204383447483
 46
0.0000798601498432
 79
     2
 49
7.399774995313283
 49
-4560.119085052519
 53
83.25300000000003
 43
12126.79806251331
 44
629.7341407925341
 45
10.95204383447483
 46
0.0000798601498432
 79
     2
 49
7.399774995313283
 49
-4560.119085052519
 53
83.25300000000003
 43
12126.79806251331
 44
592.8570421904623
 45
10.95204383447483
 46
0.0000798601498432
 79
     2
 49
7.399774995313283
 49
-4560.119085052519
 53
83.25300000000003
 43
12126.79806251331
 44
555.9799435883942
 45
10.95204383447483
 46
0.0000798601498432
 79
     2
 49
7.399774995313283
 49
-4560.119085052519
 53
83.25300000000003
 43
12126.79806251331
 44
519.1028449863224
 45
10.95204383447483
 46
0.0000798601498432
 79
     2
 49
7.399774995313283
 49
-4560.119085052519
 53
83.25300000000003
 43
12126.79806251331
 44
482.2257463842507
 45
10.95204383447483
 46
0.0000798601498432
 79
     2
 49
7.399774995313283
 49
-4560.119085052519
 53
83.25300000000003
 43
12126.79806251331
 44
445.3486477821752
 45
10.95204383447483
 46
0.0000798601498432
 79
     2
 49
7.399774995313283
 49
-4560.119085052519
 53
83.25300000000003
 43
12126.79806251331
 44
408.4715491801071
 45
10.95204383447483
 46
0.0000798601498432
 79
     2
 49
7.399774995313283
 49
-4560.119085052519
 53
83.25300000000003
 43
12126.79806251331
 44
371.5944505780317
 45
10.95204383447483
 46
0.0000798601498432
 79
     2
 49
7.399774995313283
 49
-4560.119085052519
 53
83.25300000000003
 43
12126.79806251331
 44
334.7173519759635
 45
10.95204383447483
 46
0.0000798601498432
 79
     2
 49
7.399774995313283
 49
-4560.119085052519
 53
83.25300000000003
 43
12126.79806251331
 44
297.8402533738917
 45
10.95204383447483
 46
0.0000798601498432
 79
     2
 49
7.399774995313283
 49
-4560.119085052519
 53
83.25300000000003
 43
12126.79806251331
 44
260.96315477182
 45
10.95204383447483
 46
0.0000798601498432
 79
     2
 49
7.399774995313283
 49
-4560.119085052519
 53
83.25300000000003
 43
12126.79806251331
 44
224.0860561697473
 45
10.95204383447483
 46
0.0000798601498432
 79
     2
 49
7.399774995313283
 49
-4560.119085052519
 53
83.25300000000003
 43
12126.79806251331
 44
187.2089575676755
 45
10.95204383447483
 46
0.0000798601498432
 79
     2
 49
7.399774995313283
 49
-4560.119085052519
 53
83.25300000000003
 43
12126.79806251331
 44
150.3318589656037
 45
10.95204383447483
 46
0.0000798601498432
 79
     2
 49
7.399774995313283
 49
-4560.119085052519
 53
83.25300000000003
 43
12126.79806251331
 44
113.4547603635319
 45
10.95204383447483
 46
0.0000798601498432
 79
     2
 49
7.399774995313283
 49
-4560.119085052519
 53
83.25300000000003
 43
12126.79806251331
 44
76.57766176146378
 45
10.95204383447483
 46
0.0000798601498432
 79
     2
 49
7.399774995313283
 49
-4560.119085052519
 53
83.25300000000003
 43
12126.79806251331
 44
39.70056315938837
 45
10.95204383447483
 46
0.0000798601498432
 79
     2
 49
7.399774995313283
 49
-4560.119085052519
 53
83.25300000000003
 43
12126.79806251331
 44
2.823464557316583
 45
10.95204383447483
 46
0.0000798601498432
 79
     2
 49
7.399774995313283
 49
-4560.119085052519
 53
83.25300000000003
 43
12126.79806251331
 44
-34.0536340447552
 45
10.95204383447483
 46
0.0000798601498432
 79
     2
 49
7.399774995313283
 49
-4560.119085052519
 53
83.25300000000003
 43
12126.79806251331
 44
-70.93073264682698
 45
10.95204383447483
 46
0.0000798601498432
 79
     2
 49
7.399774995313283
 49
-4560.119085052519
 53
83.25300000000003
 43
12126.79806251331
 44
-107.8078312488951
 45
10.95204383447483
 46
0.0000798601498432
 79
     2
 49
7.399774995313283
 49
-4560.119085052519
 53
83.25300000000003
 43
12126.79806251331
 44
-144.6849298509669
 45
10.95204383447483
 46
0.0000798601498432
 79
     2
 49
7.399774995313283
 49
-4560.119085052519
 53
83.25300000000003
 43
12126.79806251331
 44
-181.5620284530387
 45
10.95204383447483
 46
0.0000798601498432
 79
     2
 49
7.399774995313283
 49
-4560.119085052519
 53
83.25300000000003
 43
12126.79806251331
 44
-218.4391270551141
 45
10.95204383447483
 46
0.0000798601498432
 79
     2
 49
7.399774995313283
 49
-4560.119085052519
 53
83.25300000000003
 43
12126.79806251331
 44
-255.3162256571823
 45
10.95204383447483
 46
0.0000798601498432
 79
     2
 49
7.399774995313283
 49
-4560.119085052519
 53
83.25300000000003
 43
12126.79806251331
 44
-292.1933242592577
 45
10.95204383447483
 46
0.0000798601498432
 79
     2
 49
7.399774995313283
 49
-4560.119085052519
 53
83.25300000000003
 43
12126.79806251331
 44
-329.0704228613258
 45
10.95204383447483
 46
0.0000798601498432
 79
     2
 49
7.399774995313283
 49
-4560.119085052519
 53
83.25300000000003
 43
12126.79806251331
 44
-365.9475214633976
 45
10.95204383447483
 46
0.0000798601498432
 79
     2
 49
7.399774995313283
 49
-4560.119085052519
 53
83.25300000000003
 43
12126.79806251331
 44
-402.8246200654693
 45
10.95204383447483
 46
0.0000798601498432
 79
     2
 49
7.399774995313283
 49
-4560.119085052519
 53
83.25300000000003
 43
12126.79806251331
 44
-439.7017186675411
 45
10.95204383447483
 46
0.0000798601498432
 79
     2
 49
7.399774995313283
 49
-4560.119085052519
 53
83.25300000000003
 43
12126.79806251331
 44
-476.5788172696129
 45
10.95204383447483
 46
0.0000798601498432
 79
     2
 49
7.399774995313283
 49
-4560.119085052519
 53
83.25300000000003
 43
12126.79806251331
 44
-513.4559158716847
 45
10.95204383447483
 46
0.0000798601498432
 79
     2
 49
7.399774995313283
 49
-4560.119085052519
 53
83.25300000000003
 43
12126.79806251331
 44
-550.3330144737565
 45
10.95204383447483
 46
0.0000798601498432
 79
     2
 49
7.399774995313283
 49
-4560.119085052519
 53
83.25300000000003
 43
12126.79806251331
 44
-587.2101130758283
 45
10.95204383447483
 46
0.0000798601498432
 79
     2
 49
7.399774995313283
 49
-4560.119085052519
 53
83.25300000000003
 43
12126.79806251331
 44
-624.0872116778964
 45
10.95204383447483
 46
0.0000798601498432
 79
     2
 49
7.399774995313283
 49
-4560.119085052519
 53
83.25300000000003
 43
12126.79806251331
 44
-660.9643102799719
 45
10.95204383447483
 46
0.0000798601498432
 79
     2
 49
7.399774995313283
 49
-4560.119085052519
 53
83.25300000000003
 43
12126.79806251331
 44
-697.8414088820436
 45
10.95204383447483
 46
0.0000798601498432
 79
     2
 49
7.399774995313283
 49
-4560.119085052519
 53
83.25300000000003
 43
12126.79806251331
 44
-734.7185074841154
 45
10.95204383447483
 46
0.0000798601498432
 79
     2
 49
7.399774995313283
 49
-4560.119085052519
 53
83.25300000000003
 43
12126.79806251331
 44
-771.5956060861835
 45
10.95204383447483
 46
0.0000798601498432
 79
     2
 49
7.399774995313283
 49
-4560.119085052519
 53
83.25300000000003
 43
12126.79806251331
 44
-808.4727046882553
 45
10.95204383447483
 46
0.0000798601498432
 79
     2
 49
7.399774995313283
 49
-4560.119085052519
 53
83.25300000000003
 43
12126.79806251331
 44
-845.349803290327
 45
10.95204383447483
 46
0.0000798601498432
 79
     2
 49
7.399774995313283
 49
-4560.119085052519
 53
83.25300000000003
 43
12126.79806251331
 44
-882.2269018924025
 45
10.95204383447483
 46
0.0000798601498432
 79
     2
 49
7.399774995313283
 49
-4560.119085052519
 53
83.25300000000003
 43
12126.79806251331
 44
-919.1040004944706
 45
10.95204383447483
 46
0.0000798601498432
 79
     2
 49
7.399774995313283
 49
-4560.119085052519
 53
83.25300000000003
 43
12126.79806251331
 44
-955.9810990965388
 45
10.95204383447483
 46
0.0000798601498432
 79
     2
 49
7.399774995313283
 49
-4560.119085052519
 53
83.25300000000003
 43
12126.79806251331
 44
-992.8581976986142
 45
10.95204383447483
 46
0.0000798601498432
 79
     2
 49
7.399774995313283
 49
-4560.119085052519
 53
83.25300000000003
 43
12126.79806251331
 44
-1029.735296300686
 45
10.95204383447483
 46
0.0000798601498432
 79
     2
 49
7.399774995313283
 49
-4560.119085052519
 53
83.25300000000003
 43
12126.79806251331
 44
-1066.612394902758
 45
10.95204383447483
 46
0.0000798601498432
 79
     2
 49
7.399774995313283
 49
-4560.119085052519
 53
83.25300000000003
 43
12126.79806251331
 44
-1103.489493504829
 45
10.95204383447483
 46
0.0000798601498432
 79
     2
 49
7.399774995313283
 49
-4560.119085052519
 53
83.25300000000003
 43
12126.79806251331
 44
-1140.366592106901
 45
10.95204383447483
 46
0.0000798601498432
 79
     2
 49
7.399774995313283
 49
-4560.119085052519
 53
83.25300000000003
 43
12126.79806251331
 44
-1177.243690708973
 45
10.95204383447483
 46
0.0000798601498432
 79
     2
 49
7.399774995313283
 49
-4560.119085052519
 53
83.25300000000003
 43
12126.79806251331
 44
-1214.120789311045
 45
10.95204383447483
 46
0.0000798601498432
 79
     2
 49
7.399774995313283
 49
-4560.119085052519
 53
83.25300000000003
 43
12126.79806251331
 44
-1250.997887913117
 45
10.95204383447483
 46
0.0000798601498432
 79
     2
 49
7.399774995313283
 49
-4560.119085052519
 53
83.25300000000003
 43
12126.79806251331
 44
-1287.874986515185
 45
10.95204383447483
 46
0.0000798601498432
 79
     2
 49
7.399774995313283
 49
-4560.119085052519
 53
83.25300000000003
 43
12126.79806251331
 44
-1324.75208511726
 45
10.95204383447483
 46
0.0000798601498432
 79
     2
 49
7.399774995313283
 49
-4560.119085052519
 53
83.25300000000003
 43
12126.79806251331
 44
-1361.629183719332
 45
10.95204383447483
 46
0.0000798601498432
 79
     2
 49
7.399774995313283
 49
-4560.119085052519
 53
83.25300000000003
 43
12126.79806251331
 44
-1398.5062823214
 45
10.95204383447483
 46
0.0000798601498432
 79
     2
 49
7.399774995313283
 49
-4560.119085052519
 53
83.25300000000003
 43
12126.79806251331
 44
-1435.383380923472
 45
10.95204383447483
 46
0.0000798601498432
 79
     2
 49
7.399774995313283
 49
-4560.119085052519
 53
83.25300000000003
 43
12126.79806251331
 44
-1472.260479525544
 45
10.95204383447483
 46
0.0000798601498432
 79
     2
 49
7.399774995313283
 49
-4560.119085052519
 53
83.25300000000003
 43
12126.79806251331
 44
-1509.140856091938
 45
10.95204383447483
 46
0.0000798601498432
 79
     2
 49
7.399774995313283
 49
-4560.119085052519
 53
83.25300000000003
 43
12126.79806251331
 44
-1546.01795469401
 45
10.95204383447483
 46
0.0000798601498432
 79
     2
 49
7.399774995313283
 49
-4560.119085052519
 53
83.25300000000003
 43
12126.79806251331
 44
-1582.895053296082
 45
10.95204383447483
 46
0.0000798601498432
 79
     2
 49
7.399774995313283
 49
-4560.119085052519
 53
83.25300000000003
 43
12126.79806251331
 44
-1619.77215189815
 45
10.95204383447483
 46
0.0000798601498432
 79
     2
 49
7.399774995313283
 49
-4560.119085052519
 53
83.25300000000003
 43
12126.79806251331
 44
-1656.649250500221
 45
10.95204383447483
 46
0.0000798601498432
 79
     2
 49
7.399774995313283
 49
-4560.119085052519
 53
83.25300000000003
 43
12126.79806251331
 44
-1693.526349102297
 45
10.95204383447483
 46
0.0000798601498432
 79
     2
 49
7.399774995313283
 49
-4560.119085052519
 53
83.25300000000003
 43
12126.79806251331
 44
-1730.403447704369
 45
10.95204383447483
 46
0.0000798601498432
 79
     2
 49
7.399774995313283
 49
-4560.119085052519
 53
83.25300000000003
 43
12126.79806251331
 44
-1767.28054630644
 45
10.95204383447483
 46
0.0000798601498432
 79
     2
 49
7.399774995313283
 49
-4560.119085052519
 53
83.25300000000003
 43
12126.79806251331
 44
-1804.157644908512
 45
10.95204383447483
 46
0.0000798601498432
 79
     2
 49
7.399774995313283
 49
-4560.119085052519
 53
83.25300000000003
 43
12126.79806251331
 44
-1841.03474351058
 45
10.95204383447483
 46
0.0000798601498432
 79
     2
 49
7.399774995313283
 49
-4560.119085052519
 53
83.25300000000003
 43
12126.79806251331
 44
-1877.911842112652
 45
10.95204383447483
 46
0.0000798601498432
 79
     2
 49
7.399774995313283
 49
-4560.119085052519
 53
83.25300000000003
 43
12126.79806251331
 44
-1914.788940714728
 45
10.95204383447483
 46
0.0000798601498432
 79
     2
 49
7.399774995313283
 49
-4560.119085052519
 53
83.25300000000003
 43
12126.79806251331
 44
-1951.666039316796
 45
10.95204383447483
 46
0.0000798601498432
 79
     2
 49
7.399774995313283
 49
-4560.119085052519
 53
83.25300000000003
 43
12126.79806251331
 44
-1988.543137918868
 45
10.95204383447483
 46
0.0000798601498432
 79
     2
 49
7.399774995313283
 49
-4560.119085052519
 53
83.25300000000003
 43
12126.79806251331
 44
-2025.42023652094
 45
10.95204383447483
 46
0.0000798601498432
 79
     2
 49
7.399774995313283
 49
-4560.119085052519
 53
83.25300000000003
 43
12126.79806251331
 44
-2062.297335123011
 45
10.95204383447483
 46
0.0000798601498432
 79
     2
 49
7.399774995313283
 49
-4560.119085052519
 53
83.25300000000003
 43
12126.79806251331
 44
-2099.174433725083
 45
10.95204383447483
 46
0.0000798601498432
 79
     2
 49
7.399774995313283
 49
-4560.119085052519
 53
83.25300000000003
 43
12126.79806251331
 44
-2136.051532327155
 45
10.95204383447483
 46
0.0000798601498432
 79
     2
 49
7.399774995313283
 49
-4560.119085052519
 53
83.25300000000003
 43
12126.79806251331
 44
-2172.928630929227
 45
10.95204383447483
 46
0.0000798601498432
 79
     2
 49
7.399774995313283
 49
-4560.119085052519
 53
83.25300000000003
 43
12126.79806251331
 44
-2209.805729531298
 45
10.95204383447483
 46
0.0000798601498432
 79
     2
 49
7.399774995313283
 49
-4560.119085052519
 53
83.25300000000003
 43
12126.79806251331
 44
-2246.682828133374
 45
10.95204383447483
 46
0.0000798601498432
 79
     2
 49
7.399774995313283
 49
-4560.119085052519
 53
83.25300000000003
 43
12126.79806251331
 44
-2283.559926735442
 45
10.95204383447483
 46
0.0000798601498432
 79
     2
 49
7.399774995313283
 49
-4560.119085052519
 53
83.25300000000003
 43
12126.79806251331
 44
-2320.437025337514
 45
10.95204383447483
 46
0.0000798601498432
 79
     2
 49
7.399774995313283
 49
-4560.119085052519
 53
83.25300000000003
 43
12126.79806251331
 44
-2357.314123939586
 45
10.95204383447483
 46
0.0000798601498432
 79
     2
 49
7.399774995313283
 49
-4560.119085052519
 53
83.25300000000003
 43
12126.79806251331
 44
-2394.191222541657
 45
10.95204383447483
 46
0.0000798601498432
 79
     2
 49
7.399774995313283
 49
-4560.119085052519
 53
83.25300000000003
 43
12126.79806251331
 44
-2431.068321143729
 45
10.95204383447483
 46
0.0000798601498432
 79
     2
 49
7.399774995313283
 49
-4560.119085052519
 53
83.25300000000003
 43
12126.79806251331
 44
-2467.945419745801
 45
10.95204383447483
 46
0.0000798601498432
 79
     2
 49
7.399774995313283
 49
-4560.119085052519
 53
83.25300000000003
 43
12126.79806251331
 44
-2504.822518347869
 45
10.95204383447483
 46
0.0000798601498432
 79
     2
 49
7.399774995313283
 49
-4560.119085052519
 53
83.25300000000003
 43
12126.79806251331
 44
-2541.699616949941
 45
10.95204383447483
 46
0.0000798601498432
 79
     2
 49
7.399774995313283
 49
-4560.119085052519
 53
83.25300000000003
 43
12126.79806251331
 44
-2578.576715552016
 45
10.95204383447483
 46
0.0000798601498432
 79
     2
 49
7.399774995313283
 49
-4560.119085052519
 53
83.25300000000003
 43
12126.79806251331
 44
-2615.453814154085
 45
10.95204383447483
 46
0.0000798601498432
 79
     2
 49
7.399774995313283
 49
-4560.119085052519
 53
83.25300000000003
 43
12126.79806251331
 44
-2652.330912756156
 45
10.95204383447483
 46
0.0000798601498432
 79
     2
 49
7.399774995313283
 49
-4560.119085052519
 53
83.25300000000003
 43
12126.79806251331
 44
-2689.208011358228
 45
10.95204383447483
 46
0.0000798601498432
 79
     2
 49
7.399774995313283
 49
-4560.119085052519
 53
83.25300000000003
 43
12126.79806251331
 44
-2726.0851099603
 45
10.95204383447483
 46
0.0000798601498432
 79
     2
 49
7.399774995313283
 49
-4560.119085052519
 53
74.89100000000004
 43
12125.19461348645
 44
1769.409236316224
 45
10.95202665113163
 46
-0.000003043705463
 79
     2
 49
3.63896653076602
 49
-416.5337124354707
 53
74.89100000000004
 43
12125.19461348645
 44
1732.532137714148
 45
10.95202665113163
 46
-0.000003043705463
 79
     2
 49
3.63896653076602
 49
-416.5337124354707
 53
74.89100000000004
 43
12125.19461348645
 44
1695.65503911208
 45
10.95202665113163
 46
-0.000003043705463
 79
     2
 49
3.63896653076602
 49
-416.5337124354707
 53
74.89100000000004
 43
12125.19461348645
 44
1658.777940510004
 45
10.95202665113163
 46
-0.000003043705463
 79
     2
 49
3.63896653076602
 49
-416.5337124354707
 53
74.89100000000004
 43
12125.19461348645
 44
1621.900841907932
 45
10.95202665113163
 46
-0.000003043705463
 79
     2
 49
3.63896653076602
 49
-416.5337124354707
 53
74.89100000000004
 43
12125.19461348645
 44
1585.023743305861
 45
10.95202665113163
 46
-0.000003043705463
 79
     2
 49
3.63896653076602
 49
-416.5337124354707
 53
74.89100000000004
 43
12125.19461348645
 44
1548.146644703793
 45
10.95202665113163
 46
-0.000003043705463
 79
     2
 49
3.63896653076602
 49
-416.5337124354707
 53
74.89100000000004
 43
12125.19461348645
 44
1511.269546101717
 45
10.95202665113163
 46
-0.000003043705463
 79
     2
 49
3.63896653076602
 49
-416.5337124354707
 53
74.89100000000004
 43
12125.19461348645
 44
1474.393430888947
 45
10.95202665113163
 46
-0.000003043705463
 79
     2
 49
3.63896653076602
 49
-416.5337124354707
 53
74.89100000000004
 43
12125.19461348645
 44
1437.516332286872
 45
10.95202665113163
 46
-0.000003043705463
 79
     2
 49
3.63896653076602
 49
-416.5337124354707
 53
74.89100000000004
 43
12125.19461348645
 44
1400.6392336848
 45
10.95202665113163
 46
-0.000003043705463
 79
     2
 49
3.63896653076602
 49
-416.5337124354707
 53
67.06200000000002
 43
12127.66911597211
 44
1780.271066107936
 45
10.95204222691618
 46
0.0000810236171289
 79
     2
 49
8.386475035331908
 49
-1593.356600854788
 53
67.06200000000002
 43
12127.66911597211
 44
1743.394000285512
 45
10.95204222691618
 46
0.0000810236171289
 79
     2
 49
8.386475035331908
 49
-1593.356600854788
 53
67.06200000000002
 43
12127.66911597211
 44
1706.51690168344
 45
10.95204222691618
 46
0.0000810236171289
 79
     2
 49
8.386475035331908
 49
-1593.356600854788
 53
67.06200000000002
 43
12127.66911597211
 44
1669.639803081369
 45
10.95204222691618
 46
0.0000810236171289
 79
     2
 49
8.386475035331908
 49
-1593.356600854788
 53
67.06200000000002
 43
12127.66911597211
 44
1632.762704479293
 45
10.95204222691618
 46
0.0000810236171289
 79
     2
 49
8.386475035331908
 49
-1593.356600854788
 53
67.06200000000002
 43
12127.66911597211
 44
1595.885605877225
 45
10.95204222691618
 46
0.0000810236171289
 79
     2
 49
8.386475035331908
 49
-1593.356600854788
 53
67.06200000000002
 43
12127.66911597211
 44
1559.008507275154
 45
10.95204222691618
 46
0.0000810236171289
 79
     2
 49
8.386475035331908
 49
-1593.356600854788
 53
67.06200000000002
 43
12127.66911597211
 44
1522.131408673082
 45
10.95204222691618
 46
0.0000810236171289
 79
     2
 49
8.386475035331908
 49
-1593.356600854788
 53
67.06200000000002
 43
12127.66911597211
 44
1485.254310071013
 45
10.95204222691618
 46
0.0000810236171289
 79
     2
 49
8.386475035331908
 49
-1593.356600854788
 53
67.06200000000002
 43
12127.66911597211
 44
1448.37622807964
 45
10.95204222691618
 46
0.0000810236171289
 79
     2
 49
8.386475035331908
 49
-1593.356600854788
 53
67.06200000000002
 43
12127.66911597211
 44
1411.499129477572
 45
10.95204222691618
 46
0.0000810236171289
 79
     2
 49
8.386475035331908
 49
-1593.356600854788
 53
67.06200000000002
 43
12127.66911597211
 44
1374.622030875496
 45
10.95204222691618
 46
0.0000810236171289
 79
     2
 49
8.386475035331908
 49
-1593.356600854788
 53
67.06200000000002
 43
12127.66911597211
 44
1337.744932273428
 45
10.95204222691618
 46
0.0000810236171289
 79
     2
 49
8.386475035331908
 49
-1593.356600854788
 53
67.06200000000002
 43
12127.66911597211
 44
1300.86783367136
 45
10.95204222691618
 46
0.0000810236171289
 79
     2
 49
8.386475035331908
 49
-1593.356600854788
 53
67.06200000000002
 43
12127.66911597211
 44
1263.990735069285
 45
10.95204222691618
 46
0.0000810236171289
 79
     2
 49
8.386475035331908
 49
-1593.356600854788
 53
67.06200000000002
 43
12127.66911597211
 44
1227.113636467217
 45
10.95204222691618
 46
0.0000810236171289
 79
     2
 49
8.386475035331908
 49
-1593.356600854788
 53
67.06200000000002
 43
12127.66911597211
 44
1190.236537865141
 45
10.95204222691618
 46
0.0000810236171289
 79
     2
 49
8.386475035331908
 49
-1593.356600854788
 53
67.06200000000002
 43
12127.66911597211
 44
1153.359439263065
 45
10.95204222691618
 46
0.0000810236171289
 79
     2
 49
8.386475035331908
 49
-1593.356600854788
 53
67.06200000000002
 43
12127.66911597211
 44
1116.482340660997
 45
10.95204222691618
 46
0.0000810236171289
 79
     2
 49
8.386475035331908
 49
-1593.356600854788
 53
67.06200000000002
 43
12127.66911597211
 44
1079.605242058929
 45
10.95204222691618
 46
0.0000810236171289
 79
     2
 49
8.386475035331908
 49
-1593.356600854788
 53
67.06200000000002
 43
12127.66911597211
 44
1042.728143456854
 45
10.95204222691618
 46
0.0000810236171289
 79
     2
 49
8.386475035331908
 49
-1593.356600854788
 53
67.06200000000002
 43
12127.66911597211
 44
1005.851044854782
 45
10.95204222691618
 46
0.0000810236171289
 79
     2
 49
8.386475035331908
 49
-1593.356600854788
 53
67.06200000000002
 43
12127.66911597211
 44
968.9739462527104
 45
10.95204222691618
 46
0.0000810236171289
 79
     2
 49
8.386475035331908
 49
-1593.356600854788
 53
67.06200000000002
 43
12127.66911597211
 44
932.0968476506386
 45
10.95204222691618
 46
0.0000810236171289
 79
     2
 49
8.386475035331908
 49
-1593.356600854788
 53
67.06200000000002
 43
12127.66911597211
 44
895.2197490485705
 45
10.95204222691618
 46
0.0000810236171289
 79
     2
 49
8.386475035331908
 49
-1593.356600854788
 53
67.06200000000002
 43
12127.66911597211
 44
858.3426504464988
 45
10.95204222691618
 46
0.0000810236171289
 79
     2
 49
8.386475035331908
 49
-1593.356600854788
 53
67.06200000000002
 43
12127.66911597211
 44
821.4655518444233
 45
10.95204222691618
 46
0.0000810236171289
 79
     2
 49
8.386475035331908
 49
-1593.356600854788
 53
67.06200000000002
 43
12127.66911597211
 44
784.5884532423552
 45
10.95204222691618
 46
0.0000810236171289
 79
     2
 49
8.386475035331908
 49
-1593.356600854788
 53
67.06200000000002
 43
12127.66911597211
 44
747.7113546402834
 45
10.95204222691618
 46
0.0000810236171289
 79
     2
 49
8.386475035331908
 49
-1593.356600854788
 53
67.06200000000002
 43
12127.66911597211
 44
710.8342560382116
 45
10.95204222691618
 46
0.0000810236171289
 79
     2
 49
8.386475035331908
 49
-1593.356600854788
 53
67.06200000000002
 43
12127.66911597211
 44
673.9571574361361
 45
10.95204222691618
 46
0.0000810236171289
 79
     2
 49
8.386475035331908
 49
-1593.356600854788
 53
67.06200000000002
 43
12127.66911597211
 44
637.080058834068
 45
10.95204222691618
 46
0.0000810236171289
 79
     2
 49
8.386475035331908
 49
-1593.356600854788
 53
67.06200000000002
 43
12127.66911597211
 44
600.2029602319963
 45
10.95204222691618
 46
0.0000810236171289
 79
     2
 49
8.386475035331908
 49
-1593.356600854788
 53
67.06200000000002
 43
12127.66911597211
 44
563.3258616299245
 45
10.95204222691618
 46
0.0000810236171289
 79
     2
 49
8.386475035331908
 49
-1593.356600854788
 53
67.06200000000002
 43
12127.66911597211
 44
526.4487630278527
 45
10.95204222691618
 46
0.0000810236171289
 79
     2
 49
8.386475035331908
 49
-1593.356600854788
 53
67.06200000000002
 43
12127.66911597211
 44
489.5716644257809
 45
10.95204222691618
 46
0.0000810236171289
 79
     2
 49
8.386475035331908
 49
-1593.356600854788
 53
67.06200000000002
 43
12127.66911597211
 44
452.6945658237091
 45
10.95204222691618
 46
0.0000810236171289
 79
     2
 49
8.386475035331908
 49
-1593.356600854788
 53
67.06200000000002
 43
12127.66911597211
 44
415.8174672216409
 45
10.95204222691618
 46
0.0000810236171289
 79
     2
 49
8.386475035331908
 49
-1593.356600854788
 53
67.06200000000002
 43
12127.66911597211
 44
378.9403686195692
 45
10.95204222691618
 46
0.0000810236171289
 79
     2
 49
8.386475035331908
 49
-1593.356600854788
 53
67.06200000000002
 43
12127.66911597211
 44
342.0632700174938
 45
10.95204222691618
 46
0.0000810236171289
 79
     2
 49
8.386475035331908
 49
-1593.356600854788
 53
52.43499999999998
 43
12121.14083204383
 44
1796.00880226665
 45
10.95203172552474
 46
-0.000054871588512
 79
     2
 49
4.503300162712174
 49
-1809.889024393906
 53
52.43499999999998
 43
12121.14083204383
 44
1759.131834783151
 45
10.95203172552474
 46
-0.000054871588512
 79
     2
 49
4.503300162712174
 49
-1809.889024393906
 53
52.43499999999998
 43
12121.14083204383
 44
1722.254736181076
 45
10.95203172552474
 46
-0.000054871588512
 79
     2
 49
4.503300162712174
 49
-1809.889024393906
 53
52.43499999999998
 43
12121.14083204383
 44
1685.377637579
 45
10.95203172552474
 46
-0.000054871588512
 79
     2
 49
4.503300162712174
 49
-1809.889024393906
 53
52.43499999999998
 43
12121.14083204383
 44
1648.500538976932
 45
10.95203172552474
 46
-0.000054871588512
 79
     2
 49
4.503300162712174
 49
-1809.889024393906
 53
52.43499999999998
 43
12121.14083204383
 44
1611.623440374864
 45
10.95203172552474
 46
-0.000054871588512
 79
     2
 49
4.503300162712174
 49
-1809.889024393906
 53
52.43499999999998
 43
12121.14083204383
 44
1574.746341772792
 45
10.95203172552474
 46
-0.000054871588512
 79
     2
 49
4.503300162712174
 49
-1809.889024393906
 53
52.43499999999998
 43
12121.14083204383
 44
1537.86924317072
 45
10.95203172552474
 46
-0.000054871588512
 79
     2
 49
4.503300162712174
 49
-1809.889024393906
 53
52.43499999999998
 43
12121.14083204383
 44
1500.992144568645
 45
10.95203172552474
 46
-0.000054871588512
 79
     2
 49
4.503300162712174
 49
-1809.889024393906
 53
52.43499999999998
 43
12121.14083204383
 44
1464.113734780843
 45
10.95203172552474
 46
-0.000054871588512
 79
     2
 49
4.503300162712174
 49
-1809.889024393906
 53
52.43499999999998
 43
12121.14083204383
 44
1427.236636178775
 45
10.95203172552474
 46
-0.000054871588512
 79
     2
 49
4.503300162712174
 49
-1809.889024393906
 53
52.43499999999998
 43
12121.14083204383
 44
1390.359537576707
 45
10.95203172552474
 46
-0.000054871588512
 79
     2
 49
4.503300162712174
 49
-1809.889024393906
 53
52.43499999999998
 43
12121.14083204383
 44
1353.482438974632
 45
10.95203172552474
 46
-0.000054871588512
 79
     2
 49
4.503300162712174
 49
-1809.889024393906
 53
52.43499999999998
 43
12121.14083204383
 44
1316.605340372556
 45
10.95203172552474
 46
-0.000054871588512
 79
     2
 49
4.503300162712174
 49
-1809.889024393906
 53
52.43499999999998
 43
12121.14083204383
 44
1279.728241770488
 45
10.95203172552474
 46
-0.000054871588512
 79
     2
 49
4.503300162712174
 49
-1809.889024393906
 53
52.43499999999998
 43
12121.14083204383
 44
1242.85114316842
 45
10.95203172552474
 46
-0.000054871588512
 79
     2
 49
4.503300162712174
 49
-1809.889024393906
 53
52.43499999999998
 43
12121.14083204383
 44
1205.974044566344
 45
10.95203172552474
 46
-0.000054871588512
 79
     2
 49
4.503300162712174
 49
-1809.889024393906
 53
52.43499999999998
 43
12121.14083204383
 44
1169.096945964276
 45
10.95203172552474
 46
-0.000054871588512
 79
     2
 49
4.503300162712174
 49
-1809.889024393906
 53
52.43499999999998
 43
12121.14083204383
 44
1132.219847362201
 45
10.95203172552474
 46
-0.000054871588512
 79
     2
 49
4.503300162712174
 49
-1809.889024393906
 53
52.43499999999998
 43
12121.14083204383
 44
1095.342748760133
 45
10.95203172552474
 46
-0.000054871588512
 79
     2
 49
4.503300162712174
 49
-1809.889024393906
 53
52.43499999999998
 43
12121.14083204383
 44
1058.465650158065
 45
10.95203172552474
 46
-0.000054871588512
 79
     2
 49
4.503300162712174
 49
-1809.889024393906
 53
52.43499999999998
 43
12121.14083204383
 44
1021.588551555989
 45
10.95203172552474
 46
-0.000054871588512
 79
     2
 49
4.503300162712174
 49
-1809.889024393906
 53
52.43499999999998
 43
12121.14083204383
 44
984.7114529539139
 45
10.95203172552474
 46
-0.000054871588512
 79
     2
 49
4.503300162712174
 49
-1809.889024393906
 53
52.43499999999998
 43
12121.14083204383
 44
947.8343543518459
 45
10.95203172552474
 46
-0.000054871588512
 79
     2
 49
4.503300162712174
 49
-1809.889024393906
 53
52.43499999999998
 43
12121.14083204383
 44
910.9572557497704
 45
10.95203172552474
 46
-0.000054871588512
 79
     2
 49
4.503300162712174
 49
-1809.889024393906
 53
52.43499999999998
 43
12121.14083204383
 44
874.0801571477023
 45
10.95203172552474
 46
-0.000054871588512
 79
     2
 49
4.503300162712174
 49
-1809.889024393906
 53
52.43499999999998
 43
12121.14083204383
 44
837.2030585456268
 45
10.95203172552474
 46
-0.000054871588512
 79
     2
 49
4.503300162712174
 49
-1809.889024393906
 53
52.43499999999998
 43
12121.14083204383
 44
800.3259599435587
 45
10.95203172552474
 46
-0.000054871588512
 79
     2
 49
4.503300162712174
 49
-1809.889024393906
 53
52.43499999999998
 43
12121.14083204383
 44
763.4488613414869
 45
10.95203172552474
 46
-0.000054871588512
 79
     2
 49
4.503300162712174
 49
-1809.889024393906
 53
52.43499999999998
 43
12121.14083204383
 44
726.5717627394151
 45
10.95203172552474
 46
-0.000054871588512
 79
     2
 49
4.503300162712174
 49
-1809.889024393906
 53
52.43499999999998
 43
12121.14083204383
 44
689.6946641373433
 45
10.95203172552474
 46
-0.000054871588512
 79
     2
 49
4.503300162712174
 49
-1809.889024393906
 53
52.43499999999998
 43
12121.14083204383
 44
652.8175655352716
 45
10.95203172552474
 46
-0.000054871588512
 79
     2
 49
4.503300162712174
 49
-1809.889024393906
 53
52.43499999999998
 43
12121.14083204383
 44
615.9404669332034
 45
10.95203172552474
 46
-0.000054871588512
 79
     2
 49
4.503300162712174
 49
-1809.889024393906
 53
52.43499999999998
 43
12121.14083204383
 44
579.063368331128
 45
10.95203172552474
 46
-0.000054871588512
 79
     2
 49
4.503300162712174
 49
-1809.889024393906
 53
52.43499999999998
 43
12121.14083204383
 44
542.1862697290598
 45
10.95203172552474
 46
-0.000054871588512
 79
     2
 49
4.503300162712174
 49
-1809.889024393906
 53
52.43499999999998
 43
12121.14083204383
 44
505.3091711269844
 45
10.95203172552474
 46
-0.000054871588512
 79
     2
 49
4.503300162712174
 49
-1809.889024393906
 53
52.43499999999998
 43
12121.14083204383
 44
468.4320725249127
 45
10.95203172552474
 46
-0.000054871588512
 79
     2
 49
4.503300162712174
 49
-1809.889024393906
 53
52.43499999999998
 43
12121.14083204383
 44
431.5549739228409
 45
10.95203172552474
 46
-0.000054871588512
 79
     2
 49
4.503300162712174
 49
-1809.889024393906
 53
52.43499999999998
 43
12121.14083204383
 44
394.6778753207727
 45
10.95203172552474
 46
-0.000054871588512
 79
     2
 49
4.503300162712174
 49
-1809.889024393906
 53
25.04599999999999
 43
12120.99426278621
 44
1767.446719077728
 45
10.95203652759968
 46
0.0000881814618674
 79
     2
 49
4.636287175181985
 49
-2957.10206110897
 53
25.04599999999999
 43
12120.99426278621
 44
1730.569620475657
 45
10.95203652759968
 46
0.0000881814618674
 79
     2
 49
4.636287175181985
 49
-2957.10206110897
 53
25.04599999999999
 43
12120.99426278621
 44
1693.692521873581
 45
10.95203652759968
 46
0.0000881814618674
 79
     2
 49
4.636287175181985
 49
-2957.10206110897
 53
25.04599999999999
 43
12120.99426278621
 44
1656.815423271513
 45
10.95203652759968
 46
0.0000881814618674
 79
     2
 49
4.636287175181985
 49
-2957.10206110897
 53
25.04599999999999
 43
12120.99426278621
 44
1619.938324669438
 45
10.95203652759968
 46
0.0000881814618674
 79
     2
 49
4.636287175181985
 49
-2957.10206110897
 53
25.04599999999999
 43
12120.99426278621
 44
1583.06122606737
 45
10.95203652759968
 46
0.0000881814618674
 79
     2
 49
4.636287175181985
 49
-2957.10206110897
 53
25.04599999999999
 43
12120.99426278621
 44
1546.184127465298
 45
10.95203652759968
 46
0.0000881814618674
 79
     2
 49
4.636287175181985
 49
-2957.10206110897
 53
25.04599999999999
 43
12120.99426278621
 44
1509.307028863226
 45
10.95203652759968
 46
0.0000881814618674
 79
     2
 49
4.636287175181985
 49
-2957.10206110897
 53
25.04599999999999
 43
12120.99426278621
 44
1472.42993026115
 45
10.95203652759968
 46
0.0000881814618674
 79
     2
 49
4.636287175181985
 49
-2957.10206110897
 53
25.04599999999999
 43
12120.99426278621
 44
1435.552831659082
 45
10.95203652759968
 46
0.0000881814618674
 79
     2
 49
4.636287175181985
 49
-2957.10206110897
 53
25.04599999999999
 43
12120.99426278621
 44
1398.675733057007
 45
10.95203652759968
 46
0.0000881814618674
 79
     2
 49
4.636287175181985
 49
-2957.10206110897
 53
25.04599999999999
 43
12120.99426278621
 44
1361.798634454939
 45
10.95203652759968
 46
0.0000881814618674
 79
     2
 49
4.636287175181985
 49
-2957.10206110897
 53
25.04599999999999
 43
12120.99426278621
 44
1324.921535852871
 45
10.95203652759968
 46
0.0000881814618674
 79
     2
 49
4.636287175181985
 49
-2957.10206110897
 53
25.04599999999999
 43
12120.99426278621
 44
1288.044437250795
 45
10.95203652759968
 46
0.0000881814618674
 79
     2
 49
4.636287175181985
 49
-2957.10206110897
 53
25.04599999999999
 43
12120.99426278621
 44
1251.167338648727
 45
10.95203652759968
 46
0.0000881814618674
 79
     2
 49
4.636287175181985
 49
-2957.10206110897
 53
25.04599999999999
 43
12120.99426278621
 44
1214.290240046652
 45
10.95203652759968
 46
0.0000881814618674
 79
     2
 49
4.636287175181985
 49
-2957.10206110897
 53
25.04599999999999
 43
12120.99426278621
 44
1177.413141444576
 45
10.95203652759968
 46
0.0000881814618674
 79
     2
 49
4.636287175181985
 49
-2957.10206110897
 53
25.04599999999999
 43
12120.99426278621
 44
1140.536042842508
 45
10.95203652759968
 46
0.0000881814618674
 79
     2
 49
4.636287175181985
 49
-2957.10206110897
 53
25.04599999999999
 43
12120.99426278621
 44
1103.65894424044
 45
10.95203652759968
 46
0.0000881814618674
 79
     2
 49
4.636287175181985
 49
-2957.10206110897
 53
25.04599999999999
 43
12120.99426278621
 44
1066.781845638365
 45
10.95203652759968
 46
0.0000881814618674
 79
     2
 49
4.636287175181985
 49
-2957.10206110897
 53
25.04599999999999
 43
12120.99426278621
 44
1029.904747036296
 45
10.95203652759968
 46
0.0000881814618674
 79
     2
 49
4.636287175181985
 49
-2957.10206110897
 53
25.04599999999999
 43
12120.99426278621
 44
993.0276484342211
 45
10.95203652759968
 46
0.0000881814618674
 79
     2
 49
4.636287175181985
 49
-2957.10206110897
 53
25.04599999999999
 43
12120.99426278621
 44
956.1505498321494
 45
10.95203652759968
 46
0.0000881814618674
 79
     2
 49
4.636287175181985
 49
-2957.10206110897
 53
25.04599999999999
 43
12120.99426278621
 44
919.2734512300813
 45
10.95203652759968
 46
0.0000881814618674
 79
     2
 49
4.636287175181985
 49
-2957.10206110897
 53
25.04599999999999
 43
12120.99426278621
 44
882.3963526280094
 45
10.95203652759968
 46
0.0000881814618674
 79
     2
 49
4.636287175181985
 49
-2957.10206110897
 53
25.04599999999999
 43
12120.99426278621
 44
845.5192540259341
 45
10.95203652759968
 46
0.0000881814618674
 79
     2
 49
4.636287175181985
 49
-2957.10206110897
 53
25.04599999999999
 43
12120.99426278621
 44
808.6421554238659
 45
10.95203652759968
 46
0.0000881814618674
 79
     2
 49
4.636287175181985
 49
-2957.10206110897
 53
25.04599999999999
 43
12120.99426278621
 44
771.7650568217941
 45
10.95203652759968
 46
0.0000881814618674
 79
     2
 49
4.636287175181985
 49
-2957.10206110897
 53
25.04599999999999
 43
12120.99426278621
 44
734.8879582197223
 45
10.95203652759968
 46
0.0000881814618674
 79
     2
 49
4.636287175181985
 49
-2957.10206110897
 53
25.04599999999999
 43
12120.99426278621
 44
698.0108596176469
 45
10.95203652759968
 46
0.0000881814618674
 79
     2
 49
4.636287175181985
 49
-2957.10206110897
 53
25.04599999999999
 43
12120.99426278621
 44
661.1337610155787
 45
10.95203652759968
 46
0.0000881814618674
 79
     2
 49
4.636287175181985
 49
-2957.10206110897
 53
25.04599999999999
 43
12120.99426278621
 44
624.2566624135069
 45
10.95203652759968
 46
0.0000881814618674
 79
     2
 49
4.636287175181985
 49
-2957.10206110897
 53
25.04599999999999
 43
12120.99426278621
 44
587.3795638114351
 45
10.95203652759968
 46
0.0000881814618674
 79
     2
 49
4.636287175181985
 49
-2957.10206110897
 53
25.04599999999999
 43
12120.99426278621
 44
550.5024652093634
 45
10.95203652759968
 46
0.0000881814618674
 79
     2
 49
4.636287175181985
 49
-2957.10206110897
 53
14.07599999999998
 43
12123.88633859069
 44
1799.578374292756
 45
10.95202660951167
 46
-0.0000805056871684
 79
     2
 49
2.663936043727242
 49
-1058.697838380728
 53
14.07599999999998
 43
12123.88633859069
 44
1762.701210131396
 45
10.95202660951167
 46
-0.0000805056871684
 79
     2
 49
2.663936043727242
 49
-1058.697838380728
 53
14.07599999999998
 43
12123.88633859069
 44
1725.824111529324
 45
10.95202660951167
 46
-0.0000805056871684
 79
     2
 49
2.663936043727242
 49
-1058.697838380728
 53
14.07599999999998
 43
12123.88633859069
 44
1688.947012927256
 45
10.95202660951167
 46
-0.0000805056871684
 79
     2
 49
2.663936043727242
 49
-1058.697838380728
 53
14.07599999999998
 43
12123.88633859069
 44
1652.06991432518
 45
10.95202660951167
 46
-0.0000805056871684
 79
     2
 49
2.663936043727242
 49
-1058.697838380728
 53
14.07599999999998
 43
12123.88633859069
 44
1615.192815723105
 45
10.95202660951167
 46
-0.0000805056871684
 79
     2
 49
2.663936043727242
 49
-1058.697838380728
 53
14.07599999999998
 43
12123.88633859069
 44
1578.315717121037
 45
10.95202660951167
 46
-0.0000805056871684
 79
     2
 49
2.663936043727242
 49
-1058.697838380728
 98
        1
 10
1645.728792805348
 20
636.7137558900467
  0
LWPOLYLINE
  5
77A2
330
67
100
AcDbEntity
  8
F_01 sichtbar
370
    13
100
AcDbPolyline
 90
       28
 70
     1
 43
0.0
 10
504.5168395093278
 20
345.4956800414766
 10
501.3892659640768
 20
345.4956797127015
 42
0.3394542588633794
 10
501.2926733892454
 20
345.4215616070578
 10
501.2520084151256
 20
345.2697977937642
 42
-0.3394542588633798
 10
501.1554158402941
 20
345.1956796881205
 10
501.1088812378875
 20
345.1956796832273
 42
-0.3394542588633751
 10
501.0122886474637
 20
345.2697977685639
 10
500.971623641446
 20
345.4215615733083
 42
0.3394542588633729
 10
500.8750310510294
 20
345.4956796586448
 10
500.7517637498239
 20
345.4956796456863
 10
500.6284964486185
 20
345.4956796327278
 42
0.3394542588633786
 10
500.531903873787
 20
345.4215615270841
 10
500.4912388996672
 20
345.2697977137905
 42
-0.3394542588633769
 10
500.3946463248357
 20
345.1956796081467
 10
500.3481117224291
 20
345.1956796032537
 42
-0.3394542588633807
 10
500.2515191320053
 20
345.2697976885902
 10
500.2108541259876
 20
345.4215614933382
 42
0.3394542588633759
 10
500.1142615355711
 20
345.4956795786711
 10
496.9866879903129
 20
345.4956792498961
 42
0.6681786379192993
 10
496.8099113398857
 20
345.0689025360189
 10
498.9841872460092
 20
342.8946270870147
 42
-0.3679559611094144
 10
499.4494818735474
 20
342.4433973116574
 10
499.9017640231395
 20
342.8956795563354
 10
500.751764023138
 20
342.8956796456878
 10
501.6017640231366
 20
342.8956797350402
 10
501.9903679609196
 20
342.5070758789589
 42
0.4142135623730948
 10
502.131789317158
 20
342.5070758938236
 10
504.6936162494894
 20
345.068903364765
 42
0.6681786379192982
  0
POLYLINE
  5
77A3
330
67
100
AcDbEntity
  8
F_31 Ansichtsfenster
370
    13
100
AcDb2dPolyline
 66
     1
 10
0.0
 20
0.0
 30
0.0
  0
VERTEX
  5
77A4
330
77A3
100
AcDbEntity
  8
F_31 Ansichtsfenster
370
    13
100
AcDbVertex
100
AcDb2dVertex
 10
713.0941133387969
 20
305.9957139144208
 30
0.0
  0
VERTEX
  5
77A5
330
77A3
100
AcDbEntity
  8
F_31 Ansichtsfenster
370
    13
100
AcDbVertex
100
AcDb2dVertex
 10
713.0941133387969
 20
636.4956776484032
 30
0.0
  0
SEQEND
  5
77A6
330
77A3
100
AcDbEntity
  8
F_31 Ansichtsfenster
370
    13
  0
LWPOLYLINE
  5
77A7
330
67
100
AcDbEntity
  8
F_01 sichtbar
370
    13
100
AcDbPolyline
 90
       10
 70
     1
 43
0.0
 10
493.7517584493471
 20
308.4956787521551
 10
493.7517551905839
 20
346.4956787521551
 10
498.7517551905839
 20
346.495679277763
 10
498.7517543496141
 20
354.495679277763
 10
502.7517543496141
 20
354.4956796982479
 10
502.7517551905839
 20
346.4956796982479
 10
506.7517551905839
 20
346.4956801187327
 10
506.7527721344013
 20
636.4956776484032
 10
481.7517279629392
 20
636.4956776484032
 10
481.7517584493471
 20
308.4956774907005
  0
LWPOLYLINE
  5
77A8
330
67
100
AcDbEntity
  8
F_01 sichtbar
370
    13
100
AcDbPolyline
 90
        7
 70
     0
 43
0.0
 10
713.0941133387969
 20
305.9957137567144
 10
496.2360069193819
 20
305.9957137567144
 10
496.2360069193819
 20
310.9957137567144
 10
497.8360069193731
 20
342.4957137567144
 10
515.2360069193819
 20
342.4957137567144
 10
515.2360113870381
 20
347.9954657045127
 10
713.0941133387969
 20
347.9954658526112
  0
LWPOLYLINE
  5
77A9
330
67
100
AcDbEntity
  8
F_01 sichtbar
370
    13
100
AcDbPolyline
 90
        4
 70
     1
 43
0.0
 10
493.7517686126303
 20
305.495679277763
 10
493.7517686126303
 20
308.495679277763
 10
463.7517686126302
 20
308.495679277763
 10
463.7517686126302
 20
305.495679277763
  0
MTEXT
  5
77AA
330
67
100
AcDbEntity
  8
F_01 sichtbar
370
    13
100
AcDbMText
 10
448.8949703353864
 20
253.475321570374
 30
0.0
 40
15.0
 41
173.6657447330071
 71
     1
 72
     5
  1
\A1;{\fArial Narrow|b0|i0|c0|p34;Metall-Flachrahmen\P30/3 mm}
 73
     1
 44
1.0
  0
LINE
  5
77AB
330
67
100
AcDbEntity
  8
F_01 sichtbar
370
    13
100
AcDbLine
 10
478.7517686126302
 20
290.495679277763
 30
0.0
 11
478.7517686126302
 21
257.1727840959138
 31
0.0
  0
SOLID
  5
77AC
330
67
100
AcDbEntity
  8
F_01 sichtbar
370
    13
100
AcDbTrace
 10
476.2517686126302
 20
290.495679277763
 30
0.0
 11
481.2517686126303
 21
290.495679277763
 31
0.0
 12
478.7517686126302
 22
305.495679277763
 32
0.0
 13
478.7517686126302
 23
305.495679277763
 33
0.0
  0
LINE
  5
77AD
330
67
100
AcDbEntity
  8
F_01 sichtbar
370
    13
100
AcDbLine
 10
426.5231701467637
 20
628.9956776484032
 30
0.0
 11
426.5231701467637
 21
315.9956774907005
 31
0.0
  0
SOLID
  5
77AE
330
67
100
AcDbEntity
  8
F_01 sichtbar
370
    13
100
AcDbTrace
 10
424.0231701467637
 20
323.4956774907005
 30
0.0
 11
429.0231701467637
 21
323.4956774907005
 31
0.0
 12
426.5231701467637
 22
308.4956774907005
 32
0.0
 13
426.5231701467637
 23
308.4956774907005
 33
0.0
  0
SOLID
  5
77AF
330
67
100
AcDbEntity
  8
F_01 sichtbar
370
    13
100
AcDbTrace
 10
424.0231701467637
 20
621.4956776484032
 30
0.0
 11
429.0231701467637
 21
621.4956776484032
 31
0.0
 12
426.5231701467637
 22
636.4956776484032
 32
0.0
 13
426.5231701467637
 23
636.4956776484032
 33
0.0
  0
TEXT
  5
77B0
330
67
100
AcDbEntity
  8
F_01 sichtbar
370
    13
100
AcDbText
 10
421.5231701467637
 20
233.2286645935738
 30
0.0
 40
15.0
  1
RH
 50
90.0
  7
Arial
100
AcDbText
  0
LINE
  5
77B1
330
67
100
AcDbEntity
  8
F_01 sichtbar
370
    13
100
AcDbLine
 10
377.4346878794531
 20
628.9956776484032
 30
0.0
 11
377.4346878794531
 21
114.4076612248818
 31
0.0
  0
SOLID
  5
77B2
330
67
100
AcDbEntity
  8
F_01 sichtbar
370
    13
100
AcDbTrace
 10
374.9346878794531
 20
621.4956776484032
 30
0.0
 11
379.9346878794531
 21
621.4956776484032
 31
0.0
 12
377.4346878794531
 22
636.4956776484032
 32
0.0
 13
377.4346878794531
 23
636.4956776484032
 33
0.0
  0
LINE
  5
77B3
330
67
100
AcDbEntity
  8
F_01 sichtbar
370
    13
100
AcDbLine
 10
426.5231701467637
 20
300.9956774907005
 30
0.0
 11
426.5231701467637
 21
114.4076612248818
 31
0.0
  0
TEXT
  5
77B4
330
67
100
AcDbEntity
  8
F_01 sichtbar
370
    13
100
AcDbText
 10
372.050990744392
 20
239.2113569604398
 30
0.0
 40
15.0
  1
C
 50
90.0
  7
Arial
100
AcDbText
  0
SOLID
  5
77B5
330
67
100
AcDbEntity
  8
F_01 sichtbar
370
    13
100
AcDbTrace
 10
424.0231701467637
 20
293.4956774907005
 30
0.0
 11
429.0231701467637
 21
293.4956774907005
 31
0.0
 12
426.5231701467637
 22
308.4956774907005
 32
0.0
 13
426.5231701467637
 23
308.4956774907005
 33
0.0
  0
TEXT
  5
77B6
330
67
100
AcDbEntity
  8
F_01 sichtbar
370
    13
100
AcDbText
 10
421.5231701467637
 20
469.6784878590551
 30
0.0
 40
15.0
  1
D
 50
90.0
  7
Arial
100
AcDbText
  0
HATCH
  5
77B7
330
67
100
AcDbEntity
  8
F_01 sichtbar
370
    13
100
AcDbHatch
 10
0.0
 20
0.0
 30
0.0
210
0.0
220
0.0
230
1.0
  2
HEX
 70
     0
 71
     0
 91
        1
 92
        7
 72
     0
 73
     1
 93
        4
 10
476.7517686962019
 20
636.4956776483486
 10
314.8081161323644
 20
636.4956776483486
 10
314.8081161323644
 20
546.4956776483486
 10
476.7517686961946
 20
546.4956776483486
 97
        0
 75
     0
 76
     1
 52
0.0
 41
2.0
 77
     0
 78
     3
 53
0.0
 43
-34261.01189088328
 44
-14087.55271658654
 45
0.0
 46
10.99852
 79
     2
 49
6.349999999999999
 49
-12.7
 53
120.0
 43
-34261.01189088328
 44
-14087.55271658654
 45
-9.524997724031223
 46
-5.499259999999996
 79
     2
 49
6.349999999999994
 49
-12.69999999999999
 53
60.0
 43
-34254.66189088328
 44
-14087.55271658654
 45
-9.524997724031223
 46
5.49926
 79
     2
 49
6.349999999999999
 49
-12.7
 47
0.536036505142345
 98
        1
 10
399.0038493508036
 20
590.9147021763056
1001
ACAD
1010
0.0
1020
0.0
1030
0.0
  0
HATCH
  5
77B8
330
67
100
AcDbEntity
  8
F_01 sichtbar
370
    13
100
AcDbHatch
 10
0.0
 20
0.0
 30
0.0
210
0.0
220
0.0
230
1.0
  2
CROSS
 70
     0
 71
     0
 91
        2
 92
        1
 93
        5
 72
     1
 10
476.7517686961873
 20
320.4956774907041
 11
377.4346878794531
 21
320.4956774907041
 72
     1
 10
377.4346878794531
 20
320.4956774907041
 11
377.4346878794531
 21
308.4956774907023
 72
     1
 10
377.4346878794531
 20
308.4956774907005
 11
438.7517503890558
 21
308.4956787521551
 72
     1
 10
438.7517503890558
 20
308.4956787521551
 11
476.7517686961873
 21
308.4956787521551
 72
     1
 10
476.7517686961873
 20
308.4956787521551
 11
476.7517686961873
 21
320.4956774907023
 97
        0
 92
        1
 93
        4
 72
     1
 10
377.4346878794531
 20
320.4956774907041
 11
314.8081161323644
 21
320.4956774907041
 72
     1
 10
314.8081161323644
 20
320.4956774907041
 11
314.8081161323644
 21
308.4956774907023
 72
     1
 10
314.8081161323644
 20
308.4956774907005
 11
377.4346878794531
 21
308.4956774907005
 72
     1
 10
377.4346878794531
 20
308.4956774907005
 11
377.4346878794531
 21
320.4956774907023
 97
        0
 75
     0
 76
     1
 52
0.0
 41
1.0
 77
     0
 78
     2
 53
0.0
 43
-33362.72589367685
 44
-14090.55271658654
 45
6.349999999999999
 46
6.349999999999999
 79
     2
 49
3.174999999999999
 49
-9.525
 53
90.0
 43
-33361.13839367685
 44
-14092.14021658655
 45
-6.349999999999999
 46
6.349999999999999
 79
     2
 49
3.174999999999999
 49
-9.525
 98
        2
 10
391.3838139184736
 20
310.5146801665032
 10
363.5145264352031
 20
309.8887301643372
1001
ACAD
1010
0.0
1020
0.0
1030
0.0
  0
MTEXT
  5
77B9
330
67
100
AcDbEntity
  8
F_01 sichtbar
370
    13
100
AcDbMText
 10
364.8081161323644
 20
736.4956776484032
 30
0.0
 40
30.0
 41
187.1747820159653
 71
     1
 72
     5
  1
\A1;{\fArial Narrow|b1|i0|c0|p34;B}
 73
     1
 44
1.0
  0
ENDSEC
  0
SECTION
  2
OBJECTS
  0
DICTIONARY
  5
C
330
0
100
AcDbDictionary
281
     1
  3
ACAD_2007HEADERVARS_RT
350
77C8
  3
ACAD_COLOR
350
5E
  3
ACAD_GROUP
350
D
  3
ACAD_LAYOUT
350
5D
  3
ACAD_MATERIAL
350
10
  3
ACAD_MLEADERSTYLE
350
61
  3
ACAD_MLINESTYLE
350
5A
  3
ACAD_PLOTSETTINGS
350
5C
  3
ACAD_PLOTSTYLENAME
350
E
  3
ACAD_SCALELIST
350
3D
  3
ACAD_TABLESTYLE
350
5F
  3
ACAD_VISUALSTYLE
350
29
  3
ACDB_RECOMPOSE_DATA
350
77C7
  3
AcDbVariableDictionary
350
77BC
  3
AEC_PROPERTY_SET_DEFS
350
7774
  0
DICTIONARY
  5
7729
330
2
100
AcDbDictionary
280
     1
281
     1
  3
ACAD_LAYERSTATES
360
772A
  0
DICTIONARY
  5
77BA
330
67
100
AcDbDictionary
280
     1
281
     1
  3
ACAD_SORTENTS
360
77BB
  0
DICTIONARY
  5
7713
330
7712
100
AcDbDictionary
280
     1
281
     1
  3
ACAD_SORTENTS
360
7714
  0
DICTIONARY
  5
77C8
102
{ACAD_REACTORS
330
C
102
}
330
C
100
AcDbDictionary
281
     1
  3
DIMJOGANG
350
77C9
  0
DICTIONARY
  5
5E
102
{ACAD_REACTORS
330
C
102
}
330
C
100
AcDbDictionary
281
     1
  0
DICTIONARY
  5
D
102
{ACAD_REACTORS
330
C
102
}
330
C
100
AcDbDictionary
281
     1
  0
DICTIONARY
  5
5D
102
{ACAD_REACTORS
330
C
102
}
330
C
100
AcDbDictionary
281
     1
  3
Layout1
350
66
  3
Layout2
350
6E
  3
Model
350
6A
  0
DICTIONARY
  5
10
102
{ACAD_REACTORS
330
C
102
}
330
C
100
AcDbDictionary
281
     1
  3
ByBlock
350
19
  3
ByLayer
350
11
  3
Global
350
21
  0
DICTIONARY
  5
61
102
{ACAD_REACTORS
330
C
102
}
330
C
100
AcDbDictionary
281
     1
  3
Standard
350
62
  0
DICTIONARY
  5
5A
102
{ACAD_REACTORS
330
C
102
}
330
C
100
AcDbDictionary
281
     1
  3
Standard
350
5B
  0
DICTIONARY
  5
5C
102
{ACAD_REACTORS
330
C
102
}
330
C
100
AcDbDictionary
281
     1
  0
ACDBDICTIONARYWDFLT
  5
E
102
{ACAD_REACTORS
330
C
102
}
330
C
100
AcDbDictionary
281
     1
  3
Normal
350
F
100
AcDbDictionaryWithDefault
340
F
  0
DICTIONARY
  5
3D
102
{ACAD_REACTORS
330
C
102
}
330
C
100
AcDbDictionary
281
     1
  3
A0
350
3E
  3
A1
350
3F
  3
A2
350
40
  3
A3
350
41
  3
A4
350
42
  3
A5
350
43
  3
A6
350
44
  3
A7
350
45
  3
A8
350
46
  3
A9
350
47
  3
B0
350
48
  3
B1
350
49
  3
B2
350
4A
  3
B3
350
4B
  3
B4
350
4C
  3
B5
350
4D
  3
B6
350
4E
  0
DICTIONARY
  5
5F
102
{ACAD_REACTORS
330
C
102
}
330
C
100
AcDbDictionary
281
     1
  3
Standard
350
60
  0
DICTIONARY
  5
29
102
{ACAD_REACTORS
330
C
102
}
330
C
100
AcDbDictionary
281
     1
  3
2dWireframe
350
2F
  3
3D Hidden
350
31
  3
3dWireframe
350
30
  3
Basic
350
2E
  3
Brighten
350
35
  3
ColorChange
350
39
  3
Conceptual
350
32
  3
Dim
350
34
  3
EdgeColorOff
350
3C
  3
Facepattern
350
38
  3
Flat
350
2A
  3
FlatWithEdges
350
2B
  3
Gouraud
350
2C
  3
GouraudWithEdges
350
2D
  3
JitterOff
350
3A
  3
Linepattern
350
37
  3
OverhangOff
350
3B
  3
Realistic
350
33
  3
Thicken
350
36
  0
XRECORD
  5
77C7
102
{ACAD_REACTORS
330
C
102
}
330
C
100
AcDbXrecord
280
     1
 90
        1
330
60
  0
DICTIONARY
  5
77BC
102
{ACAD_REACTORS
330
C
102
}
330
C
100
AcDbDictionary
281
     1
  3
CANNOSCALE
350
77C0
  3
CMLEADERSTYLE
350
77BE
  3
CTABLESTYLE
350
77BD
  3
LAYEREVAL
350
77C2
  3
LAYERNOTIFY
350
77C3
  3
LIGHTINGUNITS
350
77C1
  3
MSLTSCALE
350
77BF
  3
XCLIPFRAME
350
77C4
  0
DICTIONARY
  5
7774
102
{ACAD_REACTORS
330
C
102
}
330
C
100
AcDbDictionary
281
     1
  0
DICTIONARY
  5
772A
102
{ACAD_REACTORS
330
7729
102
}
330
7729
100
AcDbDictionary
281
     1
  0
SORTENTSTABLE
  5
77BB
102
{ACAD_REACTORS
330
77BA
102
}
330
77BA
100
AcDbSortentsTable
330
67
331
77AC
  5
77AC
331
7778
  5
7778
331
77AD
  5
77AD
331
7779
  5
7779
331
77AE
  5
77AE
331
779D
  5
779D
331
777A
  5
777A
331
77AF
  5
77AF
331
779E
  5
779E
331
777B
  5
777B
331
77B0
  5
77B0
331
779F
  5
779F
331
778E
  5
778E
331
777C
  5
777C
331
77B1
  5
77B1
331
77A0
  5
77A0
331
77B2
  5
77B2
331
77A1
  5
77A1
331
77B3
  5
77B3
331
77A2
  5
77A2
331
77B4
  5
77B4
331
77A3
  5
77A3
331
7792
  5
7792
331
77B5
  5
77B5
331
7793
  5
7793
331
77B6
  5
77B6
331
7794
  5
7794
331
7782
  5
7782
331
77B7
  5
77B7
331
7795
  5
7795
331
77B8
  5
77B8
331
77A7
  5
77A7
331
7796
  5
7796
331
77B9
  5
77B9
331
77A8
  5
77A8
331
7797
  5
7797
331
77A9
  5
77A9
331
7798
  5
7798
331
77AA
  5
77AA
331
7799
  5
7799
331
7788
  5
7788
331
77AB
  5
77AB
  0
SORTENTSTABLE
  5
7714
102
{ACAD_REACTORS
330
7713
102
}
330
7713
100
AcDbSortentsTable
330
7712
  0
XRECORD
  5
77C9
102
{ACAD_REACTORS
330
77C8
102
}
330
77C8
100
AcDbXrecord
280
     1
 40
1.570796326794896
  0
LAYOUT
  5
66
102
{ACAD_REACTORS
330
5D
102
}
330
5D
100
AcDbPlotSettings
  1

  2
HP Deskjet 1280 series
  4

  6

 40
0.0
 41
0.0
 42
0.0
 43
0.0
 44
0.0
 45
0.0
 46
0.0
 47
0.0
 48
0.0
 49
0.0
140
0.0
141
0.0
142
1.0
143
1.0
 70
   688
 72
     0
 73
     0
 74
     5
  7

 75
    16
147
1.0
 76
     0
 77
     2
 78
   300
148
0.0
149
0.0
100
AcDbLayout
  1
Layout1
 70
     1
 71
     1
 10
0.0
 20
0.0
 11
420.0
 21
297.0
 12
0.0
 22
0.0
 32
0.0
 14
1.000000000000000E+20
 24
1.000000000000000E+20
 34
1.000000000000000E+20
 15
-1.000000000000000E+20
 25
-1.000000000000000E+20
 35
-1.000000000000000E+20
146
0.0
 13
0.0
 23
0.0
 33
0.0
 16
1.0
 26
0.0
 36
0.0
 17
0.0
 27
1.0
 37
0.0
 76
     0
330
63
  0
LAYOUT
  5
6E
102
{ACAD_REACTORS
330
5D
102
}
330
5D
100
AcDbPlotSettings
  1

  2
HP Deskjet 1280 series
  4

  6

 40
0.0
 41
0.0
 42
0.0
 43
0.0
 44
0.0
 45
0.0
 46
0.0
 47
0.0
 48
0.0
 49
0.0
140
0.0
141
0.0
142
1.0
143
1.0
 70
   688
 72
     0
 73
     0
 74
     5
  7

 75
    16
147
1.0
 76
     0
 77
     2
 78
   300
148
0.0
149
0.0
100
AcDbLayout
  1
Layout2
 70
     1
 71
     2
 10
0.0
 20
0.0
 11
12.0
 21
9.0
 12
0.0
 22
0.0
 32
0.0
 14
0.0
 24
0.0
 34
0.0
 15
0.0
 25
0.0
 35
0.0
146
0.0
 13
0.0
 23
0.0
 33
0.0
 16
1.0
 26
0.0
 36
0.0
 17
0.0
 27
1.0
 37
0.0
 76
     0
330
6B
  0
LAYOUT
  5
6A
102
{ACAD_REACTORS
330
5D
102
}
330
5D
100
AcDbPlotSettings
  1

  2
HP Deskjet 1280 series
  4

  6

 40
0.0
 41
0.0
 42
0.0
 43
0.0
 44
0.0
 45
0.0
 46
0.0
 47
0.0
 48
0.0
 49
0.0
140
0.0
141
0.0
142
1.0
143
1.0
 70
  1712
 72
     0
 73
     0
 74
     0
  7

 75
     0
147
1.0
 76
     0
 77
     2
 78
   300
148
0.0
149
0.0
100
AcDbLayout
  1
Model
 70
     1
 71
     0
 10
0.0
 20
0.0
 11
12.0
 21
9.0
 12
0.0
 22
0.0
 32
0.0
 14
0.0
 24
0.0
 34
0.0
 15
0.0
 25
0.0
 35
0.0
146
0.0
 13
0.0
 23
0.0
 33
0.0
 16
1.0
 26
0.0
 36
0.0
 17
0.0
 27
1.0
 37
0.0
 76
     0
330
67
331
52
  0
MATERIAL
  5
19
102
{ACAD_XDICTIONARY
360
1A
102
}
102
{ACAD_REACTORS
330
10
102
}
330
10
100
AcDbMaterial
  1
ByBlock
 72
     0
 43
0.0208333333333333
 43
0.0
 43
0.0
 43
0.0
 43
0.0
 43
0.0208333333333333
 43
0.0
 43
0.0
 43
0.0
 43
0.0
 43
1.0
 43
0.0
 43
0.0
 43
0.0
 43
0.0
 43
1.0
 77
     0
 47
0.0208333333333333
 47
0.0
 47
0.0
 47
0.0
 47
0.0
 47
0.0208333333333333
 47
0.0
 47
0.0
 47
0.0
 47
0.0
 47
1.0
 47
0.0
 47
0.0
 47
0.0
 47
0.0
 47
1.0
171
     0
 49
0.0208333333333333
 49
0.0
 49
0.0
 49
0.0
 49
0.0
 49
0.0208333333333333
 49
0.0
 49
0.0
 49
0.0
 49
0.0
 49
1.0
 49
0.0
 49
0.0
 49
0.0
 49
0.0
 49
1.0
175
     0
142
0.0208333333333333
142
0.0
142
0.0
142
0.0
142
0.0
142
0.0208333333333333
142
0.0
142
0.0
142
0.0
142
0.0
142
1.0
142
0.0
142
0.0
142
0.0
142
0.0
142
1.0
179
     0
144
0.0208333333333333
144
0.0
144
0.0
144
0.0
144
0.0
144
0.0208333333333333
144
0.0
144
0.0
144
0.0
144
0.0
144
1.0
144
0.0
144
0.0
144
0.0
144
0.0
144
1.0
147
0.0208333333333333
147
0.0
147
0.0
147
0.0
147
0.0
147
0.0208333333333333
147
0.0
147
0.0
147
0.0
147
0.0
147
1.0
147
0.0
147
0.0
147
0.0
147
0.0
147
1.0
  0
MATERIAL
  5
11
102
{ACAD_XDICTIONARY
360
12
102
}
102
{ACAD_REACTORS
330
10
102
}
330
10
100
AcDbMaterial
  1
ByLayer
 72
     0
 43
0.0208333333333333
 43
0.0
 43
0.0
 43
0.0
 43
0.0
 43
0.0208333333333333
 43
0.0
 43
0.0
 43
0.0
 43
0.0
 43
1.0
 43
0.0
 43
0.0
 43
0.0
 43
0.0
 43
1.0
 77
     0
 47
0.0208333333333333
 47
0.0
 47
0.0
 47
0.0
 47
0.0
 47
0.0208333333333333
 47
0.0
 47
0.0
 47
0.0
 47
0.0
 47
1.0
 47
0.0
 47
0.0
 47
0.0
 47
0.0
 47
1.0
171
     0
 49
0.0208333333333333
 49
0.0
 49
0.0
 49
0.0
 49
0.0
 49
0.0208333333333333
 49
0.0
 49
0.0
 49
0.0
 49
0.0
 49
1.0
 49
0.0
 49
0.0
 49
0.0
 49
0.0
 49
1.0
175
     0
142
0.0208333333333333
142
0.0
142
0.0
142
0.0
142
0.0
142
0.0208333333333333
142
0.0
142
0.0
142
0.0
142
0.0
142
1.0
142
0.0
142
0.0
142
0.0
142
0.0
142
1.0
179
     0
144
0.0208333333333333
144
0.0
144
0.0
144
0.0
144
0.0
144
0.0208333333333333
144
0.0
144
0.0
144
0.0
144
0.0
144
1.0
144
0.0
144
0.0
144
0.0
144
0.0
144
1.0
147
0.0208333333333333
147
0.0
147
0.0
147
0.0
147
0.0
147
0.0208333333333333
147
0.0
147
0.0
147
0.0
147
0.0
147
1.0
147
0.0
147
0.0
147
0.0
147
0.0
147
1.0
  0
MATERIAL
  5
21
102
{ACAD_XDICTIONARY
360
22
102
}
102
{ACAD_REACTORS
330
10
102
}
330
10
100
AcDbMaterial
  1
Global
 72
     0
 43
0.0208333333333333
 43
0.0
 43
0.0
 43
0.0
 43
0.0
 43
0.0208333333333333
 43
0.0
 43
0.0
 43
0.0
 43
0.0
 43
1.0
 43
0.0
 43
0.0
 43
0.0
 43
0.0
 43
1.0
 77
     0
 47
0.0208333333333333
 47
0.0
 47
0.0
 47
0.0
 47
0.0
 47
0.0208333333333333
 47
0.0
 47
0.0
 47
0.0
 47
0.0
 47
1.0
 47
0.0
 47
0.0
 47
0.0
 47
0.0
 47
1.0
171
     0
 49
0.0208333333333333
 49
0.0
 49
0.0
 49
0.0
 49
0.0
 49
0.0208333333333333
 49
0.0
 49
0.0
 49
0.0
 49
0.0
 49
1.0
 49
0.0
 49
0.0
 49
0.0
 49
0.0
 49
1.0
175
     0
142
0.0208333333333333
142
0.0
142
0.0
142
0.0
142
0.0
142
0.0208333333333333
142
0.0
142
0.0
142
0.0
142
0.0
142
1.0
142
0.0
142
0.0
142
0.0
142
0.0
142
1.0
179
     0
144
0.0208333333333333
144
0.0
144
0.0
144
0.0
144
0.0
144
0.0208333333333333
144
0.0
144
0.0
144
0.0
144
0.0
144
1.0
144
0.0
144
0.0
144
0.0
144
0.0
144
1.0
147
0.0208333333333333
147
0.0
147
0.0
147
0.0
147
0.0
147
0.0208333333333333
147
0.0
147
0.0
147
0.0
147
0.0
147
1.0
147
0.0
147
0.0
147
0.0
147
0.0
147
1.0
  0
MLEADERSTYLE
  5
62
102
{ACAD_REACTORS
330
61
102
}
330
61
100
AcDbMLeaderStyle
170
     2
171
     1
172
     0
 90
        2
 40
0.0
 41
0.0
173
     1
 91
-1056964608
340
56
 92
       -2
290
     1
 42
0.09
291
     1
 43
0.36
  3
Standard
 44
0.18
300

342
50
174
     1
178
     6
175
     1
176
     0
 93
-1056964608
 45
0.18
292
     0
297
     0
 46
0.18
 94
-1056964608
 47
1.0
 49
1.0
140
1.0
293
     1
141
0.0
294
     1
177
     0
142
1.0
295
     0
296
     0
143
0.125
1001
ACAD_MLEADERVER
1070
     2
  0
MLINESTYLE
  5
5B
102
{ACAD_REACTORS
330
5A
102
}
330
5A
100
AcDbMlineStyle
  2
STANDARD
 70
     0
  3

 62
   256
 51
90.0
 52
90.0
 71
     2
 49
0.5
 62
   256
  6
BYLAYER
 49
-0.5
 62
   256
  6
BYLAYER
  0
ACDBPLACEHOLDER
  5
F
102
{ACAD_REACTORS
330
E
102
}
330
E
  0
SCALE
  5
3E
102
{ACAD_REACTORS
330
3D
102
}
330
3D
100
AcDbScale
 70
     0
300
1:1
140
1.0
141
1.0
290
     1
  0
SCALE
  5
3F
102
{ACAD_REACTORS
330
3D
102
}
330
3D
100
AcDbScale
 70
     0
300
1:2
140
1.0
141
2.0
290
     0
  0
SCALE
  5
40
102
{ACAD_REACTORS
330
3D
102
}
330
3D
100
AcDbScale
 70
     0
300
1:4
140
1.0
141
4.0
290
     0
  0
SCALE
  5
41
102
{ACAD_REACTORS
330
3D
102
}
330
3D
100
AcDbScale
 70
     0
300
1:5
140
1.0
141
5.0
290
     0
  0
SCALE
  5
42
102
{ACAD_REACTORS
330
3D
102
}
330
3D
100
AcDbScale
 70
     0
300
1:8
140
1.0
141
8.0
290
     0
  0
SCALE
  5
43
102
{ACAD_REACTORS
330
3D
102
}
330
3D
100
AcDbScale
 70
     0
300
1:10
140
1.0
141
10.0
290
     0
  0
SCALE
  5
44
102
{ACAD_REACTORS
330
3D
102
}
330
3D
100
AcDbScale
 70
     0
300
1:16
140
1.0
141
16.0
290
     0
  0
SCALE
  5
45
102
{ACAD_REACTORS
330
3D
102
}
330
3D
100
AcDbScale
 70
     0
300
1:20
140
1.0
141
20.0
290
     0
  0
SCALE
  5
46
102
{ACAD_REACTORS
330
3D
102
}
330
3D
100
AcDbScale
 70
     0
300
1:30
140
1.0
141
30.0
290
     0
  0
SCALE
  5
47
102
{ACAD_REACTORS
330
3D
102
}
330
3D
100
AcDbScale
 70
     0
300
1:40
140
1.0
141
40.0
290
     0
  0
SCALE
  5
48
102
{ACAD_REACTORS
330
3D
102
}
330
3D
100
AcDbScale
 70
     0
300
1:50
140
1.0
141
50.0
290
     0
  0
SCALE
  5
49
102
{ACAD_REACTORS
330
3D
102
}
330
3D
100
AcDbScale
 70
     0
300
1:100
140
1.0
141
100.0
290
     0
  0
SCALE
  5
4A
102
{ACAD_REACTORS
330
3D
102
}
330
3D
100
AcDbScale
 70
     0
300
2:1
140
2.0
141
1.0
290
     0
  0
SCALE
  5
4B
102
{ACAD_REACTORS
330
3D
102
}
330
3D
100
AcDbScale
 70
     0
300
4:1
140
4.0
141
1.0
290
     0
  0
SCALE
  5
4C
102
{ACAD_REACTORS
330
3D
102
}
330
3D
100
AcDbScale
 70
     0
300
8:1
140
8.0
141
1.0
290
     0
  0
SCALE
  5
4D
102
{ACAD_REACTORS
330
3D
102
}
330
3D
100
AcDbScale
 70
     0
300
10:1
140
10.0
141
1.0
290
     0
  0
SCALE
  5
4E
102
{ACAD_REACTORS
330
3D
102
}
330
3D
100
AcDbScale
 70
     0
300
100:1
140
100.0
141
1.0
290
     0
  0
TABLESTYLE
  5
60
102
{ACAD_XDICTIONARY
360
77C5
102
}
102
{ACAD_REACTORS
330
5F
102
}
330
5F
100
AcDbTableStyle
  3
Standard
 70
     0
 71
     0
 40
1.5
 41
1.5
280
     0
281
     0
  7
Standard
140
4.5
170
     2
 62
     0
 63
     7
283
     0
274
    -2
284
     1
 64
     0
275
    -2
285
     1
 65
     0
276
    -2
286
     1
 66
     0
277
    -2
287
     1
 67
     0
278
    -2
288
     1
 68
     0
279
    -2
289
     1
 69
     0
  7
Standard
140
6.0
170
     5
 62
     0
 63
     7
283
     0
274
    -2
284
     1
 64
     0
275
    -2
285
     1
 65
     0
276
    -2
286
     1
 66
     0
277
    -2
287
     1
 67
     0
278
    -2
288
     1
 68
     0
279
    -2
289
     1
 69
     0
  7
Standard
140
4.5
170
     5
 62
     0
 63
     7
283
     0
274
    -2
284
     1
 64
     0
275
    -2
285
     1
 65
     0
276
    -2
286
     1
 66
     0
277
    -2
287
     1
 67
     0
278
    -2
288
     1
 68
     0
279
    -2
289
     1
 69
     0
  0
VISUALSTYLE
  5
2F
102
{ACAD_XDICTIONARY
360
77D7
102
}
102
{ACAD_REACTORS
330
29
102
}
330
29
100
AcDbVisualStyle
  2
2dWireframe
 70
     4
 71
     0
 72
     2
 73
     0
 90
        0
 40
-0.6
 41
-30.0
 62
     5
 63
     7
421
 16777215
 74
     1
 91
        4
 64
     7
 65
   257
 75
     1
175
     1
 42
1.0
 92
        0
 66
   257
 43
1.0
 76
     1
 77
     6
 78
     2
 67
     7
 79
     5
170
     0
171
     0
290
     0
174
     0
 93
        1
 44
0.0
173
     0
291
     0
 45
0.0
1001
ACAD
1000
AcDbSavedByObjectVersion
1070
     0
  0
VISUALSTYLE
  5
31
102
{ACAD_XDICTIONARY
360
77DB
102
}
102
{ACAD_REACTORS
330
29
102
}
330
29
100
AcDbVisualStyle
  2
3D Hidden
 70
     6
 71
     1
 72
     2
 73
     2
 90
        0
 40
-0.6
 41
-30.0
 62
     5
 63
     7
421
 16777215
 74
     2
 91
        2
 64
     7
 65
   257
 75
     2
175
     1
 42
179.0
 92
        0
 66
   257
 43
1.0
 76
     1
 77
     6
 78
     2
 67
     7
 79
     3
170
     0
171
     0
290
     0
174
     0
 93
        1
 44
0.0
173
     0
291
     0
 45
0.0
1001
ACAD
1000
AcDbSavedByObjectVersion
1070
     0
  0
VISUALSTYLE
  5
30
102
{ACAD_XDICTIONARY
360
77D9
102
}
102
{ACAD_REACTORS
330
29
102
}
330
29
100
AcDbVisualStyle
  2
3dWireframe
 70
     5
 71
     0
 72
     2
 73
     0
 90
        0
 40
-0.6
 41
-30.0
 62
     5
 63
     7
421
 16777215
 74
     1
 91
        4
 64
     7
 65
   257
 75
     1
175
     1
 42
1.0
 92
        0
 66
   257
 43
1.0
 76
     1
 77
     6
 78
     2
 67
     7
 79
     5
170
     0
171
     0
290
     0
174
     0
 93
        1
 44
0.0
173
     0
291
     0
 45
0.0
1001
ACAD
1000
AcDbSavedByObjectVersion
1070
     0
  0
VISUALSTYLE
  5
2E
102
{ACAD_XDICTIONARY
360
77D5
102
}
102
{ACAD_REACTORS
330
29
102
}
330
29
100
AcDbVisualStyle
  2
Basic
 70
     7
 71
     1
 72
     0
 73
     1
 90
        0
 40
-0.6
 41
-30.0
 62
     5
 63
     7
421
 16777215
 74
     0
 91
        4
 64
     7
 65
   257
 75
     1
175
     1
 42
1.0
 92
        8
 66
     7
 43
1.0
 76
     1
 77
     6
 78
     2
 67
     7
 79
     5
170
     0
171
     0
290
     0
174
     0
 93
        1
 44
0.0
173
     0
291
     1
 45
0.0
1001
ACAD
1000
AcDbSavedByObjectVersion
1070
     0
  0
VISUALSTYLE
  5
35
102
{ACAD_XDICTIONARY
360
77E3
102
}
102
{ACAD_REACTORS
330
29
102
}
330
29
100
AcDbVisualStyle
  2
Brighten
 70
    12
 71
     2
 72
     2
 73
     0
 90
        0
 40
-0.6
 41
-30.0
 62
     5
 63
     7
421
 16777215
 74
     1
 91
        4
 64
     7
 65
   257
 75
     1
175
     1
 42
1.0
 92
        8
 66
     7
 43
1.0
 76
     1
 77
     6
 78
     2
 67
     7
 79
     5
170
     0
171
     0
290
     0
174
     0
 93
        1
 44
50.0
173
     0
291
     1
 45
0.0
1001
ACAD
1000
AcDbSavedByObjectVersion
1070
     0
  0
VISUALSTYLE
  5
39
102
{ACAD_XDICTIONARY
360
77EB
102
}
102
{ACAD_REACTORS
330
29
102
}
330
29
100
AcDbVisualStyle
  2
ColorChange
 70
    16
 71
     2
 72
     2
 73
     3
 90
        0
 40
-0.6
 41
-30.0
 62
     5
 63
     8
421
  8421504
 74
     1
 91
        4
 64
     7
 65
   257
 75
     1
175
     1
 42
1.0
 92
        8
 66
     8
424
  8421504
 43
1.0
 76
     1
 77
     6
 78
     2
 67
     7
 79
     5
170
     0
171
     0
290
     0
174
     0
 93
        1
 44
0.0
173
     0
291
     1
 45
0.0
1001
ACAD
1000
AcDbSavedByObjectVersion
1070
     0
  0
VISUALSTYLE
  5
32
102
{ACAD_XDICTIONARY
360
77DD
102
}
102
{ACAD_REACTORS
330
29
102
}
330
29
100
AcDbVisualStyle
  2
Conceptual
 70
     9
 71
     3
 72
     2
 73
     0
 90
        0
 40
-0.6
 41
-30.0
 62
     5
 63
     7
421
 16777215
 74
     2
 91
        2
 64
     7
 65
   257
 75
     1
175
     1
 42
179.0
 92
        8
 66
     7
 43
1.0
 76
     1
 77
     6
 78
     2
 67
     7
 79
     3
170
     0
171
     0
290
     0
174
     0
 93
        1
 44
0.0
173
     0
291
     0
 45
0.0
1001
ACAD
1000
AcDbSavedByObjectVersion
1070
     0
  0
VISUALSTYLE
  5
34
102
{ACAD_XDICTIONARY
360
77E1
102
}
102
{ACAD_REACTORS
330
29
102
}
330
29
100
AcDbVisualStyle
  2
Dim
 70
    11
 71
     2
 72
     2
 73
     0
 90
        0
 40
-0.6
 41
-30.0
 62
     5
 63
     7
421
 16777215
 74
     1
 91
        4
 64
     7
 65
   257
 75
     1
175
     1
 42
1.0
 92
        8
 66
     7
 43
1.0
 76
     1
 77
     6
 78
     2
 67
     7
 79
     5
170
     0
171
     0
290
     0
174
     0
 93
        1
 44
-50.0
173
     0
291
     1
 45
0.0
1001
ACAD
1000
AcDbSavedByObjectVersion
1070
     0
  0
VISUALSTYLE
  5
3C
102
{ACAD_XDICTIONARY
360
77F1
102
}
102
{ACAD_REACTORS
330
29
102
}
330
29
100
AcDbVisualStyle
  2
EdgeColorOff
 70
    22
 71
     2
 72
     2
 73
     0
 90
        0
 40
-0.6
 41
-30.0
 62
     5
 63
     7
421
 16777215
 74
     1
 91
        4
 64
     7
 65
   257
 75
     1
175
     1
 42
1.0
 92
        8
 66
     7
 43
1.0
 76
     1
 77
     6
 78
     2
 67
     7
 79
     5
170
     0
171
     0
290
     0
174
     0
 93
        1
 44
0.0
173
     0
291
     1
 45
0.0
1001
ACAD
1000
AcDbSavedByObjectVersion
1070
     0
  0
VISUALSTYLE
  5
38
102
{ACAD_XDICTIONARY
360
77E9
102
}
102
{ACAD_REACTORS
330
29
102
}
330
29
100
AcDbVisualStyle
  2
Facepattern
 70
    15
 71
     2
 72
     2
 73
     0
 90
        0
 40
-0.6
 41
-30.0
 62
     5
 63
     7
421
 16777215
 74
     1
 91
        4
 64
     7
 65
   257
 75
     1
175
     1
 42
1.0
 92
        8
 66
     7
 43
1.0
 76
     1
 77
     6
 78
     2
 67
     7
 79
     5
170
     0
171
     0
290
     0
174
     0
 93
        1
 44
0.0
173
     0
291
     1
 45
0.0
1001
ACAD
1000
AcDbSavedByObjectVersion
1070
     0
  0
VISUALSTYLE
  5
2A
102
{ACAD_XDICTIONARY
360
77CD
102
}
102
{ACAD_REACTORS
330
29
102
}
330
29
100
AcDbVisualStyle
  2
Flat
 70
     0
 71
     2
 72
     1
 73
     1
 90
        2
 40
-0.6
 41
30.0
 62
     5
 63
     7
421
 16777215
 74
     0
 91
        4
 64
     7
 65
   257
 75
     1
175
     1
 42
1.0
 92
        8
 66
     7
 43
1.0
 76
     1
 77
     6
 78
     2
 67
     7
 79
     5
170
     0
171
     0
290
     0
174
     0
 93
       13
 44
0.0
173
     0
291
     1
 45
0.0
1001
ACAD
1000
AcDbSavedByObjectVersion
1070
     0
  0
VISUALSTYLE
  5
2B
102
{ACAD_XDICTIONARY
360
77CF
102
}
102
{ACAD_REACTORS
330
29
102
}
330
29
100
AcDbVisualStyle
  2
FlatWithEdges
 70
     1
 71
     2
 72
     1
 73
     1
 90
        2
 40
-0.6
 41
30.0
 62
     5
 63
     7
421
 16777215
 74
     1
 91
        4
 64
     7
 65
   257
 75
     1
175
     1
 42
1.0
 92
        0
 66
   257
 43
1.0
 76
     1
 77
     6
 78
     2
 67
     7
 79
     5
170
     0
171
     0
290
     0
174
     0
 93
       13
 44
0.0
173
     0
291
     1
 45
0.0
1001
ACAD
1000
AcDbSavedByObjectVersion
1070
     0
  0
VISUALSTYLE
  5
2C
102
{ACAD_XDICTIONARY
360
77D1
102
}
102
{ACAD_REACTORS
330
29
102
}
330
29
100
AcDbVisualStyle
  2
Gouraud
 70
     2
 71
     2
 72
     2
 73
     1
 90
        2
 40
-0.6
 41
30.0
 62
     5
 63
     7
421
 16777215
 74
     0
 91
        4
 64
     7
 65
   257
 75
     1
175
     1
 42
1.0
 92
        0
 66
     7
 43
1.0
 76
     1
 77
     6
 78
     2
 67
     7
 79
     5
170
     0
171
     0
290
     0
174
     0
 93
       13
 44
0.0
173
     0
291
     1
 45
0.0
1001
ACAD
1000
AcDbSavedByObjectVersion
1070
     0
  0
VISUALSTYLE
  5
2D
102
{ACAD_XDICTIONARY
360
77D3
102
}
102
{ACAD_REACTORS
330
29
102
}
330
29
100
AcDbVisualStyle
  2
GouraudWithEdges
 70
     3
 71
     2
 72
     2
 73
     1
 90
        2
 40
-0.6
 41
30.0
 62
     5
 63
     7
421
 16777215
 74
     1
 91
        4
 64
     7
 65
   257
 75
     1
175
     1
 42
1.0
 92
        0
 66
   257
 43
1.0
 76
     1
 77
     6
 78
     2
 67
     7
 79
     5
170
     0
171
     0
290
     0
174
     0
 93
       13
 44
0.0
173
     0
291
     1
 45
0.0
1001
ACAD
1000
AcDbSavedByObjectVersion
1070
     0
  0
VISUALSTYLE
  5
3A
102
{ACAD_XDICTIONARY
360
77ED
102
}
102
{ACAD_REACTORS
330
29
102
}
330
29
100
AcDbVisualStyle
  2
JitterOff
 70
    20
 71
     2
 72
     2
 73
     0
 90
        0
 40
-0.6
 41
-30.0
 62
     5
 63
     7
421
 16777215
 74
     1
 91
        4
 64
     7
 65
   257
 75
     1
175
     1
 42
1.0
 92
       10
 66
     7
 43
1.0
 76
     1
 77
     6
 78
     2
 67
     7
 79
     5
170
     0
171
     0
290
     0
174
     0
 93
        1
 44
0.0
173
     0
291
     1
 45
0.0
1001
ACAD
1000
AcDbSavedByObjectVersion
1070
     0
  0
VISUALSTYLE
  5
37
102
{ACAD_XDICTIONARY
360
77E7
102
}
102
{ACAD_REACTORS
330
29
102
}
330
29
100
AcDbVisualStyle
  2
Linepattern
 70
    14
 71
     2
 72
     2
 73
     0
 90
        0
 40
-0.6
 41
-30.0
 62
     5
 63
     7
421
 16777215
 74
     1
 91
        4
 64
     7
 65
   257
 75
     7
175
     7
 42
1.0
 92
        8
 66
     7
 43
1.0
 76
     1
 77
     6
 78
     2
 67
     7
 79
     5
170
     0
171
     0
290
     0
174
     0
 93
        1
 44
0.0
173
     0
291
     1
 45
0.0
1001
ACAD
1000
AcDbSavedByObjectVersion
1070
     0
  0
VISUALSTYLE
  5
3B
102
{ACAD_XDICTIONARY
360
77EF
102
}
102
{ACAD_REACTORS
330
29
102
}
330
29
100
AcDbVisualStyle
  2
OverhangOff
 70
    21
 71
     2
 72
     2
 73
     0
 90
        0
 40
-0.6
 41
-30.0
 62
     5
 63
     7
421
 16777215
 74
     1
 91
        4
 64
     7
 65
   257
 75
     1
175
     1
 42
1.0
 92
        9
 66
     7
 43
1.0
 76
     1
 77
     6
 78
     2
 67
     7
 79
     5
170
     0
171
     0
290
     0
174
     0
 93
        1
 44
0.0
173
     0
291
     1
 45
0.0
1001
ACAD
1000
AcDbSavedByObjectVersion
1070
     0
  0
VISUALSTYLE
  5
33
102
{ACAD_XDICTIONARY
360
77DF
102
}
102
{ACAD_REACTORS
330
29
102
}
330
29
100
AcDbVisualStyle
  2
Realistic
 70
     8
 71
     2
 72
     2
 73
     0
 90
        0
 40
-0.6
 41
-30.0
 62
     5
 63
     7
421
 16777215
 74
     1
 91
        0
 64
     7
 65
   257
 75
     1
175
     1
 42
1.0
 92
        8
 66
     8
424
  7895160
 43
1.0
 76
     1
 77
     6
 78
     2
 67
     7
 79
     5
170
     0
171
     0
290
     0
174
     0
 93
       13
 44
0.0
173
     0
291
     0
 45
0.0
1001
ACAD
1000
AcDbSavedByObjectVersion
1070
     0
  0
VISUALSTYLE
  5
36
102
{ACAD_XDICTIONARY
360
77E5
102
}
102
{ACAD_REACTORS
330
29
102
}
330
29
100
AcDbVisualStyle
  2
Thicken
 70
    13
 71
     2
 72
     2
 73
     0
 90
        0
 40
-0.6
 41
-30.0
 62
     5
 63
     7
421
 16777215
 74
     1
 91
        4
 64
     7
 65
   257
 75
     1
175
     1
 42
1.0
 92
       12
 66
     7
 43
1.0
 76
     1
 77
     6
 78
     2
 67
     7
 79
     5
170
     0
171
     0
290
     0
174
     0
 93
        1
 44
0.0
173
     0
291
     1
 45
0.0
1001
ACAD
1000
AcDbSavedByObjectVersion
1070
     0
  0
DICTIONARYVAR
  5
77C0
102
{ACAD_REACTORS
330
77BC
102
}
330
77BC
100
DictionaryVariables
280
     0
  1
1:1
  0
DICTIONARYVAR
  5
77BE
102
{ACAD_REACTORS
330
77BC
102
}
330
77BC
100
DictionaryVariables
280
     0
  1
STANDARD
  0
DICTIONARYVAR
  5
77BD
102
{ACAD_REACTORS
330
77BC
102
}
330
77BC
100
DictionaryVariables
280
     0
  1
STANDARD
  0
DICTIONARYVAR
  5
77C2
102
{ACAD_REACTORS
330
77BC
102
}
330
77BC
100
DictionaryVariables
280
     0
  1
0
  0
DICTIONARYVAR
  5
77C3
102
{ACAD_REACTORS
330
77BC
102
}
330
77BC
100
DictionaryVariables
280
     0
  1
0
  0
DICTIONARYVAR
  5
77C1
102
{ACAD_REACTORS
330
77BC
102
}
330
77BC
100
DictionaryVariables
280
     0
  1
2
  0
DICTIONARYVAR
  5
77BF
102
{ACAD_REACTORS
330
77BC
102
}
330
77BC
100
DictionaryVariables
280
     0
  1
1
  0
DICTIONARYVAR
  5
77C4
102
{ACAD_REACTORS
330
77BC
102
}
330
77BC
100
DictionaryVariables
280
     0
  1
2
  0
DICTIONARY
  5
1A
330
19
100
AcDbDictionary
280
     1
281
     1
  3
ACAD_XREC_ROUNDTRIP
360
77CB
  3
BUMPTILE
360
1C
  3
DIFFUSETILE
360
1B
  3
OPACITYTILE
360
1F
  3
REFLECTIONTILE
360
1E
  3
REFRACTIONTILE
360
20
  3
SPECULARTILE
360
1D
  0
DICTIONARY
  5
12
330
11
100
AcDbDictionary
280
     1
281
     1
  3
ACAD_XREC_ROUNDTRIP
360
77CA
  3
BUMPTILE
360
14
  3
DIFFUSETILE
360
13
  3
OPACITYTILE
360
17
  3
REFLECTIONTILE
360
16
  3
REFRACTIONTILE
360
18
  3
SPECULARTILE
360
15
  0
DICTIONARY
  5
22
330
21
100
AcDbDictionary
280
     1
281
     1
  3
ACAD_XREC_ROUNDTRIP
360
77CC
  3
BUMPTILE
360
24
  3
DIFFUSETILE
360
23
  3
OPACITYTILE
360
27
  3
REFLECTIONTILE
360
26
  3
REFRACTIONTILE
360
28
  3
SPECULARTILE
360
25
  0
DICTIONARY
  5
77C5
330
60
100
AcDbDictionary
280
     1
281
     1
  3
ACAD_ROUNDTRIP_2008_TABLESTYLE_CELLSTYLEMAP
360
77C6
  3
ACAD_XREC_ROUNDTRIP
360
77F4
  0
DICTIONARY
  5
77D7
330
2F
100
AcDbDictionary
280
     1
281
     1
  3
ACAD_XREC_ROUNDTRIP
360
77D8
  0
DICTIONARY
  5
77DB
330
31
100
AcDbDictionary
280
     1
281
     1
  3
ACAD_XREC_ROUNDTRIP
360
77DC
  0
DICTIONARY
  5
77D9
330
30
100
AcDbDictionary
280
     1
281
     1
  3
ACAD_XREC_ROUNDTRIP
360
77DA
  0
DICTIONARY
  5
77D5
330
2E
100
AcDbDictionary
280
     1
281
     1
  3
ACAD_XREC_ROUNDTRIP
360
77D6
  0
DICTIONARY
  5
77E3
330
35
100
AcDbDictionary
280
     1
281
     1
  3
ACAD_XREC_ROUNDTRIP
360
77E4
  0
DICTIONARY
  5
77EB
330
39
100
AcDbDictionary
280
     1
281
     1
  3
ACAD_XREC_ROUNDTRIP
360
77EC
  0
DICTIONARY
  5
77DD
330
32
100
AcDbDictionary
280
     1
281
     1
  3
ACAD_XREC_ROUNDTRIP
360
77DE
  0
DICTIONARY
  5
77E1
330
34
100
AcDbDictionary
280
     1
281
     1
  3
ACAD_XREC_ROUNDTRIP
360
77E2
  0
DICTIONARY
  5
77F1
330
3C
100
AcDbDictionary
280
     1
281
     1
  3
ACAD_XREC_ROUNDTRIP
360
77F2
  0
DICTIONARY
  5
77E9
330
38
100
AcDbDictionary
280
     1
281
     1
  3
ACAD_XREC_ROUNDTRIP
360
77EA
  0
DICTIONARY
  5
77CD
330
2A
100
AcDbDictionary
280
     1
281
     1
  3
ACAD_XREC_ROUNDTRIP
360
77CE
  0
DICTIONARY
  5
77CF
330
2B
100
AcDbDictionary
280
     1
281
     1
  3
ACAD_XREC_ROUNDTRIP
360
77D0
  0
DICTIONARY
  5
77D1
330
2C
100
AcDbDictionary
280
     1
281
     1
  3
ACAD_XREC_ROUNDTRIP
360
77D2
  0
DICTIONARY
  5
77D3
330
2D
100
AcDbDictionary
280
     1
281
     1
  3
ACAD_XREC_ROUNDTRIP
360
77D4
  0
DICTIONARY
  5
77ED
330
3A
100
AcDbDictionary
280
     1
281
     1
  3
ACAD_XREC_ROUNDTRIP
360
77EE
  0
DICTIONARY
  5
77E7
330
37
100
AcDbDictionary
280
     1
281
     1
  3
ACAD_XREC_ROUNDTRIP
360
77E8
  0
DICTIONARY
  5
77EF
330
3B
100
AcDbDictionary
280
     1
281
     1
  3
ACAD_XREC_ROUNDTRIP
360
77F0
  0
DICTIONARY
  5
77DF
330
33
100
AcDbDictionary
280
     1
281
     1
  3
ACAD_XREC_ROUNDTRIP
360
77E0
  0
DICTIONARY
  5
77E5
330
36
100
AcDbDictionary
280
     1
281
     1
  3
ACAD_XREC_ROUNDTRIP
360
77E6
  0
XRECORD
  5
77CB
102
{ACAD_REACTORS
330
1A
102
}
330
1A
100
AcDbXrecord
280
     1
102
MATERIAL
148
0.0
149
0.0
149
0.0
 93
        0
 94
      127
282
     0
 72
     0
 77
     0
171
     0
175
     0
179
     0
273
     0
  0
XRECORD
  5
1C
102
{ACAD_REACTORS
330
1A
102
}
330
1A
100
AcDbXrecord
280
     1
270
     1
271
     1
  0
XRECORD
  5
1B
102
{ACAD_REACTORS
330
1A
102
}
330
1A
100
AcDbXrecord
280
     1
270
     1
271
     1
  0
XRECORD
  5
1F
102
{ACAD_REACTORS
330
1A
102
}
330
1A
100
AcDbXrecord
280
     1
270
     1
271
     1
  0
XRECORD
  5
1E
102
{ACAD_REACTORS
330
1A
102
}
330
1A
100
AcDbXrecord
280
     1
270
     1
271
     1
  0
XRECORD
  5
20
102
{ACAD_REACTORS
330
1A
102
}
330
1A
100
AcDbXrecord
280
     1
270
     1
271
     1
  0
XRECORD
  5
1D
102
{ACAD_REACTORS
330
1A
102
}
330
1A
100
AcDbXrecord
280
     1
270
     1
271
     1
  0
XRECORD
  5
77CA
102
{ACAD_REACTORS
330
12
102
}
330
12
100
AcDbXrecord
280
     1
102
MATERIAL
148
0.0
149
0.0
149
0.0
 93
        0
 94
      127
282
     0
 72
     0
 77
     0
171
     0
175
     0
179
     0
273
     0
  0
XRECORD
  5
14
102
{ACAD_REACTORS
330
12
102
}
330
12
100
AcDbXrecord
280
     1
270
     1
271
     1
  0
XRECORD
  5
13
102
{ACAD_REACTORS
330
12
102
}
330
12
100
AcDbXrecord
280
     1
270
     1
271
     1
  0
XRECORD
  5
17
102
{ACAD_REACTORS
330
12
102
}
330
12
100
AcDbXrecord
280
     1
270
     1
271
     1
  0
XRECORD
  5
16
102
{ACAD_REACTORS
330
12
102
}
330
12
100
AcDbXrecord
280
     1
270
     1
271
     1
  0
XRECORD
  5
18
102
{ACAD_REACTORS
330
12
102
}
330
12
100
AcDbXrecord
280
     1
270
     1
271
     1
  0
XRECORD
  5
15
102
{ACAD_REACTORS
330
12
102
}
330
12
100
AcDbXrecord
280
     1
270
     1
271
     1
  0
XRECORD
  5
77CC
102
{ACAD_REACTORS
330
22
102
}
330
22
100
AcDbXrecord
280
     1
102
MATERIAL
148
0.0
149
0.0
149
0.0
 93
        0
 94
      127
282
     0
 72
     0
 77
     0
171
     0
175
     0
179
     0
273
     0
  0
XRECORD
  5
24
102
{ACAD_REACTORS
330
22
102
}
330
22
100
AcDbXrecord
280
     1
270
     1
271
     1
  0
XRECORD
  5
23
102
{ACAD_REACTORS
330
22
102
}
330
22
100
AcDbXrecord
280
     1
270
     1
271
     1
  0
XRECORD
  5
27
102
{ACAD_REACTORS
330
22
102
}
330
22
100
AcDbXrecord
280
     1
270
     1
271
     1
  0
XRECORD
  5
26
102
{ACAD_REACTORS
330
22
102
}
330
22
100
AcDbXrecord
280
     1
270
     1
271
     1
  0
XRECORD
  5
28
102
{ACAD_REACTORS
330
22
102
}
330
22
100
AcDbXrecord
280
     1
270
     1
271
     1
  0
XRECORD
  5
25
102
{ACAD_REACTORS
330
22
102
}
330
22
100
AcDbXrecord
280
     1
270
     1
271
     1
  0
CELLSTYLEMAP
  5
77C6
102
{ACAD_REACTORS
330
77C5
102
}
330
77C5
100
AcDbCellStyleMap
 90
        3
300
CELLSTYLE
  1
TABLEFORMAT_BEGIN
 90
        5
170
     1
 91
        0
 92
    32768
 62
   257
 93
        1
300
CONTENTFORMAT
  1
CONTENTFORMAT_BEGIN
 90
        0
 91
        0
 92
      512
 93
        0
300

 40
0.0
140
1.0
 94
        5
 62
     0
340
50
144
6.0
309
CONTENTFORMAT_END
171
     1
301
MARGIN
  1
CELLMARGIN_BEGIN
 40
1.5
 40
1.5
 40
1.5
 40
1.5
 40
4.5
 40
4.5
309
CELLMARGIN_END
 94
        6
 95
        1
302
GRIDFORMAT
  1
GRIDFORMAT_BEGIN
 90
        0
 91
        1
 62
     0
 92
       -2
340
0
 93
        0
 40
1.125
309
GRIDFORMAT_END
 95
        2
302
GRIDFORMAT
  1
GRIDFORMAT_BEGIN
 90
        0
 91
        1
 62
     0
 92
       -2
340
0
 93
        0
 40
1.125
309
GRIDFORMAT_END
 95
        4
302
GRIDFORMAT
  1
GRIDFORMAT_BEGIN
 90
        0
 91
        1
 62
     0
 92
       -2
340
0
 93
        0
 40
1.125
309
GRIDFORMAT_END
 95
        8
302
GRIDFORMAT
  1
GRIDFORMAT_BEGIN
 90
        0
 91
        1
 62
     0
 92
       -2
340
0
 93
        0
 40
1.125
309
GRIDFORMAT_END
 95
       16
302
GRIDFORMAT
  1
GRIDFORMAT_BEGIN
 90
        0
 91
        1
 62
     0
 92
       -2
340
0
 93
        0
 40
1.125
309
GRIDFORMAT_END
 95
       32
302
GRIDFORMAT
  1
GRIDFORMAT_BEGIN
 90
        0
 91
        1
 62
     0
 92
       -2
340
0
 93
        0
 40
1.125
309
GRIDFORMAT_END
309
TABLEFORMAT_END
  1
CELLSTYLE_BEGIN
 90
        1
 91
        1
300
_TITLE
309
CELLSTYLE_END
300
CELLSTYLE
  1
TABLEFORMAT_BEGIN
 90
        5
170
     1
 91
        0
 92
        0
 62
   257
 93
        1
300
CONTENTFORMAT
  1
CONTENTFORMAT_BEGIN
 90
        0
 91
        0
 92
      512
 93
        0
300

 40
0.0
140
1.0
 94
        5
 62
     0
340
50
144
4.5
309
CONTENTFORMAT_END
171
     1
301
MARGIN
  1
CELLMARGIN_BEGIN
 40
1.5
 40
1.5
 40
1.5
 40
1.5
 40
4.5
 40
4.5
309
CELLMARGIN_END
 94
        6
 95
        1
302
GRIDFORMAT
  1
GRIDFORMAT_BEGIN
 90
        0
 91
        1
 62
     0
 92
       -2
340
0
 93
        0
 40
1.125
309
GRIDFORMAT_END
 95
        2
302
GRIDFORMAT
  1
GRIDFORMAT_BEGIN
 90
        0
 91
        1
 62
     0
 92
       -2
340
0
 93
        0
 40
1.125
309
GRIDFORMAT_END
 95
        4
302
GRIDFORMAT
  1
GRIDFORMAT_BEGIN
 90
        0
 91
        1
 62
     0
 92
       -2
340
0
 93
        0
 40
1.125
309
GRIDFORMAT_END
 95
        8
302
GRIDFORMAT
  1
GRIDFORMAT_BEGIN
 90
        0
 91
        1
 62
     0
 92
       -2
340
0
 93
        0
 40
1.125
309
GRIDFORMAT_END
 95
       16
302
GRIDFORMAT
  1
GRIDFORMAT_BEGIN
 90
        0
 91
        1
 62
     0
 92
       -2
340
0
 93
        0
 40
1.125
309
GRIDFORMAT_END
 95
       32
302
GRIDFORMAT
  1
GRIDFORMAT_BEGIN
 90
        0
 91
        1
 62
     0
 92
       -2
340
0
 93
        0
 40
1.125
309
GRIDFORMAT_END
309
TABLEFORMAT_END
  1
CELLSTYLE_BEGIN
 90
        2
 91
        1
300
_HEADER
309
CELLSTYLE_END
300
CELLSTYLE
  1
TABLEFORMAT_BEGIN
 90
        5
170
     1
 91
        0
 92
        0
 62
   257
 93
        1
300
CONTENTFORMAT
  1
CONTENTFORMAT_BEGIN
 90
        0
 91
        0
 92
      512
 93
        0
300

 40
0.0
140
1.0
 94
        2
 62
     0
340
50
144
4.5
309
CONTENTFORMAT_END
171
     1
301
MARGIN
  1
CELLMARGIN_BEGIN
 40
1.5
 40
1.5
 40
1.5
 40
1.5
 40
4.5
 40
4.5
309
CELLMARGIN_END
 94
        6
 95
        1
302
GRIDFORMAT
  1
GRIDFORMAT_BEGIN
 90
        0
 91
        1
 62
     0
 92
       -2
340
0
 93
        0
 40
1.125
309
GRIDFORMAT_END
 95
        2
302
GRIDFORMAT
  1
GRIDFORMAT_BEGIN
 90
        0
 91
        1
 62
     0
 92
       -2
340
0
 93
        0
 40
1.125
309
GRIDFORMAT_END
 95
        4
302
GRIDFORMAT
  1
GRIDFORMAT_BEGIN
 90
        0
 91
        1
 62
     0
 92
       -2
340
0
 93
        0
 40
1.125
309
GRIDFORMAT_END
 95
        8
302
GRIDFORMAT
  1
GRIDFORMAT_BEGIN
 90
        0
 91
        1
 62
     0
 92
       -2
340
0
 93
        0
 40
1.125
309
GRIDFORMAT_END
 95
       16
302
GRIDFORMAT
  1
GRIDFORMAT_BEGIN
 90
        0
 91
        1
 62
     0
 92
       -2
340
0
 93
        0
 40
1.125
309
GRIDFORMAT_END
 95
       32
302
GRIDFORMAT
  1
GRIDFORMAT_BEGIN
 90
        0
 91
        1
 62
     0
 92
       -2
340
0
 93
        0
 40
1.125
309
GRIDFORMAT_END
309
TABLEFORMAT_END
  1
CELLSTYLE_BEGIN
 90
        3
 91
        2
300
_DATA
309
CELLSTYLE_END
  0
XRECORD
  5
77F4
102
{ACAD_REACTORS
330
77C5
102
}
330
77C5
100
AcDbXrecord
280
     1
102
ACAD_ROUNDTRIP_PRE2007_TABLESTYLE
 90
      512
 91
        0
  1

 92
      512
 93
        0
  2

 94
      512
 95
        0
  3

  0
XRECORD
  5
77D8
102
{ACAD_REACTORS
330
77D7
102
}
330
77D7
100
AcDbXrecord
280
     1
102
RTVSPropertyOp0
 70
     1
102
RTVSPropertyOp1
 70
     1
102
RTVSPropertyOp2
 70
     1
102
RTVSPropertyOp3
 70
     1
102
RTVSPropertyOp4
 70
     1
102
RTVSPropertyOp5
 70
     1
102
RTVSPropertyOp6
 70
     1
102
RTVSPropertyOp7
 70
     1
102
RTVSPropertyOp8
 70
     1
102
RTVSPropertyOp9
 70
     1
102
RTVSPropertyOp10
 70
     1
102
RTVSPropertyOp11
 70
     1
102
RTVSPropertyOp12
 70
     1
102
RTVSPropertyOp13
 70
     1
102
RTVSPropertyOp14
 70
     1
102
RTVSPropertyOp15
 70
     1
102
RTVSPropertyOp16
 70
     1
102
RTVSPropertyOp17
 70
     1
102
RTVSPropertyOp18
 70
     1
102
RTVSPropertyOp19
 70
     1
102
RTVSPropertyOp20
 70
     1
102
RTVSPropertyOp21
 70
     1
102
RTVSPropertyOp22
 70
     1
102
RTVSPropertyOp23
 70
     1
102
RTVSPropertyOp24
 70
     1
102
RTVSPropertyOp25
 70
     1
102
RTVSPropertyOp26
 70
     1
102
RTVSPropertyOp27
 70
     1
  0
XRECORD
  5
77DC
102
{ACAD_REACTORS
330
77DB
102
}
330
77DB
100
AcDbXrecord
280
     1
102
RTVSPropertyOp0
 70
     1
102
RTVSPropertyOp1
 70
     1
102
RTVSPropertyOp2
 70
     1
102
RTVSPropertyOp3
 70
     1
102
RTVSPropertyOp4
 70
     1
102
RTVSPropertyOp5
 70
     1
102
RTVSPropertyOp6
 70
     1
102
RTVSPropertyOp7
 70
     1
102
RTVSPropertyOp8
 70
     1
102
RTVSPropertyOp9
 70
     1
102
RTVSPropertyOp10
 70
     1
102
RTVSPropertyOp11
 70
     1
102
RTVSPropertyOp12
 70
     1
102
RTVSPropertyOp13
 70
     1
102
RTVSPropertyOp14
 70
     1
102
RTVSPropertyOp15
 70
     1
102
RTVSPropertyOp16
 70
     1
102
RTVSPropertyOp17
 70
     1
102
RTVSPropertyOp18
 70
     1
102
RTVSPropertyOp19
 70
     1
102
RTVSPropertyOp20
 70
     1
102
RTVSPropertyOp21
 70
     1
102
RTVSPropertyOp22
 70
     1
102
RTVSPropertyOp23
 70
     1
102
RTVSPropertyOp24
 70
     1
102
RTVSPropertyOp25
 70
     1
102
RTVSPropertyOp26
 70
     1
102
RTVSPropertyOp27
 70
     1
  0
XRECORD
  5
77DA
102
{ACAD_REACTORS
330
77D9
102
}
330
77D9
100
AcDbXrecord
280
     1
102
RTVSPropertyOp0
 70
     1
102
RTVSPropertyOp1
 70
     1
102
RTVSPropertyOp2
 70
     1
102
RTVSPropertyOp3
 70
     1
102
RTVSPropertyOp4
 70
     1
102
RTVSPropertyOp5
 70
     1
102
RTVSPropertyOp6
 70
     1
102
RTVSPropertyOp7
 70
     1
102
RTVSPropertyOp8
 70
     1
102
RTVSPropertyOp9
 70
     1
102
RTVSPropertyOp10
 70
     1
102
RTVSPropertyOp11
 70
     1
102
RTVSPropertyOp12
 70
     1
102
RTVSPropertyOp13
 70
     1
102
RTVSPropertyOp14
 70
     1
102
RTVSPropertyOp15
 70
     1
102
RTVSPropertyOp16
 70
     1
102
RTVSPropertyOp17
 70
     1
102
RTVSPropertyOp18
 70
     1
102
RTVSPropertyOp19
 70
     1
102
RTVSPropertyOp20
 70
     1
102
RTVSPropertyOp21
 70
     1
102
RTVSPropertyOp22
 70
     1
102
RTVSPropertyOp23
 70
     1
102
RTVSPropertyOp24
 70
     1
102
RTVSPropertyOp25
 70
     1
102
RTVSPropertyOp26
 70
     1
102
RTVSPropertyOp27
 70
     1
  0
XRECORD
  5
77D6
102
{ACAD_REACTORS
330
77D5
102
}
330
77D5
100
AcDbXrecord
280
     1
102
RTVSPropertyOp0
 70
     1
102
RTVSPropertyOp1
 70
     1
102
RTVSPropertyOp2
 70
     1
102
RTVSPropertyOp3
 70
     1
102
RTVSPropertyOp4
 70
     1
102
RTVSPropertyOp5
 70
     1
102
RTVSPropertyOp6
 70
     1
102
RTVSPropertyOp7
 70
     1
102
RTVSPropertyOp8
 70
     1
102
RTVSPropertyOp9
 70
     1
102
RTVSPropertyOp10
 70
     1
102
RTVSPropertyOp11
 70
     1
102
RTVSPropertyOp12
 70
     1
102
RTVSPropertyOp13
 70
     1
102
RTVSPropertyOp14
 70
     1
102
RTVSPropertyOp15
 70
     1
102
RTVSPropertyOp16
 70
     1
102
RTVSPropertyOp17
 70
     1
102
RTVSPropertyOp18
 70
     1
102
RTVSPropertyOp19
 70
     1
102
RTVSPropertyOp20
 70
     1
102
RTVSPropertyOp21
 70
     1
102
RTVSPropertyOp22
 70
     1
102
RTVSPropertyOp23
 70
     1
102
RTVSPropertyOp24
 70
     1
102
RTVSPropertyOp25
 70
     1
102
RTVSPropertyOp26
 70
     1
102
RTVSPropertyOp27
 70
     1
  0
XRECORD
  5
77E4
102
{ACAD_REACTORS
330
77E3
102
}
330
77E3
100
AcDbXrecord
280
     1
102
RTVSPropertyOp0
 70
     1
102
RTVSPropertyOp1
 70
     1
102
RTVSPropertyOp2
 70
     1
102
RTVSPropertyOp3
 70
     1
102
RTVSPropertyOp4
 70
     1
102
RTVSPropertyOp5
 70
     1
102
RTVSPropertyOp6
 70
     1
102
RTVSPropertyOp7
 70
     1
102
RTVSPropertyOp8
 70
     1
102
RTVSPropertyOp9
 70
     1
102
RTVSPropertyOp10
 70
     1
102
RTVSPropertyOp11
 70
     1
102
RTVSPropertyOp12
 70
     1
102
RTVSPropertyOp13
 70
     1
102
RTVSPropertyOp14
 70
     1
102
RTVSPropertyOp15
 70
     1
102
RTVSPropertyOp16
 70
     1
102
RTVSPropertyOp17
 70
     1
102
RTVSPropertyOp18
 70
     1
102
RTVSPropertyOp19
 70
     1
102
RTVSPropertyOp20
 70
     1
102
RTVSPropertyOp21
 70
     1
102
RTVSPropertyOp22
 70
     1
102
RTVSPropertyOp23
 70
     1
102
RTVSPropertyOp24
 70
     1
102
RTVSPropertyOp25
 70
     1
102
RTVSPropertyOp26
 70
     1
102
RTVSPropertyOp27
 70
     1
  0
XRECORD
  5
77EC
102
{ACAD_REACTORS
330
77EB
102
}
330
77EB
100
AcDbXrecord
280
     1
102
RTVSPropertyOp0
 70
     1
102
RTVSPropertyOp1
 70
     1
102
RTVSPropertyOp2
 70
     1
102
RTVSPropertyOp3
 70
     1
102
RTVSPropertyOp4
 70
     1
102
RTVSPropertyOp5
 70
     1
102
RTVSPropertyOp6
 70
     1
102
RTVSPropertyOp7
 70
     1
102
RTVSPropertyOp8
 70
     1
102
RTVSPropertyOp9
 70
     1
102
RTVSPropertyOp10
 70
     1
102
RTVSPropertyOp11
 70
     1
102
RTVSPropertyOp12
 70
     1
102
RTVSPropertyOp13
 70
     1
102
RTVSPropertyOp14
 70
     1
102
RTVSPropertyOp15
 70
     1
102
RTVSPropertyOp16
 70
     1
102
RTVSPropertyOp17
 70
     1
102
RTVSPropertyOp18
 70
     1
102
RTVSPropertyOp19
 70
     1
102
RTVSPropertyOp20
 70
     1
102
RTVSPropertyOp21
 70
     1
102
RTVSPropertyOp22
 70
     1
102
RTVSPropertyOp23
 70
     1
102
RTVSPropertyOp24
 70
     1
102
RTVSPropertyOp25
 70
     1
102
RTVSPropertyOp26
 70
     1
102
RTVSPropertyOp27
 70
     1
  0
XRECORD
  5
77DE
102
{ACAD_REACTORS
330
77DD
102
}
330
77DD
100
AcDbXrecord
280
     1
102
RTVSPropertyOp0
 70
     1
102
RTVSPropertyOp1
 70
     1
102
RTVSPropertyOp2
 70
     1
102
RTVSPropertyOp3
 70
     1
102
RTVSPropertyOp4
 70
     1
102
RTVSPropertyOp5
 70
     1
102
RTVSPropertyOp6
 70
     1
102
RTVSPropertyOp7
 70
     1
102
RTVSPropertyOp8
 70
     1
102
RTVSPropertyOp9
 70
     1
102
RTVSPropertyOp10
 70
     1
102
RTVSPropertyOp11
 70
     1
102
RTVSPropertyOp12
 70
     1
102
RTVSPropertyOp13
 70
     1
102
RTVSPropertyOp14
 70
     1
102
RTVSPropertyOp15
 70
     1
102
RTVSPropertyOp16
 70
     1
102
RTVSPropertyOp17
 70
     1
102
RTVSPropertyOp18
 70
     1
102
RTVSPropertyOp19
 70
     1
102
RTVSPropertyOp20
 70
     1
102
RTVSPropertyOp21
 70
     1
102
RTVSPropertyOp22
 70
     1
102
RTVSPropertyOp23
 70
     1
102
RTVSPropertyOp24
 70
     1
102
RTVSPropertyOp25
 70
     1
102
RTVSPropertyOp26
 70
     1
102
RTVSPropertyOp27
 70
     1
  0
XRECORD
  5
77E2
102
{ACAD_REACTORS
330
77E1
102
}
330
77E1
100
AcDbXrecord
280
     1
102
RTVSPropertyOp0
 70
     1
102
RTVSPropertyOp1
 70
     1
102
RTVSPropertyOp2
 70
     1
102
RTVSPropertyOp3
 70
     1
102
RTVSPropertyOp4
 70
     1
102
RTVSPropertyOp5
 70
     1
102
RTVSPropertyOp6
 70
     1
102
RTVSPropertyOp7
 70
     1
102
RTVSPropertyOp8
 70
     1
102
RTVSPropertyOp9
 70
     1
102
RTVSPropertyOp10
 70
     1
102
RTVSPropertyOp11
 70
     1
102
RTVSPropertyOp12
 70
     1
102
RTVSPropertyOp13
 70
     1
102
RTVSPropertyOp14
 70
     1
102
RTVSPropertyOp15
 70
     1
102
RTVSPropertyOp16
 70
     1
102
RTVSPropertyOp17
 70
     1
102
RTVSPropertyOp18
 70
     1
102
RTVSPropertyOp19
 70
     1
102
RTVSPropertyOp20
 70
     1
102
RTVSPropertyOp21
 70
     1
102
RTVSPropertyOp22
 70
     1
102
RTVSPropertyOp23
 70
     1
102
RTVSPropertyOp24
 70
     1
102
RTVSPropertyOp25
 70
     1
102
RTVSPropertyOp26
 70
     1
102
RTVSPropertyOp27
 70
     1
  0
XRECORD
  5
77F2
102
{ACAD_REACTORS
330
77F1
102
}
330
77F1
100
AcDbXrecord
280
     1
102
RTVSPropertyOp0
 70
     0
102
RTVSPropertyOp1
 70
     0
102
RTVSPropertyOp2
 70
     0
102
RTVSPropertyOp3
 70
     0
102
RTVSPropertyOp4
 70
     0
102
RTVSPropertyOp5
 70
     0
102
RTVSPropertyOp6
 70
     0
102
RTVSPropertyOp7
 70
     0
102
RTVSPropertyOp8
 70
     0
102
RTVSPropertyOp9
 70
     0
102
RTVSPropertyOp10
 70
     0
102
RTVSPropertyOp11
 70
     0
102
RTVSPropertyOp12
 70
     0
102
RTVSPropertyOp13
 70
     0
102
RTVSPropertyOp14
 70
     2
102
RTVSPropertyOp15
 70
     0
102
RTVSPropertyOp16
 70
     0
102
RTVSPropertyOp17
 70
     0
102
RTVSPropertyOp18
 70
     0
102
RTVSPropertyOp19
 70
     0
102
RTVSPropertyOp20
 70
     0
102
RTVSPropertyOp21
 70
     0
102
RTVSPropertyOp22
 70
     0
102
RTVSPropertyOp23
 70
     0
102
RTVSPropertyOp24
 70
     0
102
RTVSPropertyOp25
 70
     0
102
RTVSPropertyOp26
 70
     0
102
RTVSPropertyOp27
 70
     0
  0
XRECORD
  5
77EA
102
{ACAD_REACTORS
330
77E9
102
}
330
77E9
100
AcDbXrecord
280
     1
102
RTVSPropertyOp0
 70
     1
102
RTVSPropertyOp1
 70
     1
102
RTVSPropertyOp2
 70
     1
102
RTVSPropertyOp3
 70
     1
102
RTVSPropertyOp4
 70
     1
102
RTVSPropertyOp5
 70
     1
102
RTVSPropertyOp6
 70
     1
102
RTVSPropertyOp7
 70
     1
102
RTVSPropertyOp8
 70
     1
102
RTVSPropertyOp9
 70
     1
102
RTVSPropertyOp10
 70
     1
102
RTVSPropertyOp11
 70
     1
102
RTVSPropertyOp12
 70
     1
102
RTVSPropertyOp13
 70
     1
102
RTVSPropertyOp14
 70
     1
102
RTVSPropertyOp15
 70
     1
102
RTVSPropertyOp16
 70
     1
102
RTVSPropertyOp17
 70
     1
102
RTVSPropertyOp18
 70
     1
102
RTVSPropertyOp19
 70
     1
102
RTVSPropertyOp20
 70
     1
102
RTVSPropertyOp21
 70
     1
102
RTVSPropertyOp22
 70
     1
102
RTVSPropertyOp23
 70
     1
102
RTVSPropertyOp24
 70
     1
102
RTVSPropertyOp25
 70
     1
102
RTVSPropertyOp26
 70
     1
102
RTVSPropertyOp27
 70
     1
  0
XRECORD
  5
77CE
102
{ACAD_REACTORS
330
77CD
102
}
330
77CD
100
AcDbXrecord
280
     1
102
RTVSPropertyOp0
 70
     1
102
RTVSPropertyOp1
 70
     1
102
RTVSPropertyOp2
 70
     1
102
RTVSPropertyOp3
 70
     1
102
RTVSPropertyOp4
 70
     1
102
RTVSPropertyOp5
 70
     1
102
RTVSPropertyOp6
 70
     1
102
RTVSPropertyOp7
 70
     1
102
RTVSPropertyOp8
 70
     1
102
RTVSPropertyOp9
 70
     1
102
RTVSPropertyOp10
 70
     1
102
RTVSPropertyOp11
 70
     1
102
RTVSPropertyOp12
 70
     1
102
RTVSPropertyOp13
 70
     1
102
RTVSPropertyOp14
 70
     1
102
RTVSPropertyOp15
 70
     1
102
RTVSPropertyOp16
 70
     1
102
RTVSPropertyOp17
 70
     1
102
RTVSPropertyOp18
 70
     1
102
RTVSPropertyOp19
 70
     1
102
RTVSPropertyOp20
 70
     1
102
RTVSPropertyOp21
 70
     1
102
RTVSPropertyOp22
 70
     1
102
RTVSPropertyOp23
 70
     1
102
RTVSPropertyOp24
 70
     1
102
RTVSPropertyOp25
 70
     1
102
RTVSPropertyOp26
 70
     1
102
RTVSPropertyOp27
 70
     1
  0
XRECORD
  5
77D0
102
{ACAD_REACTORS
330
77CF
102
}
330
77CF
100
AcDbXrecord
280
     1
102
RTVSPropertyOp0
 70
     1
102
RTVSPropertyOp1
 70
     1
102
RTVSPropertyOp2
 70
     1
102
RTVSPropertyOp3
 70
     1
102
RTVSPropertyOp4
 70
     1
102
RTVSPropertyOp5
 70
     1
102
RTVSPropertyOp6
 70
     1
102
RTVSPropertyOp7
 70
     1
102
RTVSPropertyOp8
 70
     1
102
RTVSPropertyOp9
 70
     1
102
RTVSPropertyOp10
 70
     1
102
RTVSPropertyOp11
 70
     1
102
RTVSPropertyOp12
 70
     1
102
RTVSPropertyOp13
 70
     1
102
RTVSPropertyOp14
 70
     1
102
RTVSPropertyOp15
 70
     1
102
RTVSPropertyOp16
 70
     1
102
RTVSPropertyOp17
 70
     1
102
RTVSPropertyOp18
 70
     1
102
RTVSPropertyOp19
 70
     1
102
RTVSPropertyOp20
 70
     1
102
RTVSPropertyOp21
 70
     1
102
RTVSPropertyOp22
 70
     1
102
RTVSPropertyOp23
 70
     1
102
RTVSPropertyOp24
 70
     1
102
RTVSPropertyOp25
 70
     1
102
RTVSPropertyOp26
 70
     1
102
RTVSPropertyOp27
 70
     1
  0
XRECORD
  5
77D2
102
{ACAD_REACTORS
330
77D1
102
}
330
77D1
100
AcDbXrecord
280
     1
102
RTVSPropertyOp0
 70
     1
102
RTVSPropertyOp1
 70
     1
102
RTVSPropertyOp2
 70
     1
102
RTVSPropertyOp3
 70
     1
102
RTVSPropertyOp4
 70
     1
102
RTVSPropertyOp5
 70
     1
102
RTVSPropertyOp6
 70
     1
102
RTVSPropertyOp7
 70
     1
102
RTVSPropertyOp8
 70
     1
102
RTVSPropertyOp9
 70
     1
102
RTVSPropertyOp10
 70
     1
102
RTVSPropertyOp11
 70
     1
102
RTVSPropertyOp12
 70
     1
102
RTVSPropertyOp13
 70
     1
102
RTVSPropertyOp14
 70
     1
102
RTVSPropertyOp15
 70
     1
102
RTVSPropertyOp16
 70
     1
102
RTVSPropertyOp17
 70
     1
102
RTVSPropertyOp18
 70
     1
102
RTVSPropertyOp19
 70
     1
102
RTVSPropertyOp20
 70
     1
102
RTVSPropertyOp21
 70
     1
102
RTVSPropertyOp22
 70
     1
102
RTVSPropertyOp23
 70
     1
102
RTVSPropertyOp24
 70
     1
102
RTVSPropertyOp25
 70
     1
102
RTVSPropertyOp26
 70
     1
102
RTVSPropertyOp27
 70
     1
  0
XRECORD
  5
77D4
102
{ACAD_REACTORS
330
77D3
102
}
330
77D3
100
AcDbXrecord
280
     1
102
RTVSPropertyOp0
 70
     1
102
RTVSPropertyOp1
 70
     1
102
RTVSPropertyOp2
 70
     1
102
RTVSPropertyOp3
 70
     1
102
RTVSPropertyOp4
 70
     1
102
RTVSPropertyOp5
 70
     1
102
RTVSPropertyOp6
 70
     1
102
RTVSPropertyOp7
 70
     1
102
RTVSPropertyOp8
 70
     1
102
RTVSPropertyOp9
 70
     1
102
RTVSPropertyOp10
 70
     1
102
RTVSPropertyOp11
 70
     1
102
RTVSPropertyOp12
 70
     1
102
RTVSPropertyOp13
 70
     1
102
RTVSPropertyOp14
 70
     1
102
RTVSPropertyOp15
 70
     1
102
RTVSPropertyOp16
 70
     1
102
RTVSPropertyOp17
 70
     1
102
RTVSPropertyOp18
 70
     1
102
RTVSPropertyOp19
 70
     1
102
RTVSPropertyOp20
 70
     1
102
RTVSPropertyOp21
 70
     1
102
RTVSPropertyOp22
 70
     1
102
RTVSPropertyOp23
 70
     1
102
RTVSPropertyOp24
 70
     1
102
RTVSPropertyOp25
 70
     1
102
RTVSPropertyOp26
 70
     1
102
RTVSPropertyOp27
 70
     1
  0
XRECORD
  5
77EE
102
{ACAD_REACTORS
330
77ED
102
}
330
77ED
100
AcDbXrecord
280
     1
102
RTVSPropertyOp0
 70
     0
102
RTVSPropertyOp1
 70
     0
102
RTVSPropertyOp2
 70
     0
102
RTVSPropertyOp3
 70
     0
102
RTVSPropertyOp4
 70
     0
102
RTVSPropertyOp5
 70
     0
102
RTVSPropertyOp6
 70
     0
102
RTVSPropertyOp7
 70
     0
102
RTVSPropertyOp8
 70
     0
102
RTVSPropertyOp9
 70
     0
102
RTVSPropertyOp10
 70
     0
102
RTVSPropertyOp11
 70
     0
102
RTVSPropertyOp12
 70
     0
102
RTVSPropertyOp13
 70
     0
102
RTVSPropertyOp14
 70
     2
102
RTVSPropertyOp15
 70
     0
102
RTVSPropertyOp16
 70
     0
102
RTVSPropertyOp17
 70
     0
102
RTVSPropertyOp18
 70
     0
102
RTVSPropertyOp19
 70
     0
102
RTVSPropertyOp20
 70
     0
102
RTVSPropertyOp21
 70
     0
102
RTVSPropertyOp22
 70
     0
102
RTVSPropertyOp23
 70
     0
102
RTVSPropertyOp24
 70
     0
102
RTVSPropertyOp25
 70
     0
102
RTVSPropertyOp26
 70
     0
102
RTVSPropertyOp27
 70
     0
  0
XRECORD
  5
77E8
102
{ACAD_REACTORS
330
77E7
102
}
330
77E7
100
AcDbXrecord
280
     1
102
RTVSPropertyOp0
 70
     1
102
RTVSPropertyOp1
 70
     1
102
RTVSPropertyOp2
 70
     1
102
RTVSPropertyOp3
 70
     1
102
RTVSPropertyOp4
 70
     1
102
RTVSPropertyOp5
 70
     1
102
RTVSPropertyOp6
 70
     1
102
RTVSPropertyOp7
 70
     1
102
RTVSPropertyOp8
 70
     1
102
RTVSPropertyOp9
 70
     1
102
RTVSPropertyOp10
 70
     1
102
RTVSPropertyOp11
 70
     1
102
RTVSPropertyOp12
 70
     1
102
RTVSPropertyOp13
 70
     1
102
RTVSPropertyOp14
 70
     1
102
RTVSPropertyOp15
 70
     1
102
RTVSPropertyOp16
 70
     1
102
RTVSPropertyOp17
 70
     1
102
RTVSPropertyOp18
 70
     1
102
RTVSPropertyOp19
 70
     1
102
RTVSPropertyOp20
 70
     1
102
RTVSPropertyOp21
 70
     1
102
RTVSPropertyOp22
 70
     1
102
RTVSPropertyOp23
 70
     1
102
RTVSPropertyOp24
 70
     1
102
RTVSPropertyOp25
 70
     1
102
RTVSPropertyOp26
 70
     1
102
RTVSPropertyOp27
 70
     1
  0
XRECORD
  5
77F0
102
{ACAD_REACTORS
330
77EF
102
}
330
77EF
100
AcDbXrecord
280
     1
102
RTVSPropertyOp0
 70
     0
102
RTVSPropertyOp1
 70
     0
102
RTVSPropertyOp2
 70
     0
102
RTVSPropertyOp3
 70
     0
102
RTVSPropertyOp4
 70
     0
102
RTVSPropertyOp5
 70
     0
102
RTVSPropertyOp6
 70
     0
102
RTVSPropertyOp7
 70
     0
102
RTVSPropertyOp8
 70
     0
102
RTVSPropertyOp9
 70
     0
102
RTVSPropertyOp10
 70
     0
102
RTVSPropertyOp11
 70
     0
102
RTVSPropertyOp12
 70
     0
102
RTVSPropertyOp13
 70
     0
102
RTVSPropertyOp14
 70
     2
102
RTVSPropertyOp15
 70
     0
102
RTVSPropertyOp16
 70
     0
102
RTVSPropertyOp17
 70
     0
102
RTVSPropertyOp18
 70
     0
102
RTVSPropertyOp19
 70
     0
102
RTVSPropertyOp20
 70
     0
102
RTVSPropertyOp21
 70
     0
102
RTVSPropertyOp22
 70
     0
102
RTVSPropertyOp23
 70
     0
102
RTVSPropertyOp24
 70
     0
102
RTVSPropertyOp25
 70
     0
102
RTVSPropertyOp26
 70
     0
102
RTVSPropertyOp27
 70
     0
  0
XRECORD
  5
77E0
102
{ACAD_REACTORS
330
77DF
102
}
330
77DF
100
AcDbXrecord
280
     1
102
RTVSPropertyOp0
 70
     1
102
RTVSPropertyOp1
 70
     1
102
RTVSPropertyOp2
 70
     1
102
RTVSPropertyOp3
 70
     1
102
RTVSPropertyOp4
 70
     1
102
RTVSPropertyOp5
 70
     1
102
RTVSPropertyOp6
 70
     1
102
RTVSPropertyOp7
 70
     1
102
RTVSPropertyOp8
 70
     1
102
RTVSPropertyOp9
 70
     1
102
RTVSPropertyOp10
 70
     1
102
RTVSPropertyOp11
 70
     1
102
RTVSPropertyOp12
 70
     1
102
RTVSPropertyOp13
 70
     1
102
RTVSPropertyOp14
 70
     1
102
RTVSPropertyOp15
 70
     1
102
RTVSPropertyOp16
 70
     1
102
RTVSPropertyOp17
 70
     1
102
RTVSPropertyOp18
 70
     1
102
RTVSPropertyOp19
 70
     1
102
RTVSPropertyOp20
 70
     1
102
RTVSPropertyOp21
 70
     1
102
RTVSPropertyOp22
 70
     1
102
RTVSPropertyOp23
 70
     1
102
RTVSPropertyOp24
 70
     1
102
RTVSPropertyOp25
 70
     1
102
RTVSPropertyOp26
 70
     1
102
RTVSPropertyOp27
 70
     1
  0
XRECORD
  5
77E6
102
{ACAD_REACTORS
330
77E5
102
}
330
77E5
100
AcDbXrecord
280
     1
102
RTVSPropertyOp0
 70
     1
102
RTVSPropertyOp1
 70
     1
102
RTVSPropertyOp2
 70
     1
102
RTVSPropertyOp3
 70
     1
102
RTVSPropertyOp4
 70
     1
102
RTVSPropertyOp5
 70
     1
102
RTVSPropertyOp6
 70
     1
102
RTVSPropertyOp7
 70
     1
102
RTVSPropertyOp8
 70
     1
102
RTVSPropertyOp9
 70
     1
102
RTVSPropertyOp10
 70
     1
102
RTVSPropertyOp11
 70
     1
102
RTVSPropertyOp12
 70
     1
102
RTVSPropertyOp13
 70
     1
102
RTVSPropertyOp14
 70
     1
102
RTVSPropertyOp15
 70
     1
102
RTVSPropertyOp16
 70
     1
102
RTVSPropertyOp17
 70
     1
102
RTVSPropertyOp18
 70
     1
102
RTVSPropertyOp19
 70
     1
102
RTVSPropertyOp20
 70
     1
102
RTVSPropertyOp21
 70
     1
102
RTVSPropertyOp22
 70
     1
102
RTVSPropertyOp23
 70
     1
102
RTVSPropertyOp24
 70
     1
102
RTVSPropertyOp25
 70
     1
102
RTVSPropertyOp26
 70
     1
102
RTVSPropertyOp27
 70
     1
  0
ENDSEC
  0
EOF
