  0
SECTION
  2
HEADER
  9
$ACADVER
  1
AC1018
  9
$ACADMAINTVER
 70
   104
  9
$DWGCODEPAGE
  3
ANSI_1252
  9
$LASTSAVEDBY
  1
admin
  9
$INSBASE
 10
0.0
 20
0.0
 30
0.0
  9
$EXTMIN
 10
313.9241102864708
 20
93.5166303817798
 30
-0.0015258207003583
  9
$EXTMAX
 10
712.8160627065844
 20
724.7202680300278
 30
0.0000000349246037
  9
$LIMMIN
 10
0.0
 20
0.0
  9
$LIMMAX
 10
420.0
 20
297.0
  9
$ORTHOMODE
 70
     0
  9
$REGENMODE
 70
     1
  9
$FILLMODE
 70
     1
  9
$QTEXTMODE
 70
     0
  9
$MIRRTEXT
 70
     0
  9
$LTSCALE
 40
1.0
  9
$ATTMODE
 70
     1
  9
$TEXTSIZE
 40
2.5
  9
$TRACEWID
 40
1.0
  9
$TEXTSTYLE
  7
Standard
  9
$CLAYER
  8
0
  9
$CELTYPE
  6
ByLayer
  9
$CECOLOR
 62
   256
  9
$CELTSCALE
 40
1.0
  9
$DISPSILH
 70
     0
  9
$DIMSCALE
 40
1.0
  9
$DIMASZ
 40
2.5
  9
$DIMEXO
 40
0.625
  9
$DIMDLI
 40
3.75
  9
$DIMRND
 40
0.0
  9
$DIMDLE
 40
0.0
  9
$DIMEXE
 40
1.25
  9
$DIMTP
 40
0.0
  9
$DIMTM
 40
0.0
  9
$DIMTXT
 40
2.5
  9
$DIMCEN
 40
2.5
  9
$DIMTSZ
 40
0.0
  9
$DIMTOL
 70
     0
  9
$DIMLIM
 70
     0
  9
$DIMTIH
 70
     0
  9
$DIMTOH
 70
     0
  9
$DIMSE1
 70
     0
  9
$DIMSE2
 70
     0
  9
$DIMTAD
 70
     1
  9
$DIMZIN
 70
     8
  9
$DIMBLK
  1

  9
$DIMASO
 70
     1
  9
$DIMSHO
 70
     1
  9
$DIMPOST
  1

  9
$DIMAPOST
  1

  9
$DIMALT
 70
     0
  9
$DIMALTD
 70
     3
  9
$DIMALTF
 40
0.03937007874016
  9
$DIMLFAC
 40
1.0
  9
$DIMTOFL
 70
     1
  9
$DIMTVP
 40
0.0
  9
$DIMTIX
 70
     0
  9
$DIMSOXD
 70
     0
  9
$DIMSAH
 70
     0
  9
$DIMBLK1
  1

  9
$DIMBLK2
  1

  9
$DIMSTYLE
  2
ISO-25
  9
$DIMCLRD
 70
     0
  9
$DIMCLRE
 70
     0
  9
$DIMCLRT
 70
     0
  9
$DIMTFAC
 40
1.0
  9
$DIMGAP
 40
0.625
  9
$DIMJUST
 70
     0
  9
$DIMSD1
 70
     0
  9
$DIMSD2
 70
     0
  9
$DIMTOLJ
 70
     0
  9
$DIMTZIN
 70
     8
  9
$DIMALTZ
 70
     0
  9
$DIMALTTZ
 70
     0
  9
$DIMUPT
 70
     0
  9
$DIMDEC
 70
     2
  9
$DIMTDEC
 70
     2
  9
$DIMALTU
 70
     2
  9
$DIMALTTD
 70
     3
  9
$DIMTXSTY
  7
Standard
  9
$DIMAUNIT
 70
     0
  9
$DIMADEC
 70
     0
  9
$DIMALTRND
 40
0.0
  9
$DIMAZIN
 70
     0
  9
$DIMDSEP
 70
    44
  9
$DIMATFIT
 70
     3
  9
$DIMFRAC
 70
     0
  9
$DIMLDRBLK
  1

  9
$DIMLUNIT
 70
     2
  9
$DIMLWD
 70
    -2
  9
$DIMLWE
 70
    -2
  9
$DIMTMOVE
 70
     0
  9
$LUNITS
 70
     2
  9
$LUPREC
 70
     4
  9
$SKETCHINC
 40
1.0
  9
$FILLETRAD
 40
0.0
  9
$AUNITS
 70
     0
  9
$AUPREC
 70
     0
  9
$MENU
  1
.
  9
$ELEVATION
 40
0.0
  9
$PELEVATION
 40
0.0
  9
$THICKNESS
 40
0.0
  9
$LIMCHECK
 70
     0
  9
$CHAMFERA
 40
0.0
  9
$CHAMFERB
 40
0.0
  9
$CHAMFERC
 40
0.0
  9
$CHAMFERD
 40
0.0
  9
$SKPOLY
 70
     0
  9
$TDCREATE
 40
2457869.280614120
  9
$TDUCREATE
 40
2457869.197280787
  9
$TDUPDATE
 40
2457869.362465220
  9
$TDUUPDATE
 40
2457869.279131887
  9
$TDINDWG
 40
0.0818514931
  9
$TDUSRTIMER
 40
0.0818513079
  9
$USRTIMER
 70
     1
  9
$ANGBASE
 50
0.0
  9
$ANGDIR
 70
     0
  9
$PDMODE
 70
     0
  9
$PDSIZE
 40
0.0
  9
$PLINEWID
 40
0.0
  9
$SPLFRAME
 70
     0
  9
$SPLINETYPE
 70
     6
  9
$SPLINESEGS
 70
     8
  9
$HANDSEED
  5
91C6
  9
$SURFTAB1
 70
     6
  9
$SURFTAB2
 70
     6
  9
$SURFTYPE
 70
     6
  9
$SURFU
 70
     6
  9
$SURFV
 70
     6
  9
$UCSBASE
  2

  9
$UCSNAME
  2

  9
$UCSORG
 10
0.0
 20
0.0
 30
0.0
  9
$UCSXDIR
 10
1.0
 20
0.0
 30
0.0
  9
$UCSYDIR
 10
0.0
 20
1.0
 30
0.0
  9
$UCSORTHOREF
  2

  9
$UCSORTHOVIEW
 70
     0
  9
$UCSORGTOP
 10
0.0
 20
0.0
 30
0.0
  9
$UCSORGBOTTOM
 10
0.0
 20
0.0
 30
0.0
  9
$UCSORGLEFT
 10
0.0
 20
0.0
 30
0.0
  9
$UCSORGRIGHT
 10
0.0
 20
0.0
 30
0.0
  9
$UCSORGFRONT
 10
0.0
 20
0.0
 30
0.0
  9
$UCSORGBACK
 10
0.0
 20
0.0
 30
0.0
  9
$PUCSBASE
  2

  9
$PUCSNAME
  2

  9
$PUCSORG
 10
0.0
 20
0.0
 30
0.0
  9
$PUCSXDIR
 10
1.0
 20
0.0
 30
0.0
  9
$PUCSYDIR
 10
0.0
 20
1.0
 30
0.0
  9
$PUCSORTHOREF
  2

  9
$PUCSORTHOVIEW
 70
     0
  9
$PUCSORGTOP
 10
0.0
 20
0.0
 30
0.0
  9
$PUCSORGBOTTOM
 10
0.0
 20
0.0
 30
0.0
  9
$PUCSORGLEFT
 10
0.0
 20
0.0
 30
0.0
  9
$PUCSORGRIGHT
 10
0.0
 20
0.0
 30
0.0
  9
$PUCSORGFRONT
 10
0.0
 20
0.0
 30
0.0
  9
$PUCSORGBACK
 10
0.0
 20
0.0
 30
0.0
  9
$USERI1
 70
     0
  9
$USERI2
 70
     0
  9
$USERI3
 70
     0
  9
$USERI4
 70
     0
  9
$USERI5
 70
     0
  9
$USERR1
 40
0.0
  9
$USERR2
 40
0.0
  9
$USERR3
 40
0.0
  9
$USERR4
 40
0.0
  9
$USERR5
 40
0.0
  9
$WORLDVIEW
 70
     1
  9
$SHADEDGE
 70
     3
  9
$SHADEDIF
 70
    70
  9
$TILEMODE
 70
     1
  9
$MAXACTVP
 70
    64
  9
$PINSBASE
 10
0.0
 20
0.0
 30
0.0
  9
$PLIMCHECK
 70
     0
  9
$PEXTMIN
 10
1.000000000000000E+20
 20
1.000000000000000E+20
 30
1.000000000000000E+20
  9
$PEXTMAX
 10
-1.000000000000000E+20
 20
-1.000000000000000E+20
 30
-1.000000000000000E+20
  9
$PLIMMIN
 10
0.0
 20
0.0
  9
$PLIMMAX
 10
420.0
 20
297.0
  9
$UNITMODE
 70
     0
  9
$VISRETAIN
 70
     1
  9
$PLINEGEN
 70
     0
  9
$PSLTSCALE
 70
     1
  9
$TREEDEPTH
 70
  3020
  9
$CMLSTYLE
  2
Standard
  9
$CMLJUST
 70
     0
  9
$CMLSCALE
 40
20.0
  9
$PROXYGRAPHICS
 70
     1
  9
$MEASUREMENT
 70
     1
  9
$CELWEIGHT
370
    -1
  9
$ENDCAPS
280
     0
  9
$JOINSTYLE
280
     0
  9
$LWDISPLAY
290
     0
  9
$INSUNITS
 70
     4
  9
$HYPERLINKBASE
  1

  9
$STYLESHEET
  1

  9
$XEDIT
290
     1
  9
$CEPSNTYPE
380
     0
  9
$PSTYLEMODE
290
     1
  9
$FINGERPRINTGUID
  2
{9DFB5F12-FE38-410F-B4C1-738DA96BFA2A}
  9
$VERSIONGUID
  2
{D66F44AA-69AF-4CE8-8E28-B17B1E1D790A}
  9
$EXTNAMES
290
     1
  9
$PSVPSCALE
 40
0.0
  9
$OLESTARTUP
290
     0
  9
$SORTENTS
280
   127
  9
$INDEXCTL
280
     0
  9
$HIDETEXT
280
     1
  9
$XCLIPFRAME
290
     0
  9
$HALOGAP
280
     0
  9
$OBSCOLOR
 70
   257
  9
$OBSLTYPE
280
     0
  9
$INTERSECTIONDISPLAY
280
     0
  9
$INTERSECTIONCOLOR
 70
   257
  9
$DIMASSOC
280
     2
  9
$PROJECTNAME
  1

  0
ENDSEC
  0
SECTION
  2
CLASSES
  0
CLASS
  1
ACDBDICTIONARYWDFLT
  2
AcDbDictionaryWithDefault
  3
ObjectDBX Classes
 90
        0
 91
        1
280
     0
281
     0
  0
CLASS
  1
MATERIAL
  2
AcDbMaterial
  3
ObjectDBX Classes
 90
     1153
 91
        3
280
     0
281
     0
  0
CLASS
  1
VISUALSTYLE
  2
AcDbVisualStyle
  3
ObjectDBX Classes
 90
     4095
 91
       19
280
     0
281
     0
  0
CLASS
  1
SCALE
  2
AcDbScale
  3
ObjectDBX Classes
 90
     1153
 91
       17
280
     0
281
     0
  0
CLASS
  1
TABLESTYLE
  2
AcDbTableStyle
  3
ObjectDBX Classes
 90
     4095
 91
        1
280
     0
281
     0
  0
CLASS
  1
MLEADERSTYLE
  2
AcDbMLeaderStyle
  3
ACDB_MLEADERSTYLE_CLASS
 90
     4095
 91
        1
280
     0
281
     0
  0
CLASS
  1
SORTENTSTABLE
  2
AcDbSortentsTable
  3
ObjectDBX Classes
 90
        0
 91
      153
280
     0
281
     0
  0
CLASS
  1
AEC_REFEDIT_STATUS_TRACKER
  2
AecDbRefEditStatusTracker
  3
AecArchBase60|Product Desc: Autodesk Architectural Desktop 2007 |Company: Autodesk,Inc. |WEB Address: www.autodesk.com
 90
      129
 91
        1
280
     0
281
     0
  0
CLASS
  1
NPOCOLLECTION
  2
AcDbImpNonPersistentObjectsCollection
  3
ObjectDBX Classes
 90
     1153
 91
        1
280
     0
281
     0
  0
CLASS
  1
DICTIONARYVAR
  2
AcDbDictionaryVar
  3
ObjectDBX Classes
 90
        0
 91
      280
280
     0
281
     0
  0
CLASS
  1
CELLSTYLEMAP
  2
AcDbCellStyleMap
  3
ObjectDBX Classes
 90
     1152
 91
       32
280
     0
281
     0
  0
CLASS
  1
DIMASSOC
  2
AcDbDimAssoc
  3
"AcDbDimAssoc|Product Desc:     AcDim ARX App For Dimension|Company:          Autodesk, Inc.|WEB Address:      www.autodesk.com"
 90
        0
 91
        2
280
     0
281
     0
  0
ENDSEC
  0
SECTION
  2
TABLES
  0
TABLE
  2
VPORT
  5
8
330
0
100
AcDbSymbolTable
 70
     1
  0
VPORT
  5
52
330
8
100
AcDbSymbolTableRecord
100
AcDbViewportTableRecord
  2
*Active
 70
     0
 10
0.0
 20
0.0
 11
1.0
 21
1.0
 12
513.3700864965278
 22
409.1184492059039
 13
0.0
 23
0.0
 14
10.0
 24
10.0
 15
10.0
 25
10.0
 16
0.0
 26
0.0
 36
1.0
 17
0.0
 27
0.0
 37
0.0
 40
635.3068032234264
 41
1.888286334056399
 42
50.0
 43
0.0
 44
0.0
 50
0.0
 51
0.0
 71
     0
 72
  1000
 73
     1
 74
     3
 75
     0
 76
     0
 77
     0
 78
     0
281
     0
 65
     1
110
0.0
120
0.0
130
0.0
111
1.0
121
0.0
131
0.0
112
0.0
122
1.0
132
0.0
 79
     0
146
0.0
  0
ENDTAB
  0
TABLE
  2
LTYPE
  5
5
330
0
100
AcDbSymbolTable
 70
     2
  0
LTYPE
  5
56
330
5
100
AcDbSymbolTableRecord
100
AcDbLinetypeTableRecord
  2
ByBlock
 70
     0
  3

 72
    65
 73
     0
 40
0.0
  0
LTYPE
  5
57
330
5
100
AcDbSymbolTableRecord
100
AcDbLinetypeTableRecord
  2
ByLayer
 70
     0
  3

 72
    65
 73
     0
 40
0.0
  0
LTYPE
  5
58
330
5
100
AcDbSymbolTableRecord
100
AcDbLinetypeTableRecord
  2
Continuous
 70
     0
  3
Solid line
 72
    65
 73
     0
 40
0.0
  0
LTYPE
  5
90A4
330
5
100
AcDbSymbolTableRecord
100
AcDbLinetypeTableRecord
  2
JIS_02_0.7
 70
     0
  3
HIDDEN0.75 _ _ _ _ _ _ _ _ _ _ _ _ _ _ _ _ _
 72
    65
 73
     2
 40
1.35
 49
0.75
 74
     0
 49
-0.6
 74
     0
  0
ENDTAB
  0
TABLE
  2
LAYER
  5
2
102
{ACAD_XDICTIONARY
360
90B7
102
}
330
0
100
AcDbSymbolTable
 70
     8
  0
LAYER
  5
4F
330
2
100
AcDbSymbolTableRecord
100
AcDbLayerTableRecord
  2
0
 70
     0
 62
     7
  6
Continuous
370
    -3
390
F
  0
LAYER
  5
90A5
330
2
100
AcDbSymbolTableRecord
100
AcDbLayerTableRecord
  2
F_01 sichtbar
 70
     0
 62
     7
  6
Continuous
370
    -3
390
F
1001
AcAecLayerStandard
1000

1000

  0
LAYER
  5
90A6
330
2
100
AcDbSymbolTableRecord
100
AcDbLayerTableRecord
  2
F_31 Ansichtsfenster
 70
     0
 62
    12
  6
Continuous
290
     0
370
    40
390
F
1001
AcAecLayerStandard
1000

1000

  0
LAYER
  5
90A7
330
2
100
AcDbSymbolTableRecord
100
AcDbLayerTableRecord
  2
F_02 unsichtbar
 70
     0
 62
     8
  6
JIS_02_0.7
370
    -3
390
F
1001
AcAecLayerStandard
1000

1000

  0
LAYER
  5
90A8
330
2
100
AcDbSymbolTableRecord
100
AcDbLayerTableRecord
  2
F_15 Schr-Mauer hell
 70
     0
 62
   254
  6
Continuous
370
    -3
390
F
1001
AcAecLayerStandard
1000

1000

  0
LAYER
  5
90A9
330
2
100
AcDbSymbolTableRecord
100
AcDbLayerTableRecord
  2
F_18 Schr-Holz hell
 70
     0
 62
    41
  6
Continuous
370
    -3
390
F
1001
AcAecLayerStandard
1000

1000

  0
LAYER
  5
90AA
330
2
100
AcDbSymbolTableRecord
100
AcDbLayerTableRecord
  2
F_29 Bemassung M
 70
     0
 62
   160
  6
Continuous
370
    -3
390
F
1001
AcAecLayerStandard
1000

1000

  0
LAYER
  5
90AB
102
{ACAD_XDICTIONARY
360
90AC
102
}
330
2
100
AcDbSymbolTableRecord
100
AcDbLayerTableRecord
  2
F_11 Schraffur
 70
     0
 62
    11
  6
Continuous
370
    -3
390
F
1001
AcAecLayerStandard
1000

1000

  0
ENDTAB
  0
TABLE
  2
STYLE
  5
3
330
0
100
AcDbSymbolTable
 70
     3
  0
STYLE
  5
50
330
3
100
AcDbSymbolTableRecord
100
AcDbTextStyleTableRecord
  2
Standard
 70
     0
 40
0.0
 41
1.0
 50
0.0
 71
     0
 42
2.5
  3
txt
  4

  0
STYLE
  5
55
330
3
100
AcDbSymbolTableRecord
100
AcDbTextStyleTableRecord
  2
Annotative
 70
     0
 40
0.0
 41
1.0
 50
0.0
 71
     0
 42
0.2
  3
txt
  4

1001
AcadAnnotative
1000
AnnotativeData
1002
{
1070
     1
1070
     1
1002
}
  0
STYLE
  5
90AD
330
3
100
AcDbSymbolTableRecord
100
AcDbTextStyleTableRecord
  2
Arial
 70
     0
 40
0.0
 41
1.0
 50
0.0
 71
     0
 42
3.0
  3
ARIALN.TTF
  4

1001
AcadAnnotative
1000
AnnotativeData
1002
{
1070
     1
1070
     1
1002
}
1001
ACAD
1000
Arial Narrow
1071
       34
  0
ENDTAB
  0
TABLE
  2
VIEW
  5
6
330
0
100
AcDbSymbolTable
 70
     0
  0
ENDTAB
  0
TABLE
  2
UCS
  5
7
330
0
100
AcDbSymbolTable
 70
     0
  0
ENDTAB
  0
TABLE
  2
APPID
  5
9
330
0
100
AcDbSymbolTable
 70
     8
  0
APPID
  5
51
330
9
100
AcDbSymbolTableRecord
100
AcDbRegAppTableRecord
  2
ACAD
 70
     0
  0
APPID
  5
59
330
9
100
AcDbSymbolTableRecord
100
AcDbRegAppTableRecord
  2
AcadAnnotative
 70
     0
  0
APPID
  5
90B3
330
9
100
AcDbSymbolTableRecord
100
AcDbRegAppTableRecord
  2
AcAecLayerStandard
 70
     0
  0
APPID
  5
90B4
330
9
100
AcDbSymbolTableRecord
100
AcDbRegAppTableRecord
  2
ACAD_PSEXT
 70
     0
  0
APPID
  5
90B5
330
9
100
AcDbSymbolTableRecord
100
AcDbRegAppTableRecord
  2
ACAD_DSTYLE_DIMJAG
 70
     0
  0
APPID
  5
90B6
330
9
100
AcDbSymbolTableRecord
100
AcDbRegAppTableRecord
  2
ACAD_DSTYLE_DIMTALN
 70
     0
  0
APPID
  5
91C3
330
9
100
AcDbSymbolTableRecord
100
AcDbRegAppTableRecord
  2
ACAD_DSTYLE_DIMJOGGED_JOGANGLE_SYMBOL
 70
     0
  0
APPID
  5
91C5
330
9
100
AcDbSymbolTableRecord
100
AcDbRegAppTableRecord
  2
ACAD_MLEADERVER
 70
     0
  0
ENDTAB
  0
TABLE
  2
DIMSTYLE
  5
A
330
0
100
AcDbSymbolTable
 70
     7
100
AcDbDimStyleTable
 71
     0
  0
DIMSTYLE
105
53
330
A
100
AcDbSymbolTableRecord
100
AcDbDimStyleTableRecord
  2
ISO-25
 70
     0
 41
2.5
 42
0.625
 43
3.75
 44
1.25
 73
     0
 74
     0
 77
     1
 78
     8
140
2.5
141
2.5
143
0.03937007874016
147
0.625
171
     3
172
     1
271
     2
272
     2
274
     3
278
    44
283
     0
284
     8
340
50
1001
ACAD_DSTYLE_DIMJOGGED_JOGANGLE_SYMBOL
1070
   384
1040
1.570796326794896
  0
DIMSTYLE
105
54
330
A
100
AcDbSymbolTableRecord
100
AcDbDimStyleTableRecord
  2
Annotative
 70
     0
340
50
1001
AcadAnnotative
1000
AnnotativeData
1002
{
1070
     1
1070
     1
1002
}
  0
DIMSTYLE
105
90AE
330
A
100
AcDbSymbolTableRecord
100
AcDbDimStyleTableRecord
  2
MST 1-1
 70
     0
 41
2.0
 42
2.0
 43
2.0
 44
1.0
 46
2.0
 73
     0
 74
     0
 77
     3
 78
     8
 79
     2
140
3.0
141
2.5
143
0.03937007874016
147
1.0
171
     3
176
   256
177
   256
178
     3
179
     1
271
     1
272
     1
274
     3
279
     2
284
     8
340
90AD
342
909E
1001
ACAD_DSTYLE_DIMJAG
1070
   388
1040
1.5
1001
ACAD_DSTYLE_DIMTALN
1070
   392
1070
     0
  0
DIMSTYLE
105
90AF
330
A
100
AcDbSymbolTableRecord
100
AcDbDimStyleTableRecord
  2
MST 1-2
 70
     0
 40
2.0
 41
2.0
 42
2.0
 43
2.0
 44
1.0
 46
2.0
 73
     0
 74
     0
 77
     3
 78
     8
 79
     2
140
3.0
141
1.0
143
0.03937007874016
147
1.0
171
     3
176
   256
177
   256
178
     3
179
     1
271
     1
272
     1
274
     3
279
     2
284
     8
340
90AD
342
909E
  0
DIMSTYLE
105
90B0
330
A
100
AcDbSymbolTableRecord
100
AcDbDimStyleTableRecord
  2
MST 1-5
 70
     0
 40
5.0
 41
1.5
 42
2.0
 43
2.0
 44
1.0
 46
2.0
 73
     0
 74
     0
 77
     3
 78
     8
 79
     2
140
3.0
141
1.0
143
0.03937007874016
147
1.0
171
     3
176
   256
177
   256
178
     3
179
     1
271
     1
272
     1
274
     3
279
     2
284
     8
340
90AD
342
909E
  0
DIMSTYLE
105
90B1
330
A
100
AcDbSymbolTableRecord
100
AcDbDimStyleTableRecord
  2
MST 1-10
 70
     0
 40
10.0
 41
2.0
 42
2.0
 43
2.0
 44
2.0
 46
2.0
 73
     0
 74
     0
 77
     3
 78
     8
 79
     2
140
3.0
141
1.0
143
0.03937007874016
147
1.0
171
     3
176
   256
177
   256
178
     3
179
     1
271
     1
272
     1
274
     3
279
     2
284
     8
340
90AD
342
909E
1001
ACAD_DSTYLE_DIMJAG
1070
   388
1040
1.5
1001
ACAD_DSTYLE_DIMTALN
1070
   392
1070
     0
  0
DIMSTYLE
105
90B2
330
A
100
AcDbSymbolTableRecord
100
AcDbDimStyleTableRecord
  2
MST 1-20
 70
     0
 40
20.0
 41
2.0
 42
2.0
 43
2.0
 44
1.0
 46
2.0
 73
     0
 74
     0
 77
     3
 78
     8
 79
     2
140
3.0
141
1.0
143
0.03937007874016
147
1.0
171
     3
176
   256
177
   256
178
     3
179
     1
271
     1
272
     1
274
     3
279
     2
284
     8
340
90AD
342
909E
  0
ENDTAB
  0
TABLE
  2
BLOCK_RECORD
  5
1
330
0
100
AcDbSymbolTable
 70
     3
  0
BLOCK_RECORD
  5
67
330
1
100
AcDbSymbolTableRecord
100
AcDbBlockTableRecord
  2
*Model_Space
340
6A
  0
BLOCK_RECORD
  5
63
330
1
100
AcDbSymbolTableRecord
100
AcDbBlockTableRecord
  2
*Paper_Space
340
66
  0
BLOCK_RECORD
  5
6B
330
1
100
AcDbSymbolTableRecord
100
AcDbBlockTableRecord
  2
*Paper_Space0
340
6E
  0
BLOCK_RECORD
  5
909E
102
{ACAD_XDICTIONARY
360
909F
102
}
330
1
100
AcDbSymbolTableRecord
100
AcDbBlockTableRecord
  2
_ArchTick
340
0
310
2800000020000000200000000100080000000000000400000000000000000000000000000000000000000000000080000080000000808000800000008000800080800000C0C0C000C0DCC000F0CAA6000020400000206000002080000020A0000020C0000020E00000400000004020000040400000406000004080000040A0
310
000040C0000040E00000600000006020000060400000606000006080000060A0000060C0000060E00000800000008020000080400000806000008080000080A0000080C0000080E00000A0000000A0200000A0400000A0600000A0800000A0A00000A0C00000A0E00000C0000000C0200000C0400000C0600000C0800000C0
310
A00000C0C00000C0E00000E0000000E0200000E0400000E0600000E0800000E0A00000E0C00000E0E00040000000400020004000400040006000400080004000A0004000C0004000E00040200000402020004020400040206000402080004020A0004020C0004020E000404000004040200040404000404060004040800040
310
40A0004040C0004040E00040600000406020004060400040606000406080004060A0004060C0004060E00040800000408020004080400040806000408080004080A0004080C0004080E00040A0000040A0200040A0400040A0600040A0800040A0A00040A0C00040A0E00040C0000040C0200040C0400040C0600040C08000
310
40C0A00040C0C00040C0E00040E0000040E0200040E0400040E0600040E0800040E0A00040E0C00040E0E00080000000800020008000400080006000800080008000A0008000C0008000E00080200000802020008020400080206000802080008020A0008020C0008020E00080400000804020008040400080406000804080
310
008040A0008040C0008040E00080600000806020008060400080606000806080008060A0008060C0008060E00080800000808020008080400080806000808080008080A0008080C0008080E00080A0000080A0200080A0400080A0600080A0800080A0A00080A0C00080A0E00080C0000080C0200080C0400080C0600080C0
310
800080C0A00080C0C00080C0E00080E0000080E0200080E0400080E0600080E0800080E0A00080E0C00080E0E000C0000000C0002000C0004000C0006000C0008000C000A000C000C000C000E000C0200000C0202000C0204000C0206000C0208000C020A000C020C000C020E000C0400000C0402000C0404000C0406000C0
310
408000C040A000C040C000C040E000C0600000C0602000C0604000C0606000C0608000C060A000C060C000C060E000C0800000C0802000C0804000C0806000C0808000C080A000C080C000C080E000C0A00000C0A02000C0A04000C0A06000C0A08000C0A0A000C0A0C000C0A0E000C0C00000C0C02000C0C04000C0C06000
310
C0C08000C0C0A000F0FBFF00A4A0A000808080000000FF0000FF000000FFFF00FF000000FF00FF00FFFF0000FFFFFF00FFFFFF00FFFFFFFFFFFFFFFFFFFFFFFFFFFFFFFFFFFFFFFFFFFFFFFFFFFFFFFFFFFF00FF00FFFFFFFFFFFFFFFFFFFFFFFFFFFFFFFFFFFFFFFFFFFFFFFFFFFFFFFF00FFFFFF00FFFFFFFFFFFFFFFFFF
310
FFFFFFFFFFFFFFFFFFFFFFFFFFFFFFFFFF00FFFFFFFFFF00FFFFFFFFFFFFFFFFFFFFFFFFFFFFFFFFFFFFFFFFFFFFFFFFFFFF00FFFFFFFFFF00FFFFFFFFFFFFFFFFFFFFFFFFFFFFFFFFFFFFFFFFFFFFFFFFFFFF00FFFFFFFFFF00FFFFFFFFFFFFFFFFFFFFFFFFFFFFFFFFFFFFFFFFFFFFFFFFFFFF00FFFFFFFFFF00FFFFFFFF
310
FFFFFFFFFFFFFFFFFFFFFFFFFFFFFFFFFFFFFFFFFFFF00FFFFFFFFFF00FFFFFFFFFFFFFFFFFFFFFFFFFFFFFFFFFFFFFFFFFFFFFFFFFFFF00FFFFFFFFFF00FFFFFFFFFFFFFFFFFFFFFFFFFFFFFFFFFFFFFFFFFFFFFFFFFFFF00FFFFFFFFFF00FFFFFFFFFFFFFFFFFFFFFFFFFFFFFFFFFFFFFFFFFFFFFFFFFFFF00FFFFFFFFFF
310
00FFFFFFFFFFFFFFFFFFFFFFFFFFFFFFFFFFFFFFFFFFFFFFFFFFFF00FFFFFFFFFF00FFFFFFFFFFFFFFFFFFFFFFFFFFFFFFFFFFFFFFFFFFFFFFFFFFFF00FFFFFFFFFF00FFFFFFFFFFFFFFFFFFFFFFFFFFFFFFFFFFFFFFFFFFFFFFFFFFFF00FFFFFFFFFF00FFFFFFFFFFFFFFFFFFFFFFFFFFFFFFFFFFFFFFFFFFFFFFFFFFFF00
310
FFFFFFFFFF00FFFFFFFFFFFFFFFFFFFFFFFFFFFFFFFFFFFFFFFFFFFFFFFFFFFF00FFFFFFFFFF00FFFFFFFFFFFFFFFFFFFFFFFFFFFFFFFFFFFFFFFFFFFFFFFFFFFF00FFFFFFFFFF00FFFFFFFFFFFFFFFFFFFFFFFFFFFFFFFFFFFFFFFFFFFFFFFFFFFF00FFFFFFFFFF00FFFFFFFFFFFFFFFFFFFFFFFFFFFFFFFFFFFFFFFFFFFF
310
FFFFFFFF00FFFFFFFFFF00FFFFFFFFFFFFFFFFFFFFFFFFFFFFFFFFFFFFFFFFFFFFFFFFFFFF00FFFFFFFFFF00FFFFFFFFFFFFFFFFFFFFFFFFFFFFFFFFFFFFFFFFFFFFFFFFFFFF00FFFFFFFFFF00FFFFFFFFFFFFFFFFFFFFFFFFFFFFFFFFFFFFFFFFFFFFFFFFFFFF00FFFFFFFFFF00FFFFFFFFFFFFFFFFFFFFFFFFFFFFFFFFFF
310
FFFFFFFFFFFFFFFFFF00FFFFFFFFFF00FFFFFFFFFFFFFFFFFFFFFFFFFFFFFFFFFFFFFFFFFFFFFFFFFFFF00FFFFFFFFFF00FFFFFFFFFFFFFFFFFFFFFFFFFFFFFFFFFFFFFFFFFFFFFFFFFFFF00FFFFFFFFFF00FFFFFFFFFFFFFFFFFFFFFFFFFFFFFFFFFFFFFFFFFFFFFFFFFFFF00FFFFFFFFFF00FFFFFFFFFFFFFFFFFFFFFFFF
310
FFFFFFFFFFFFFFFFFFFFFFFFFFFF00FFFFFFFFFF00FFFFFFFFFFFFFFFFFFFFFFFFFFFFFFFFFFFFFFFFFFFFFFFFFFFF00FFFFFFFFFF00FFFFFFFFFFFFFFFFFFFFFFFFFFFFFFFFFFFFFFFFFFFFFFFFFFFF00FFFFFFFFFF00FFFFFFFFFFFFFFFFFFFFFFFFFFFFFFFFFFFFFFFFFFFFFFFFFFFF00FFFFFF00FFFFFFFFFFFFFFFFFF
310
FFFFFFFFFFFFFFFFFFFFFFFFFFFFFFFFFFFFFF00FF00FFFFFFFFFFFFFFFFFFFFFFFFFFFFFFFFFFFFFFFFFFFFFFFFFFFFFFFFFFFF00FFFFFF
  0
ENDTAB
  0
ENDSEC
  0
SECTION
  2
BLOCKS
  0
BLOCK
  5
68
330
67
100
AcDbEntity
  8
0
100
AcDbBlockBegin
  2
*Model_Space
 70
     0
 10
0.0
 20
0.0
 30
0.0
  3
*Model_Space
  1

  0
ENDBLK
  5
69
330
67
100
AcDbEntity
  8
0
100
AcDbBlockEnd
  0
BLOCK
  5
64
330
63
100
AcDbEntity
 67
     1
  8
0
100
AcDbBlockBegin
  2
*Paper_Space
 70
     0
 10
0.0
 20
0.0
 30
0.0
  3
*Paper_Space
  1

  0
ENDBLK
  5
65
330
63
100
AcDbEntity
 67
     1
  8
0
100
AcDbBlockEnd
  0
BLOCK
  5
6C
330
6B
100
AcDbEntity
 67
     1
  8
0
100
AcDbBlockBegin
  2
*Paper_Space0
 70
     0
 10
0.0
 20
0.0
 30
0.0
  3
*Paper_Space0
  1

  0
ENDBLK
  5
6D
330
6B
100
AcDbEntity
 67
     1
  8
0
100
AcDbBlockEnd
  0
BLOCK
  5
90A1
330
909E
100
AcDbEntity
  8
0
100
AcDbBlockBegin
  2
_ArchTick
 70
     0
 10
0.0
 20
0.0
 30
0.0
  3
_ArchTick
  1

  0
LWPOLYLINE
  5
90A2
330
909E
100
AcDbEntity
  8
0
  6
ByBlock
 62
     7
100
AcDbPolyline
 90
        2
 70
     0
 43
0.15
 10
-0.5
 20
-0.5
 10
0.5
 20
0.5
  0
ENDBLK
  5
90A3
330
909E
100
AcDbEntity
  8
0
100
AcDbBlockEnd
  0
ENDSEC
  0
SECTION
  2
ENTITIES
  0
HATCH
  5
9124
330
67
100
AcDbEntity
  8
F_18 Schr-Holz hell
370
    13
100
AcDbHatch
 10
0.0
 20
0.0
 30
0.0
210
0.0
220
0.0
230
1.0
  2
SOLID
 70
     1
 71
     0
 91
        2
 92
        7
 72
     0
 73
     1
 93
        9
 10
535.6371870691909
 20
323.6101747346138
 10
509.637187069191
 20
323.6101747346138
 10
508.637187069191
 20
322.6101747346138
 10
508.637187069191
 20
297.6101747346138
 10
496.637187069191
 20
297.6101747346138
 10
495.6371870691909
 20
296.6101747346138
 10
495.6371870691909
 20
285.6101747346138
 10
496.637187069191
 20
284.6101747346138
 10
535.6371870691909
 20
284.6101747346138
 97
        0
 92
        7
 72
     0
 73
     1
 93
        4
 10
712.4795581116813
 20
323.6101747346138
 10
535.6371870691909
 20
323.6101747346138
 10
535.6371870691909
 20
284.6101747346138
 10
712.4795581116813
 20
284.6101747346138
 97
        0
 75
     0
 76
     1
 47
0.3833587051838309
 98
        2
 10
525.5206650369618
 20
315.193570988521
 10
548.9176963638128
 20
314.8102326119251
450
        0
451
        0
460
0.0
461
0.0
452
        1
462
1.0
453
        2
463
0.0
 63
     5
421
      255
463
1.0
 63
     7
421
 16777215
470
LINEAR
1001
ACAD
1010
0.0
1020
0.0
1030
0.0
  0
HATCH
  5
9125
330
67
100
AcDbEntity
  8
F_18 Schr-Holz hell
370
    13
100
AcDbHatch
 10
0.0
 20
0.0
 30
0.0
210
0.0
220
0.0
230
1.0
  2
SOLID
 70
     1
 71
     0
 91
        1
 92
        1
 93
       21
 72
     1
 10
496.1372068016171
 20
615.6102507384594
 11
496.1371804852787
 21
425.6101747346137
 72
     1
 10
496.1371804852787
 20
425.6101747346137
 11
481.1371870691837
 21
425.6101747346137
 72
     1
 10
481.1371870691837
 20
425.6101747346137
 11
481.1371871973205
 21
287.6101747346138
 72
     1
 10
481.1371871973205
 20
287.6101747346138
 11
493.1371870691837
 21
287.6101747346138
 72
     1
 10
493.1371870691837
 20
287.6101747346138
 11
493.1371870691837
 21
297.6101747346138
 72
     1
 10
493.1371870691837
 20
297.6101747346138
 11
506.1371870691837
 21
297.6101747346138
 72
     1
 10
506.1371870691837
 20
297.6101747346138
 11
507.1371870691836
 21
298.6101747346138
 72
     1
 10
507.1371870691836
 20
298.6101747346138
 11
507.1371870691836
 21
302.1101747346138
 72
     1
 10
507.1371870691836
 20
302.1101747346138
 11
504.6371870691837
 21
302.1101747346138
 72
     1
 10
504.6371870691837
 20
302.1101747346138
 11
504.6371870691837
 21
311.2884151939825
 72
     1
 10
504.6371870691837
 20
311.2884151939825
 11
504.6371870691837
 21
327.1101747346138
 72
     1
 10
504.6371870691837
 20
327.1101747346138
 11
507.1371870691836
 21
327.1101747346138
 72
     1
 10
507.1371870691836
 20
327.1101747346138
 11
507.1371870691836
 21
327.6101747346138
 72
     1
 10
507.1371870691836
 20
327.6101747346138
 11
512.1371870691837
 21
327.6101747346138
 72
     1
 10
512.1371870691837
 20
327.6101747346138
 11
512.1631428586224
 21
335.6101747346138
 72
     1
 10
512.1631428586224
 20
335.6101747346138
 11
516.1371870691836
 21
335.6101747346138
 72
     1
 10
516.1371870691836
 20
335.6101747346138
 11
516.1371870691836
 21
327.6101747346138
 72
     1
 10
516.1371870691836
 20
327.6101747346138
 11
520.1371870691836
 21
327.6101747346138
 72
     1
 10
520.1371870691836
 20
327.6101747346138
 11
521.1371804852787
 21
328.6101813185223
 72
     1
 10
521.1371804852787
 20
328.6101813185223
 11
521.1372068016025
 21
615.6101552636727
 72
     1
 10
521.1372068016025
 20
615.610155263671
 11
496.1372068016171
 21
615.6102507384575
 97
        0
 75
     0
 76
     1
 98
        1
 10
-33363.34044890395
 20
-15532.44668241396
450
        0
451
        0
460
0.0
461
0.0
452
        1
462
1.0
453
        2
463
0.0
 63
     5
421
      255
463
1.0
 63
     7
421
 16777215
470
LINEAR
1001
ACAD
1010
0.0
1020
0.0
1030
0.0
  0
HATCH
  5
9126
330
67
100
AcDbEntity
  8
F_15 Schr-Mauer hell
370
    13
100
AcDbHatch
 10
0.0
 20
0.0
 30
0.0
210
0.0
220
0.0
230
1.0
  2
SOLID
 70
     1
 71
     0
 91
        1
 92
        1
 93
        4
 72
     1
 10
314.1935345889105
 20
492.610173105254
 11
314.1935345889178
 21
302.6101729475531
 72
     1
 10
314.1935345889178
 20
302.6101729475513
 11
476.1371871527408
 21
302.6101729475531
 72
     1
 10
476.1371871527408
 20
302.6101729475549
 11
476.1371871527408
 21
492.610173105254
 72
     1
 10
476.1371871527408
 20
492.610173105254
 11
314.1935345889105
 21
492.610173105254
 97
        0
 75
     0
 76
     1
 98
        1
 10
265.0481927139881
 20
454.198674265338
450
        0
451
        0
460
0.0
461
0.0
452
        1
462
1.0
453
        2
463
0.0
 63
     5
421
      255
463
1.0
 63
     7
421
 16777215
470
LINEAR
1001
ACAD
1010
0.0
1020
0.0
1030
0.0
  0
POLYLINE
  5
9127
330
67
100
AcDbEntity
  8
F_01 sichtbar
370
    13
100
AcDb2dPolyline
 66
     1
 10
0.0
 20
0.0
 30
0.0
  0
VERTEX
  5
9128
330
9127
100
AcDbEntity
  8
F_01 sichtbar
370
    13
100
AcDbVertex
100
AcDb2dVertex
 10
314.1935345889178
 20
299.6101729475513
 30
0.0
  0
VERTEX
  5
9129
330
9127
100
AcDbEntity
  8
F_01 sichtbar
370
    13
100
AcDbVertex
100
AcDb2dVertex
 10
476.1371871527408
 20
299.6101729475513
 30
0.0
  0
VERTEX
  5
912A
330
9127
100
AcDbEntity
  8
F_01 sichtbar
370
    13
100
AcDbVertex
100
AcDb2dVertex
 10
476.1371871527408
 20
287.6101729475513
 30
0.0
  0
VERTEX
  5
912B
330
9127
100
AcDbEntity
  8
F_01 sichtbar
370
    13
100
AcDbVertex
100
AcDb2dVertex
 10
314.1935345889178
 20
287.6101729475513
 30
0.0
  0
SEQEND
  5
912C
330
9127
100
AcDbEntity
  8
F_01 sichtbar
370
    13
  0
POLYLINE
  5
912D
330
67
100
AcDbEntity
  8
F_01 sichtbar
370
    13
100
AcDb2dPolyline
 66
     1
 10
0.0
 20
0.0
 30
0.0
  0
VERTEX
  5
912E
330
912D
100
AcDbEntity
  8
F_01 sichtbar
370
    13
100
AcDbVertex
100
AcDb2dVertex
 10
314.1935345889178
 20
302.6101729475513
 30
0.0
  0
VERTEX
  5
912F
330
912D
100
AcDbEntity
  8
F_01 sichtbar
370
    13
100
AcDbVertex
100
AcDb2dVertex
 10
476.1371871527408
 20
302.6101729475549
 30
0.0
  0
VERTEX
  5
9130
330
912D
100
AcDbEntity
  8
F_01 sichtbar
370
    13
100
AcDbVertex
100
AcDb2dVertex
 10
476.1371871527408
 20
492.610173105254
 30
0.0
  0
VERTEX
  5
9131
330
912D
100
AcDbEntity
  8
F_01 sichtbar
370
    13
100
AcDbVertex
100
AcDb2dVertex
 10
314.1935345889178
 20
492.610173105254
 30
0.0
  0
SEQEND
  5
9132
330
912D
100
AcDbEntity
  8
F_01 sichtbar
370
    13
  0
POLYLINE
  5
9133
330
67
100
AcDbEntity
  8
F_01 sichtbar
370
    13
100
AcDb2dPolyline
 66
     1
 10
0.0
 20
0.0
 30
0.0
  0
VERTEX
  5
9134
330
9133
100
AcDbEntity
  8
F_01 sichtbar
370
    13
100
AcDbVertex
100
AcDb2dVertex
 10
314.1935345889178
 20
495.610173105254
 30
0.0
  0
VERTEX
  5
9135
330
9133
100
AcDbEntity
  8
F_01 sichtbar
370
    13
100
AcDbVertex
100
AcDb2dVertex
 10
476.137187152748
 20
495.610173105254
 30
0.0
  0
VERTEX
  5
9136
330
9133
100
AcDbEntity
  8
F_01 sichtbar
370
    13
100
AcDbVertex
100
AcDb2dVertex
 10
476.1371871527553
 20
615.610173105254
 30
0.0
  0
VERTEX
  5
9137
330
9133
100
AcDbEntity
  8
F_01 sichtbar
370
    13
100
AcDbVertex
100
AcDb2dVertex
 10
314.1935345889178
 20
615.610173105254
 30
0.0
  0
SEQEND
  5
9138
330
9133
100
AcDbEntity
  8
F_01 sichtbar
370
    13
  0
POLYLINE
  5
9139
330
67
100
AcDbEntity
  8
F_01 sichtbar
370
    13
100
AcDb2dPolyline
 66
     1
 10
0.0
 20
0.0
 30
0.0
  0
VERTEX
  5
913A
330
9139
100
AcDbEntity
  8
F_01 sichtbar
370
    13
100
AcDbVertex
100
AcDb2dVertex
 10
476.137187152748
 20
525.610173105254
 30
0.0
  0
VERTEX
  5
913B
330
9139
100
AcDbEntity
  8
F_01 sichtbar
370
    13
100
AcDbVertex
100
AcDb2dVertex
 10
314.1935345889178
 20
525.610173105254
 30
0.0
  0
SEQEND
  5
913C
330
9139
100
AcDbEntity
  8
F_01 sichtbar
370
    13
  0
LINE
  5
913D
330
67
100
AcDbEntity
  8
F_02 unsichtbar
370
    13
100
AcDbLine
 10
476.1371871527553
 20
494.110173105254
 30
0.0
 11
314.1935345889251
 21
494.110173105254
 31
0.0
  0
LINE
  5
913E
330
67
100
AcDbEntity
  8
F_02 unsichtbar
370
    13
100
AcDbLine
 10
476.1371871527553
 20
301.1101729475513
 30
0.0
 11
314.1935345889251
 21
301.1101729475513
 31
0.0
  0
POLYLINE
  5
913F
330
67
100
AcDbEntity
  8
F_31 Ansichtsfenster
370
    13
100
AcDb2dPolyline
 66
     1
 10
0.0
 20
0.0
 30
0.0
  0
VERTEX
  5
9140
330
913F
100
AcDbEntity
  8
F_31 Ansichtsfenster
370
    13
100
AcDbVertex
100
AcDb2dVertex
 10
314.1935345889178
 20
287.6101729475513
 30
0.0
  0
VERTEX
  5
9141
330
913F
100
AcDbEntity
  8
F_31 Ansichtsfenster
370
    13
100
AcDbVertex
100
AcDb2dVertex
 10
314.1935345889178
 20
615.610173105254
 30
0.0
  0
SEQEND
  5
9142
330
913F
100
AcDbEntity
  8
F_31 Ansichtsfenster
370
    13
  0
HATCH
  5
9143
330
67
100
AcDbEntity
  8
F_01 sichtbar
370
    13
100
AcDbHatch
 10
0.0
 20
0.0
 30
0.0
210
0.0
220
0.0
230
1.0
  2
BATT_INSULATION
 70
     0
 71
     0
 91
        1
 92
        1
 93
        4
 72
     1
 10
476.137187152748
 20
525.610173105254
 11
476.137187152748
 21
495.610173105254
 72
     1
 10
476.137187152748
 20
495.610173105254
 11
314.1935345889178
 21
495.610173105254
 72
     1
 10
314.1935345889178
 20
495.610173105254
 11
314.1935345889178
 21
525.6101731052559
 72
     1
 10
314.1935345889178
 20
525.610173105254
 11
476.137187152748
 21
525.6101731052522
 97
        0
 75
     0
 76
     2
 52
180.0
 41
32.77964320184142
 77
     0
 78
   528
 53
0.000000000000007
 43
12131.33172061257
 44
1783.438313136647
 45
10.95203936981043
 46
-36.87709860207159
 79
     2
 49
0.0
 49
-10.95203936981043
 53
345.9236
 43
12125.85568453784
 44
1779.340857736416
 45
10.95202660980681
 46
0.000004046117522
 79
     2
 49
2.663936043727233
 49
-1058.697838380723
 53
345.9236
 43
12125.85568453784
 44
1742.463759134341
 45
10.95202660980681
 46
0.000004046117522
 79
     2
 49
2.663936043727233
 49
-1058.697838380723
 53
345.9236
 43
12125.85568453784
 44
1705.586660532272
 45
10.95202660980681
 46
0.000004046117522
 79
     2
 49
2.663936043727233
 49
-1058.697838380723
 53
345.9236
 43
12125.85568453784
 44
1668.709561930197
 45
10.95202660980681
 46
0.000004046117522
 79
     2
 49
2.663936043727233
 49
-1058.697838380723
 53
345.9236
 43
12125.85568453784
 44
1631.832463328129
 45
10.95202660980681
 46
0.000004046117522
 79
     2
 49
2.663936043727233
 49
-1058.697838380723
 53
345.9236
 43
12125.85568453784
 44
1594.955364726061
 45
10.95202660980681
 46
0.000004046117522
 79
     2
 49
2.663936043727233
 49
-1058.697838380723
 53
345.9236
 43
12125.85568453784
 44
1558.078266123985
 45
10.95202660980681
 46
0.000004046117522
 79
     2
 49
2.663936043727233
 49
-1058.697838380723
 53
334.9544
 43
12127.13136991233
 44
1748.523731773071
 45
10.9520365279484
 46
-0.0000117218229823
 79
     2
 49
4.63628717518199
 49
-2957.102061108973
 53
334.9544
 43
12127.13136991233
 44
1711.646633170995
 45
10.9520365279484
 46
-0.0000117218229823
 79
     2
 49
4.63628717518199
 49
-2957.102061108973
 53
334.9544
 43
12127.13136991233
 44
1674.769534568927
 45
10.9520365279484
 46
-0.0000117218229823
 79
     2
 49
4.63628717518199
 49
-2957.102061108973
 53
334.9544
 43
12127.13136991233
 44
1637.892435966852
 45
10.9520365279484
 46
-0.0000117218229823
 79
     2
 49
4.63628717518199
 49
-2957.102061108973
 53
334.9544
 43
12127.13136991233
 44
1601.015337364783
 45
10.9520365279484
 46
-0.0000117218229823
 79
     2
 49
4.63628717518199
 49
-2957.102061108973
 53
334.9544
 43
12127.13136991233
 44
1564.138238762708
 45
10.9520365279484
 46
-0.0000117218229823
 79
     2
 49
4.63628717518199
 49
-2957.102061108973
 53
334.9544
 43
12127.13136991233
 44
1527.26114016064
 45
10.9520365279484
 46
-0.0000117218229823
 79
     2
 49
4.63628717518199
 49
-2957.102061108973
 53
334.9544
 43
12127.13136991233
 44
1490.384041558565
 45
10.9520365279484
 46
-0.0000117218229823
 79
     2
 49
4.63628717518199
 49
-2957.102061108973
 53
334.9544
 43
12127.13136991233
 44
1453.507926345795
 45
10.9520365279484
 46
-0.0000117218229823
 79
     2
 49
4.63628717518199
 49
-2957.102061108973
 53
334.9544
 43
12127.13136991233
 44
1416.630827743719
 45
10.9520365279484
 46
-0.0000117218229823
 79
     2
 49
4.63628717518199
 49
-2957.102061108973
 53
334.9544
 43
12127.13136991233
 44
1379.753729141651
 45
10.9520365279484
 46
-0.0000117218229823
 79
     2
 49
4.63628717518199
 49
-2957.102061108973
 53
334.9544
 43
12127.13136991233
 44
1342.876630539575
 45
10.9520365279484
 46
-0.0000117218229823
 79
     2
 49
4.63628717518199
 49
-2957.102061108973
 53
334.9544
 43
12127.13136991233
 44
1305.999531937507
 45
10.9520365279484
 46
-0.0000117218229823
 79
     2
 49
4.63628717518199
 49
-2957.102061108973
 53
334.9544
 43
12127.13136991233
 44
1269.122433335439
 45
10.9520365279484
 46
-0.0000117218229823
 79
     2
 49
4.63628717518199
 49
-2957.102061108973
 53
334.9544
 43
12127.13136991233
 44
1232.245334733364
 45
10.9520365279484
 46
-0.0000117218229823
 79
     2
 49
4.63628717518199
 49
-2957.102061108973
 53
334.9544
 43
12127.13136991233
 44
1195.368236131288
 45
10.9520365279484
 46
-0.0000117218229823
 79
     2
 49
4.63628717518199
 49
-2957.102061108973
 53
334.9544
 43
12127.13136991233
 44
1158.49113752922
 45
10.9520365279484
 46
-0.0000117218229823
 79
     2
 49
4.63628717518199
 49
-2957.102061108973
 53
334.9544
 43
12127.13136991233
 44
1121.614038927152
 45
10.9520365279484
 46
-0.0000117218229823
 79
     2
 49
4.63628717518199
 49
-2957.102061108973
 53
334.9544
 43
12127.13136991233
 44
1084.736940325077
 45
10.9520365279484
 46
-0.0000117218229823
 79
     2
 49
4.63628717518199
 49
-2957.102061108973
 53
334.9544
 43
12127.13136991233
 44
1047.859841723001
 45
10.9520365279484
 46
-0.0000117218229823
 79
     2
 49
4.63628717518199
 49
-2957.102061108973
 53
334.9544
 43
12127.13136991233
 44
1010.982743120933
 45
10.9520365279484
 46
-0.0000117218229823
 79
     2
 49
4.63628717518199
 49
-2957.102061108973
 53
334.9544
 43
12127.13136991233
 44
974.105644518865
 45
10.9520365279484
 46
-0.0000117218229823
 79
     2
 49
4.63628717518199
 49
-2957.102061108973
 53
334.9544
 43
12127.13136991233
 44
937.2285459167896
 45
10.9520365279484
 46
-0.0000117218229823
 79
     2
 49
4.63628717518199
 49
-2957.102061108973
 53
334.9544
 43
12127.13136991233
 44
900.3514473147143
 45
10.9520365279484
 46
-0.0000117218229823
 79
     2
 49
4.63628717518199
 49
-2957.102061108973
 53
334.9544
 43
12127.13136991233
 44
863.4743487126462
 45
10.9520365279484
 46
-0.0000117218229823
 79
     2
 49
4.63628717518199
 49
-2957.102061108973
 53
334.9544
 43
12127.13136991233
 44
826.597250110578
 45
10.9520365279484
 46
-0.0000117218229823
 79
     2
 49
4.63628717518199
 49
-2957.102061108973
 53
334.9544
 43
12127.13136991233
 44
789.7201515085026
 45
10.9520365279484
 46
-0.0000117218229823
 79
     2
 49
4.63628717518199
 49
-2957.102061108973
 53
334.9544
 43
12127.13136991233
 44
752.8430529064344
 45
10.9520365279484
 46
-0.0000117218229823
 79
     2
 49
4.63628717518199
 49
-2957.102061108973
 53
334.9544
 43
12127.13136991233
 44
715.965954304359
 45
10.9520365279484
 46
-0.0000117218229823
 79
     2
 49
4.63628717518199
 49
-2957.102061108973
 53
334.9544
 43
12127.13136991233
 44
679.0888557022835
 45
10.9520365279484
 46
-0.0000117218229823
 79
     2
 49
4.63628717518199
 49
-2957.102061108973
 53
334.9544
 43
12127.13136991233
 44
642.2117571002154
 45
10.9520365279484
 46
-0.0000117218229823
 79
     2
 49
4.63628717518199
 49
-2957.102061108973
 53
334.9544
 43
12127.13136991233
 44
605.3346584981473
 45
10.9520365279484
 46
-0.0000117218229823
 79
     2
 49
4.63628717518199
 49
-2957.102061108973
 53
334.9544
 43
12127.13136991233
 44
568.4575598960718
 45
10.9520365279484
 46
-0.0000117218229823
 79
     2
 49
4.63628717518199
 49
-2957.102061108973
 53
334.9544
 43
12127.13136991233
 44
531.580461294
 45
10.9520365279484
 46
-0.0000117218229823
 79
     2
 49
4.63628717518199
 49
-2957.102061108973
 53
307.5647
 43
12128.43963825215
 44
1778.692869749603
 45
10.95203172566192
 46
-0.0000024731155069
 79
     2
 49
4.503300162712156
 49
-1809.889024393901
 53
307.5647
 43
12128.43963825215
 44
1741.815705588247
 45
10.95203172566192
 46
-0.0000024731155069
 79
     2
 49
4.503300162712156
 49
-1809.889024393901
 53
307.5647
 43
12128.43963825215
 44
1704.938606986171
 45
10.95203172566192
 46
-0.0000024731155069
 79
     2
 49
4.503300162712156
 49
-1809.889024393901
 53
307.5647
 43
12128.43963825215
 44
1668.061508384103
 45
10.95203172566192
 46
-0.0000024731155069
 79
     2
 49
4.503300162712156
 49
-1809.889024393901
 53
307.5647
 43
12128.43963825215
 44
1631.184409782028
 45
10.95203172566192
 46
-0.0000024731155069
 79
     2
 49
4.503300162712156
 49
-1809.889024393901
 53
307.5647
 43
12128.43963825215
 44
1594.307311179952
 45
10.95203172566192
 46
-0.0000024731155069
 79
     2
 49
4.503300162712156
 49
-1809.889024393901
 53
307.5647
 43
12128.43963825215
 44
1557.430212577884
 45
10.95203172566192
 46
-0.0000024731155069
 79
     2
 49
4.503300162712156
 49
-1809.889024393901
 53
307.5647
 43
12128.43963825215
 44
1520.553113975816
 45
10.95203172566192
 46
-0.0000024731155069
 79
     2
 49
4.503300162712156
 49
-1809.889024393901
 53
307.5647
 43
12128.43963825215
 44
1483.67601537374
 45
10.95203172566192
 46
-0.0000024731155069
 79
     2
 49
4.503300162712156
 49
-1809.889024393901
 53
307.5647
 43
12128.43963825215
 44
1446.797933382374
 45
10.95203172566192
 46
-0.0000024731155069
 79
     2
 49
4.503300162712156
 49
-1809.889024393901
 53
307.5647
 43
12128.43963825215
 44
1409.920834780306
 45
10.95203172566192
 46
-0.0000024731155069
 79
     2
 49
4.503300162712156
 49
-1809.889024393901
 53
307.5647
 43
12128.43963825215
 44
1373.04373617823
 45
10.95203172566192
 46
-0.0000024731155069
 79
     2
 49
4.503300162712156
 49
-1809.889024393901
 53
307.5647
 43
12128.43963825215
 44
1336.166637576155
 45
10.95203172566192
 46
-0.0000024731155069
 79
     2
 49
4.503300162712156
 49
-1809.889024393901
 53
307.5647
 43
12128.43963825215
 44
1299.289538974087
 45
10.95203172566192
 46
-0.0000024731155069
 79
     2
 49
4.503300162712156
 49
-1809.889024393901
 53
307.5647
 43
12128.43963825215
 44
1262.412440372019
 45
10.95203172566192
 46
-0.0000024731155069
 79
     2
 49
4.503300162712156
 49
-1809.889024393901
 53
307.5647
 43
12128.43963825215
 44
1225.535341769943
 45
10.95203172566192
 46
-0.0000024731155069
 79
     2
 49
4.503300162712156
 49
-1809.889024393901
 53
307.5647
 43
12128.43963825215
 44
1188.658243167875
 45
10.95203172566192
 46
-0.0000024731155069
 79
     2
 49
4.503300162712156
 49
-1809.889024393901
 53
307.5647
 43
12128.43963825215
 44
1151.7811445658
 45
10.95203172566192
 46
-0.0000024731155069
 79
     2
 49
4.503300162712156
 49
-1809.889024393901
 53
307.5647
 43
12128.43963825215
 44
1114.904045963732
 45
10.95203172566192
 46
-0.0000024731155069
 79
     2
 49
4.503300162712156
 49
-1809.889024393901
 53
307.5647
 43
12128.43963825215
 44
1078.026947361656
 45
10.95203172566192
 46
-0.0000024731155069
 79
     2
 49
4.503300162712156
 49
-1809.889024393901
 53
307.5647
 43
12128.43963825215
 44
1041.149848759588
 45
10.95203172566192
 46
-0.0000024731155069
 79
     2
 49
4.503300162712156
 49
-1809.889024393901
 53
307.5647
 43
12128.43963825215
 44
1004.272750157513
 45
10.95203172566192
 46
-0.0000024731155069
 79
     2
 49
4.503300162712156
 49
-1809.889024393901
 53
307.5647
 43
12128.43963825215
 44
967.3956515554445
 45
10.95203172566192
 46
-0.0000024731155069
 79
     2
 49
4.503300162712156
 49
-1809.889024393901
 53
307.5647
 43
12128.43963825215
 44
930.5185529533764
 45
10.95203172566192
 46
-0.0000024731155069
 79
     2
 49
4.503300162712156
 49
-1809.889024393901
 53
307.5647
 43
12128.43963825215
 44
893.6414543513009
 45
10.95203172566192
 46
-0.0000024731155069
 79
     2
 49
4.503300162712156
 49
-1809.889024393901
 53
307.5647
 43
12128.43963825215
 44
856.7643557492257
 45
10.95203172566192
 46
-0.0000024731155069
 79
     2
 49
4.503300162712156
 49
-1809.889024393901
 53
307.5647
 43
12128.43963825215
 44
819.8872571471575
 45
10.95203172566192
 46
-0.0000024731155069
 79
     2
 49
4.503300162712156
 49
-1809.889024393901
 53
307.5647
 43
12128.43963825215
 44
783.0101585450893
 45
10.95203172566192
 46
-0.0000024731155069
 79
     2
 49
4.503300162712156
 49
-1809.889024393901
 53
307.5647
 43
12128.43963825215
 44
746.1330599430139
 45
10.95203172566192
 46
-0.0000024731155069
 79
     2
 49
4.503300162712156
 49
-1809.889024393901
 53
307.5647
 43
12128.43963825215
 44
709.2559613409421
 45
10.95203172566192
 46
-0.0000024731155069
 79
     2
 49
4.503300162712156
 49
-1809.889024393901
 53
307.5647
 43
12128.43963825215
 44
672.3788627388703
 45
10.95203172566192
 46
-0.0000024731155069
 79
     2
 49
4.503300162712156
 49
-1809.889024393901
 53
307.5647
 43
12128.43963825215
 44
635.5017641367949
 45
10.95203172566192
 46
-0.0000024731155069
 79
     2
 49
4.503300162712156
 49
-1809.889024393901
 53
307.5647
 43
12128.43963825215
 44
598.6246655347303
 45
10.95203172566192
 46
-0.0000024731155069
 79
     2
 49
4.503300162712156
 49
-1809.889024393901
 53
307.5647
 43
12128.43963825215
 44
561.7475669326586
 45
10.95203172566192
 46
-0.0000024731155069
 79
     2
 49
4.503300162712156
 49
-1809.889024393901
 53
307.5647
 43
12128.43963825215
 44
524.8704683305832
 45
10.95203172566192
 46
-0.0000024731155069
 79
     2
 49
4.503300162712156
 49
-1809.889024393901
 53
307.5647
 43
12128.43963825215
 44
487.993369728515
 45
10.95203172566192
 46
-0.0000024731155069
 79
     2
 49
4.503300162712156
 49
-1809.889024393901
 53
307.5647
 43
12128.43963825215
 44
451.1162711264432
 45
10.95203172566192
 46
-0.0000024731155069
 79
     2
 49
4.503300162712156
 49
-1809.889024393901
 53
307.5647
 43
12128.43963825215
 44
414.2391725243714
 45
10.95203172566192
 46
-0.0000024731155069
 79
     2
 49
4.503300162712156
 49
-1809.889024393901
 53
307.5647
 43
12128.43963825215
 44
377.3620739222997
 45
10.95203172566192
 46
-0.0000024731155069
 79
     2
 49
4.503300162712156
 49
-1809.889024393901
 53
292.9384
 43
12121.38872060962
 44
1767.109035536719
 45
10.95204222721493
 46
-0.0000045639384487
 79
     2
 49
8.386475035331912
 49
-1593.356600854789
 53
292.9384
 43
12121.38872060962
 44
1730.232035273576
 45
10.95204222721493
 46
-0.0000045639384487
 79
     2
 49
8.386475035331912
 49
-1593.356600854789
 53
292.9384
 43
12121.38872060962
 44
1693.3549366715
 45
10.95204222721493
 46
-0.0000045639384487
 79
     2
 49
8.386475035331912
 49
-1593.356600854789
 53
292.9384
 43
12121.38872060962
 44
1656.477838069432
 45
10.95204222721493
 46
-0.0000045639384487
 79
     2
 49
8.386475035331912
 49
-1593.356600854789
 53
292.9384
 43
12121.38872060962
 44
1619.600739467364
 45
10.95204222721493
 46
-0.0000045639384487
 79
     2
 49
8.386475035331912
 49
-1593.356600854789
 53
292.9384
 43
12121.38872060962
 44
1582.723640865289
 45
10.95204222721493
 46
-0.0000045639384487
 79
     2
 49
8.386475035331912
 49
-1593.356600854789
 53
292.9384
 43
12121.38872060962
 44
1545.846542263221
 45
10.95204222721493
 46
-0.0000045639384487
 79
     2
 49
8.386475035331912
 49
-1593.356600854789
 53
292.9384
 43
12121.38872060962
 44
1508.969443661145
 45
10.95204222721493
 46
-0.0000045639384487
 79
     2
 49
8.386475035331912
 49
-1593.356600854789
 53
292.9384
 43
12121.38872060962
 44
1472.092345059077
 45
10.95204222721493
 46
-0.0000045639384487
 79
     2
 49
8.386475035331912
 49
-1593.356600854789
 53
292.9384
 43
12121.38872060962
 44
1435.213607474848
 45
10.95204222721493
 46
-0.0000045639384487
 79
     2
 49
8.386475035331912
 49
-1593.356600854789
 53
292.9384
 43
12121.38872060962
 44
1398.336508872772
 45
10.95204222721493
 46
-0.0000045639384487
 79
     2
 49
8.386475035331912
 49
-1593.356600854789
 53
292.9384
 43
12121.38872060962
 44
1361.459410270697
 45
10.95204222721493
 46
-0.0000045639384487
 79
     2
 49
8.386475035331912
 49
-1593.356600854789
 53
292.9384
 43
12121.38872060962
 44
1324.582311668629
 45
10.95204222721493
 46
-0.0000045639384487
 79
     2
 49
8.386475035331912
 49
-1593.356600854789
 53
292.9384
 43
12121.38872060962
 44
1287.70521306656
 45
10.95204222721493
 46
-0.0000045639384487
 79
     2
 49
8.386475035331912
 49
-1593.356600854789
 53
292.9384
 43
12121.38872060962
 44
1250.828114464485
 45
10.95204222721493
 46
-0.0000045639384487
 79
     2
 49
8.386475035331912
 49
-1593.356600854789
 53
292.9384
 43
12121.38872060962
 44
1213.951015862417
 45
10.95204222721493
 46
-0.0000045639384487
 79
     2
 49
8.386475035331912
 49
-1593.356600854789
 53
292.9384
 43
12121.38872060962
 44
1177.073917260341
 45
10.95204222721493
 46
-0.0000045639384487
 79
     2
 49
8.386475035331912
 49
-1593.356600854789
 53
292.9384
 43
12121.38872060962
 44
1140.196818658273
 45
10.95204222721493
 46
-0.0000045639384487
 79
     2
 49
8.386475035331912
 49
-1593.356600854789
 53
292.9384
 43
12121.38872060962
 44
1103.319720056205
 45
10.95204222721493
 46
-0.0000045639384487
 79
     2
 49
8.386475035331912
 49
-1593.356600854789
 53
292.9384
 43
12121.38872060962
 44
1066.44262145413
 45
10.95204222721493
 46
-0.0000045639384487
 79
     2
 49
8.386475035331912
 49
-1593.356600854789
 53
292.9384
 43
12121.38872060962
 44
1029.565522852054
 45
10.95204222721493
 46
-0.0000045639384487
 79
     2
 49
8.386475035331912
 49
-1593.356600854789
 53
292.9384
 43
12121.38872060962
 44
992.6884242499864
 45
10.95204222721493
 46
-0.0000045639384487
 79
     2
 49
8.386475035331912
 49
-1593.356600854789
 53
292.9384
 43
12121.38872060962
 44
955.8113256479183
 45
10.95204222721493
 46
-0.0000045639384487
 79
     2
 49
8.386475035331912
 49
-1593.356600854789
 53
292.9384
 43
12121.38872060962
 44
918.9342270458428
 45
10.95204222721493
 46
-0.0000045639384487
 79
     2
 49
8.386475035331912
 49
-1593.356600854789
 53
292.9384
 43
12121.38872060962
 44
882.0571284437674
 45
10.95204222721493
 46
-0.0000045639384487
 79
     2
 49
8.386475035331912
 49
-1593.356600854789
 53
292.9384
 43
12121.38872060962
 44
845.1800298416992
 45
10.95204222721493
 46
-0.0000045639384487
 79
     2
 49
8.386475035331912
 49
-1593.356600854789
 53
292.9384
 43
12121.38872060962
 44
808.3029312396238
 45
10.95204222721493
 46
-0.0000045639384487
 79
     2
 49
8.386475035331912
 49
-1593.356600854789
 53
292.9384
 43
12121.38872060962
 44
771.4258326375556
 45
10.95204222721493
 46
-0.0000045639384487
 79
     2
 49
8.386475035331912
 49
-1593.356600854789
 53
292.9384
 43
12121.38872060962
 44
734.5487340354802
 45
10.95204222721493
 46
-0.0000045639384487
 79
     2
 49
8.386475035331912
 49
-1593.356600854789
 53
292.9384
 43
12121.38872060962
 44
697.6716354334121
 45
10.95204222721493
 46
-0.0000045639384487
 79
     2
 49
8.386475035331912
 49
-1593.356600854789
 53
292.9384
 43
12121.38872060962
 44
660.794536831344
 45
10.95204222721493
 46
-0.0000045639384487
 79
     2
 49
8.386475035331912
 49
-1593.356600854789
 53
292.9384
 43
12121.38872060962
 44
623.9174382292685
 45
10.95204222721493
 46
-0.0000045639384487
 79
     2
 49
8.386475035331912
 49
-1593.356600854789
 53
292.9384
 43
12121.38872060962
 44
587.0403396271967
 45
10.95204222721493
 46
-0.0000045639384487
 79
     2
 49
8.386475035331912
 49
-1593.356600854789
 53
292.9384
 43
12121.38872060962
 44
550.1632410251249
 45
10.95204222721493
 46
-0.0000045639384487
 79
     2
 49
8.386475035331912
 49
-1593.356600854789
 53
292.9384
 43
12121.38872060962
 44
513.2861424230532
 45
10.95204222721493
 46
-0.0000045639384487
 79
     2
 49
8.386475035331912
 49
-1593.356600854789
 53
292.9384
 43
12121.38872060962
 44
476.4090438209814
 45
10.95204222721493
 46
-0.0000045639384487
 79
     2
 49
8.386475035331912
 49
-1593.356600854789
 53
292.9384
 43
12121.38872060962
 44
439.5319452189133
 45
10.95204222721493
 46
-0.0000045639384487
 79
     2
 49
8.386475035331912
 49
-1593.356600854789
 53
292.9384
 43
12121.38872060962
 44
402.6548466168414
 45
10.95204222721493
 46
-0.0000045639384487
 79
     2
 49
8.386475035331912
 49
-1593.356600854789
 53
292.9384
 43
12121.38872060962
 44
365.7777480147661
 45
10.95204222721493
 46
-0.0000045639384487
 79
     2
 49
8.386475035331912
 49
-1593.356600854789
 53
292.9384
 43
12121.38872060962
 44
328.9006494126979
 45
10.95204222721493
 46
-0.0000045639384487
 79
     2
 49
8.386475035331912
 49
-1593.356600854789
 53
285.109
 43
12126.18348096986
 44
1752.037217829659
 45
0.0000000992044029
 46
-36.87707611878427
 79
     2
 49
3.638966530766021
 49
-416.5337124354709
 53
285.109
 43
12137.13552033968
 44
1752.037217829659
 45
0.0000000992044029
 46
-36.87707611878427
 79
     2
 49
3.638966530766021
 49
-416.5337124354709
 53
285.109
 43
12148.08755970949
 44
1752.037217829659
 45
0.0000000992044029
 46
-36.87707611878427
 79
     2
 49
3.638966530766021
 49
-416.5337124354709
 53
285.109
 43
12159.03966463858
 44
1752.037217829659
 45
0.0000000992044029
 46
-36.87707611878427
 79
     2
 49
3.638966530766021
 49
-416.5337124354709
 53
285.109
 43
12169.99167122875
 44
1752.037217829659
 45
0.0000000992044029
 46
-36.87707611878427
 79
     2
 49
3.638966530766021
 49
-416.5337124354709
 53
285.109
 43
12180.94367781891
 44
1752.037217829659
 45
0.0000000992044029
 46
-36.87707611878427
 79
     2
 49
3.638966530766021
 49
-416.5337124354709
 53
285.109
 43
12191.89568440908
 44
1752.037217829659
 45
0.0000000992044029
 46
-36.87707611878427
 79
     2
 49
3.638966530766021
 49
-416.5337124354709
 53
285.109
 43
12202.84769099925
 44
1752.037217829659
 45
0.0000000992044029
 46
-36.87707611878427
 79
     2
 49
3.638966530766021
 49
-416.5337124354709
 53
285.109
 43
12213.79969758942
 44
1752.037217829659
 45
0.0000000992044029
 46
-36.87707611878427
 79
     2
 49
3.638966530766021
 49
-416.5337124354709
 53
285.109
 43
12224.75170417958
 44
1752.037217829659
 45
0.0000000992044029
 46
-36.87707611878427
 79
     2
 49
3.638966530766021
 49
-416.5337124354709
 53
276.7473999999999
 43
12124.65686742667
 44
1759.385561564783
 45
0.0000035818718473
 46
-36.87716375543
 79
     2
 49
7.399774995313284
 49
-4560.119085052519
 53
276.7473999999999
 43
12135.60890679647
 44
1759.385561564783
 45
0.0000035818718473
 46
-36.87716375543
 79
     2
 49
7.399774995313284
 49
-4560.119085052519
 53
276.7473999999999
 43
12146.56094616628
 44
1759.385561564783
 45
0.0000035818718473
 46
-36.87716375543
 79
     2
 49
7.399774995313284
 49
-4560.119085052519
 53
276.7473999999999
 43
12157.51311665467
 44
1759.385561564783
 45
0.0000035818718473
 46
-36.87716375543
 79
     2
 49
7.399774995313284
 49
-4560.119085052519
 53
276.7473999999999
 43
12168.46512324484
 44
1759.385561564783
 45
0.0000035818718473
 46
-36.87716375543
 79
     2
 49
7.399774995313284
 49
-4560.119085052519
 53
276.7473999999999
 43
12179.41712983501
 44
1759.385561564783
 45
0.0000035818718473
 46
-36.87716375543
 79
     2
 49
7.399774995313284
 49
-4560.119085052519
 53
276.7473999999999
 43
12190.36913642517
 44
1759.385561564783
 45
0.0000035818718473
 46
-36.87716375543
 79
     2
 49
7.399774995313284
 49
-4560.119085052519
 53
276.7473999999999
 43
12201.32114301534
 44
1759.385561564783
 45
0.0000035818718473
 46
-36.87716375543
 79
     2
 49
7.399774995313284
 49
-4560.119085052519
 53
276.7473999999999
 43
12212.27314960551
 44
1759.385561564783
 45
0.0000035818718473
 46
-36.87716375543
 79
     2
 49
7.399774995313284
 49
-4560.119085052519
 53
276.7473999999999
 43
12223.22515619567
 44
1759.385561564783
 45
0.0000035818718473
 46
-36.87716375543
 79
     2
 49
7.399774995313284
 49
-4560.119085052519
 53
276.7473999999999
 43
12234.17716278584
 44
1759.385561564783
 45
0.0000035818718473
 46
-36.87716375543
 79
     2
 49
7.399774995313284
 49
-4560.119085052519
 53
276.7473999999999
 43
12245.12916937601
 44
1759.385561564783
 45
0.0000035818718473
 46
-36.87716375543
 79
     2
 49
7.399774995313284
 49
-4560.119085052519
 53
276.7473999999999
 43
12256.08117596618
 44
1759.385561564783
 45
0.0000035818718473
 46
-36.87716375543
 79
     2
 49
7.399774995313284
 49
-4560.119085052519
 53
276.7473999999999
 43
12267.03318255634
 44
1759.385561564783
 45
0.0000035818718473
 46
-36.87716375543
 79
     2
 49
7.399774995313284
 49
-4560.119085052519
 53
276.7473999999999
 43
12277.98551694294
 44
1759.385561564783
 45
0.0000035818718473
 46
-36.87716375543
 79
     2
 49
7.399774995313284
 49
-4560.119085052519
 53
276.7473999999999
 43
12288.93752353311
 44
1759.385561564783
 45
0.0000035818718473
 46
-36.87716375543
 79
     2
 49
7.399774995313284
 49
-4560.119085052519
 53
276.7473999999999
 43
12299.88953012327
 44
1759.385561564783
 45
0.0000035818718473
 46
-36.87716375543
 79
     2
 49
7.399774995313284
 49
-4560.119085052519
 53
276.7473999999999
 43
12310.84153671345
 44
1759.385561564783
 45
0.0000035818718473
 46
-36.87716375543
 79
     2
 49
7.399774995313284
 49
-4560.119085052519
 53
276.7473999999999
 43
12321.7935433036
 44
1759.385561564783
 45
0.0000035818718473
 46
-36.87716375543
 79
     2
 49
7.399774995313284
 49
-4560.119085052519
 53
276.7473999999999
 43
12332.74554989378
 44
1759.385561564783
 45
0.0000035818718473
 46
-36.87716375543
 79
     2
 49
7.399774995313284
 49
-4560.119085052519
 53
276.7473999999999
 43
12343.69755648395
 44
1759.385561564783
 45
0.0000035818718473
 46
-36.87716375543
 79
     2
 49
7.399774995313284
 49
-4560.119085052519
 53
276.7473999999999
 43
12354.64956307411
 44
1759.385561564783
 45
0.0000035818718473
 46
-36.87716375543
 79
     2
 49
7.399774995313284
 49
-4560.119085052519
 53
276.7473999999999
 43
12365.60156966428
 44
1759.385561564783
 45
0.0000035818718473
 46
-36.87716375543
 79
     2
 49
7.399774995313284
 49
-4560.119085052519
 53
276.7473999999999
 43
12376.55357625445
 44
1759.385561564783
 45
0.0000035818718473
 46
-36.87716375543
 79
     2
 49
7.399774995313284
 49
-4560.119085052519
 53
276.7473999999999
 43
12387.50591064105
 44
1759.385561564783
 45
0.0000035818718473
 46
-36.87716375543
 79
     2
 49
7.399774995313284
 49
-4560.119085052519
 53
276.7473999999999
 43
12398.45791723121
 44
1759.385561564783
 45
0.0000035818718473
 46
-36.87716375543
 79
     2
 49
7.399774995313284
 49
-4560.119085052519
 53
276.7473999999999
 43
12409.40992382138
 44
1759.385561564783
 45
0.0000035818718473
 46
-36.87716375543
 79
     2
 49
7.399774995313284
 49
-4560.119085052519
 53
276.7473999999999
 43
12420.36193041155
 44
1759.385561564783
 45
0.0000035818718473
 46
-36.87716375543
 79
     2
 49
7.399774995313284
 49
-4560.119085052519
 53
276.7473999999999
 43
12431.31393700172
 44
1759.385561564783
 45
0.0000035818718473
 46
-36.87716375543
 79
     2
 49
7.399774995313284
 49
-4560.119085052519
 53
276.7473999999999
 43
12442.26594359189
 44
1759.385561564783
 45
0.0000035818718473
 46
-36.87716375543
 79
     2
 49
7.399774995313284
 49
-4560.119085052519
 53
276.7473999999999
 43
12453.21762238562
 44
1759.385561564783
 45
0.0000035818718473
 46
-36.87716375543
 79
     2
 49
7.399774995313284
 49
-4560.119085052519
 53
276.7473999999999
 43
12464.16930117935
 44
1759.385561564783
 45
0.0000035818718473
 46
-36.87716375543
 79
     2
 49
7.399774995313284
 49
-4560.119085052519
 53
276.7473999999999
 43
12475.12097997309
 44
1759.385561564783
 45
0.0000035818718473
 46
-36.87716375543
 79
     2
 49
7.399774995313284
 49
-4560.119085052519
 53
276.7473999999999
 43
12486.07265876682
 44
1759.385561564783
 45
0.0000035818718473
 46
-36.87716375543
 79
     2
 49
7.399774995313284
 49
-4560.119085052519
 53
276.7473999999999
 43
12497.02761552488
 44
1759.385561564783
 45
0.0000035818718473
 46
-36.87716375543
 79
     2
 49
7.399774995313284
 49
-4560.119085052519
 53
276.7473999999999
 43
12507.97929431861
 44
1759.385561564783
 45
0.0000035818718473
 46
-36.87716375543
 79
     2
 49
7.399774995313284
 49
-4560.119085052519
 53
276.7473999999999
 43
12518.93097311234
 44
1759.385561564783
 45
0.0000035818718473
 46
-36.87716375543
 79
     2
 49
7.399774995313284
 49
-4560.119085052519
 53
276.7473999999999
 43
12529.88265190608
 44
1759.385561564783
 45
0.0000035818718473
 46
-36.87716375543
 79
     2
 49
7.399774995313284
 49
-4560.119085052519
 53
276.7473999999999
 43
12540.83433069982
 44
1759.385561564783
 45
0.0000035818718473
 46
-36.87716375543
 79
     2
 49
7.399774995313284
 49
-4560.119085052519
 53
276.7473999999999
 43
12551.78600949355
 44
1759.385561564783
 45
0.0000035818718473
 46
-36.87716375543
 79
     2
 49
7.399774995313284
 49
-4560.119085052519
 53
276.7473999999999
 43
12562.73768828729
 44
1759.385561564783
 45
0.0000035818718473
 46
-36.87716375543
 79
     2
 49
7.399774995313284
 49
-4560.119085052519
 53
276.7473999999999
 43
12573.68936708103
 44
1759.385561564783
 45
0.0000035818718473
 46
-36.87716375543
 79
     2
 49
7.399774995313284
 49
-4560.119085052519
 53
276.7473999999999
 43
12584.64104587476
 44
1759.385561564783
 45
0.0000035818718473
 46
-36.87716375543
 79
     2
 49
7.399774995313284
 49
-4560.119085052519
 53
276.7473999999999
 43
12595.59600263281
 44
1759.385561564783
 45
0.0000035818718473
 46
-36.87716375543
 79
     2
 49
7.399774995313284
 49
-4560.119085052519
 53
276.7473999999999
 43
12606.54768142655
 44
1759.385561564783
 45
0.0000035818718473
 46
-36.87716375543
 79
     2
 49
7.399774995313284
 49
-4560.119085052519
 53
276.7473999999999
 43
12617.49936022028
 44
1759.385561564783
 45
0.0000035818718473
 46
-36.87716375543
 79
     2
 49
7.399774995313284
 49
-4560.119085052519
 53
276.7473999999999
 43
12628.45103901402
 44
1759.385561564783
 45
0.0000035818718473
 46
-36.87716375543
 79
     2
 49
7.399774995313284
 49
-4560.119085052519
 53
276.7473999999999
 43
12639.40271780775
 44
1759.385561564783
 45
0.0000035818718473
 46
-36.87716375543
 79
     2
 49
7.399774995313284
 49
-4560.119085052519
 53
276.7473999999999
 43
12650.35439660149
 44
1759.385561564783
 45
0.0000035818718473
 46
-36.87716375543
 79
     2
 49
7.399774995313284
 49
-4560.119085052519
 53
276.1416
 43
12120.52625050039
 44
1775.123297723497
 45
-0.0000356891682921
 46
-36.87700042616381
 79
     2
 49
8.060547042976009
 49
-2551.147945737283
 53
276.1416
 43
12131.47827839733
 44
1775.123297723497
 45
-0.0000356891682921
 46
-36.87700042616381
 79
     2
 49
8.060547042976009
 49
-2551.147945737283
 53
276.1416
 43
12142.43031776714
 44
1775.123297723497
 45
-0.0000356891682921
 46
-36.87700042616381
 79
     2
 49
8.060547042976009
 49
-2551.147945737283
 53
276.1416
 43
12153.38222601837
 44
1775.123297723497
 45
-0.0000356891682921
 46
-36.87700042616381
 79
     2
 49
8.060547042976009
 49
-2551.147945737283
 53
276.1416
 43
12164.33456040498
 44
1775.123297723497
 45
-0.0000356891682921
 46
-36.87700042616381
 79
     2
 49
8.060547042976009
 49
-2551.147945737283
 53
276.1416
 43
12175.28656699514
 44
1775.123297723497
 45
-0.0000356891682921
 46
-36.87700042616381
 79
     2
 49
8.060547042976009
 49
-2551.147945737283
 53
276.1416
 43
12186.2385735853
 44
1775.123297723497
 45
-0.0000356891682921
 46
-36.87700042616381
 79
     2
 49
8.060547042976009
 49
-2551.147945737283
 53
276.1416
 43
12197.19058017548
 44
1775.123297723497
 45
-0.0000356891682921
 46
-36.87700042616381
 79
     2
 49
8.060547042976009
 49
-2551.147945737283
 53
276.1416
 43
12208.14258676564
 44
1775.123297723497
 45
-0.0000356891682921
 46
-36.87700042616381
 79
     2
 49
8.060547042976009
 49
-2551.147945737283
 53
276.1416
 43
12219.09459335581
 44
1775.123297723497
 45
-0.0000356891682921
 46
-36.87700042616381
 79
     2
 49
8.060547042976009
 49
-2551.147945737283
 53
276.1416
 43
12230.04659994598
 44
1775.123297723497
 45
-0.0000356891682921
 46
-36.87700042616381
 79
     2
 49
8.060547042976009
 49
-2551.147945737283
 53
276.1416
 43
12240.99860653615
 44
1775.123297723497
 45
-0.0000356891682921
 46
-36.87700042616381
 79
     2
 49
8.060547042976009
 49
-2551.147945737283
 53
276.1416
 43
12251.95061312631
 44
1775.123297723497
 45
-0.0000356891682921
 46
-36.87700042616381
 79
     2
 49
8.060547042976009
 49
-2551.147945737283
 53
276.1416
 43
12262.90261971647
 44
1775.123297723497
 45
-0.0000356891682921
 46
-36.87700042616381
 79
     2
 49
8.060547042976009
 49
-2551.147945737283
 53
276.1416
 43
12273.85462630665
 44
1775.123297723497
 45
-0.0000356891682921
 46
-36.87700042616381
 79
     2
 49
8.060547042976009
 49
-2551.147945737283
 53
276.1416
 43
12284.80696069324
 44
1775.123297723497
 45
-0.0000356891682921
 46
-36.87700042616381
 79
     2
 49
8.060547042976009
 49
-2551.147945737283
 53
276.1416
 43
12295.75896728342
 44
1775.123297723497
 45
-0.0000356891682921
 46
-36.87700042616381
 79
     2
 49
8.060547042976009
 49
-2551.147945737283
 53
276.1416
 43
12306.71097387358
 44
1775.123297723497
 45
-0.0000356891682921
 46
-36.87700042616381
 79
     2
 49
8.060547042976009
 49
-2551.147945737283
 53
276.1416
 43
12317.66298046374
 44
1775.123297723497
 45
-0.0000356891682921
 46
-36.87700042616381
 79
     2
 49
8.060547042976009
 49
-2551.147945737283
 53
276.1416
 43
12328.61498705392
 44
1775.123297723497
 45
-0.0000356891682921
 46
-36.87700042616381
 79
     2
 49
8.060547042976009
 49
-2551.147945737283
 53
276.1416
 43
12339.56699364408
 44
1775.123297723497
 45
-0.0000356891682921
 46
-36.87700042616381
 79
     2
 49
8.060547042976009
 49
-2551.147945737283
 53
276.1416
 43
12350.51900023424
 44
1775.123297723497
 45
-0.0000356891682921
 46
-36.87700042616381
 79
     2
 49
8.060547042976009
 49
-2551.147945737283
 53
276.1416
 43
12361.47100682441
 44
1775.123297723497
 45
-0.0000356891682921
 46
-36.87700042616381
 79
     2
 49
8.060547042976009
 49
-2551.147945737283
 53
276.1416
 43
12372.42301341459
 44
1775.123297723497
 45
-0.0000356891682921
 46
-36.87700042616381
 79
     2
 49
8.060547042976009
 49
-2551.147945737283
 53
276.1416
 43
12383.37502000475
 44
1775.123297723497
 45
-0.0000356891682921
 46
-36.87700042616381
 79
     2
 49
8.060547042976009
 49
-2551.147945737283
 53
83.85800000000008
 43
12130.32266485589
 44
1767.109035536719
 45
10.9520277214346
 46
-0.0000684758235829
 79
     2
 49
8.06054704297589
 49
-2551.147945737252
 53
83.85800000000008
 43
12130.32266485589
 44
1730.232035273576
 45
10.9520277214346
 46
-0.0000684758235829
 79
     2
 49
8.06054704297589
 49
-2551.147945737252
 53
83.85800000000008
 43
12130.32266485589
 44
1693.3549366715
 45
10.9520277214346
 46
-0.0000684758235829
 79
     2
 49
8.06054704297589
 49
-2551.147945737252
 53
83.85800000000008
 43
12130.32266485589
 44
1656.477838069432
 45
10.9520277214346
 46
-0.0000684758235829
 79
     2
 49
8.06054704297589
 49
-2551.147945737252
 53
83.85800000000008
 43
12130.32266485589
 44
1619.600739467364
 45
10.9520277214346
 46
-0.0000684758235829
 79
     2
 49
8.06054704297589
 49
-2551.147945737252
 53
83.85800000000008
 43
12130.32266485589
 44
1582.723640865289
 45
10.9520277214346
 46
-0.0000684758235829
 79
     2
 49
8.06054704297589
 49
-2551.147945737252
 53
83.85800000000008
 43
12130.32266485589
 44
1545.846542263221
 45
10.9520277214346
 46
-0.0000684758235829
 79
     2
 49
8.06054704297589
 49
-2551.147945737252
 53
83.85800000000008
 43
12130.32266485589
 44
1508.969443661145
 45
10.9520277214346
 46
-0.0000684758235829
 79
     2
 49
8.06054704297589
 49
-2551.147945737252
 53
83.85800000000008
 43
12130.32266485589
 44
1472.092345059077
 45
10.9520277214346
 46
-0.0000684758235829
 79
     2
 49
8.06054704297589
 49
-2551.147945737252
 53
83.85800000000008
 43
12130.32266485589
 44
1435.213607474848
 45
10.9520277214346
 46
-0.0000684758235829
 79
     2
 49
8.06054704297589
 49
-2551.147945737252
 53
83.85800000000008
 43
12130.32266485589
 44
1398.336508872772
 45
10.9520277214346
 46
-0.0000684758235829
 79
     2
 49
8.06054704297589
 49
-2551.147945737252
 53
83.85800000000008
 43
12130.32266485589
 44
1361.459410270697
 45
10.9520277214346
 46
-0.0000684758235829
 79
     2
 49
8.06054704297589
 49
-2551.147945737252
 53
83.85800000000008
 43
12130.32266485589
 44
1324.582311668629
 45
10.9520277214346
 46
-0.0000684758235829
 79
     2
 49
8.06054704297589
 49
-2551.147945737252
 53
83.85800000000008
 43
12130.32266485589
 44
1287.70521306656
 45
10.9520277214346
 46
-0.0000684758235829
 79
     2
 49
8.06054704297589
 49
-2551.147945737252
 53
83.85800000000008
 43
12130.32266485589
 44
1250.828114464485
 45
10.9520277214346
 46
-0.0000684758235829
 79
     2
 49
8.06054704297589
 49
-2551.147945737252
 53
83.85800000000008
 43
12130.32266485589
 44
1213.951015862417
 45
10.9520277214346
 46
-0.0000684758235829
 79
     2
 49
8.06054704297589
 49
-2551.147945737252
 53
83.85800000000008
 43
12130.32266485589
 44
1177.073917260341
 45
10.9520277214346
 46
-0.0000684758235829
 79
     2
 49
8.06054704297589
 49
-2551.147945737252
 53
83.85800000000008
 43
12130.32266485589
 44
1140.196818658273
 45
10.9520277214346
 46
-0.0000684758235829
 79
     2
 49
8.06054704297589
 49
-2551.147945737252
 53
83.85800000000008
 43
12130.32266485589
 44
1103.319720056205
 45
10.9520277214346
 46
-0.0000684758235829
 79
     2
 49
8.06054704297589
 49
-2551.147945737252
 53
83.85800000000008
 43
12130.32266485589
 44
1066.44262145413
 45
10.9520277214346
 46
-0.0000684758235829
 79
     2
 49
8.06054704297589
 49
-2551.147945737252
 53
83.85800000000008
 43
12130.32266485589
 44
1029.565522852054
 45
10.9520277214346
 46
-0.0000684758235829
 79
     2
 49
8.06054704297589
 49
-2551.147945737252
 53
83.85800000000008
 43
12130.32266485589
 44
992.6884242499864
 45
10.9520277214346
 46
-0.0000684758235829
 79
     2
 49
8.06054704297589
 49
-2551.147945737252
 53
83.85800000000008
 43
12130.32266485589
 44
955.8113256479183
 45
10.9520277214346
 46
-0.0000684758235829
 79
     2
 49
8.06054704297589
 49
-2551.147945737252
 53
83.85800000000008
 43
12130.32266485589
 44
918.9342270458428
 45
10.9520277214346
 46
-0.0000684758235829
 79
     2
 49
8.06054704297589
 49
-2551.147945737252
 53
83.85800000000008
 43
12130.32266485589
 44
882.0571284437674
 45
10.9520277214346
 46
-0.0000684758235829
 79
     2
 49
8.06054704297589
 49
-2551.147945737252
 53
83.85800000000008
 43
12130.32266485589
 44
845.1800298416992
 45
10.9520277214346
 46
-0.0000684758235829
 79
     2
 49
8.06054704297589
 49
-2551.147945737252
 53
83.85800000000008
 43
12130.32266485589
 44
808.3029312396238
 45
10.9520277214346
 46
-0.0000684758235829
 79
     2
 49
8.06054704297589
 49
-2551.147945737252
 53
83.85800000000008
 43
12130.32266485589
 44
771.4258326375556
 45
10.9520277214346
 46
-0.0000684758235829
 79
     2
 49
8.06054704297589
 49
-2551.147945737252
 53
83.85800000000008
 43
12130.32266485589
 44
734.5487340354802
 45
10.9520277214346
 46
-0.0000684758235829
 79
     2
 49
8.06054704297589
 49
-2551.147945737252
 53
83.85800000000008
 43
12130.32266485589
 44
697.6716354334121
 45
10.9520277214346
 46
-0.0000684758235829
 79
     2
 49
8.06054704297589
 49
-2551.147945737252
 53
83.85800000000008
 43
12130.32266485589
 44
660.794536831344
 45
10.9520277214346
 46
-0.0000684758235829
 79
     2
 49
8.06054704297589
 49
-2551.147945737252
 53
83.85800000000008
 43
12130.32266485589
 44
623.9174382292685
 45
10.9520277214346
 46
-0.0000684758235829
 79
     2
 49
8.06054704297589
 49
-2551.147945737252
 53
83.85800000000008
 43
12130.32266485589
 44
587.0403396271967
 45
10.9520277214346
 46
-0.0000684758235829
 79
     2
 49
8.06054704297589
 49
-2551.147945737252
 53
83.85800000000008
 43
12130.32266485589
 44
550.1632410251249
 45
10.9520277214346
 46
-0.0000684758235829
 79
     2
 49
8.06054704297589
 49
-2551.147945737252
 53
83.85800000000008
 43
12130.32266485589
 44
513.2861424230532
 45
10.9520277214346
 46
-0.0000684758235829
 79
     2
 49
8.06054704297589
 49
-2551.147945737252
 53
83.85800000000008
 43
12130.32266485589
 44
476.4090438209814
 45
10.9520277214346
 46
-0.0000684758235829
 79
     2
 49
8.06054704297589
 49
-2551.147945737252
 53
83.85800000000008
 43
12130.32266485589
 44
439.5319452189133
 45
10.9520277214346
 46
-0.0000684758235829
 79
     2
 49
8.06054704297589
 49
-2551.147945737252
 53
83.85800000000008
 43
12130.32266485589
 44
402.6548466168414
 45
10.9520277214346
 46
-0.0000684758235829
 79
     2
 49
8.06054704297589
 49
-2551.147945737252
 53
83.85800000000008
 43
12130.32266485589
 44
365.7777480147661
 45
10.9520277214346
 46
-0.0000684758235829
 79
     2
 49
8.06054704297589
 49
-2551.147945737252
 53
83.85800000000008
 43
12130.32266485589
 44
328.9006494126979
 45
10.9520277214346
 46
-0.0000684758235829
 79
     2
 49
8.06054704297589
 49
-2551.147945737252
 53
83.85800000000008
 43
12130.32266485589
 44
292.0235508106261
 45
10.9520277214346
 46
-0.0000684758235829
 79
     2
 49
8.06054704297589
 49
-2551.147945737252
 53
83.85800000000008
 43
12130.32266485589
 44
255.1464522085544
 45
10.9520277214346
 46
-0.0000684758235829
 79
     2
 49
8.06054704297589
 49
-2551.147945737252
 53
83.85800000000008
 43
12130.32266485589
 44
218.2693536064826
 45
10.9520277214346
 46
-0.0000684758235829
 79
     2
 49
8.06054704297589
 49
-2551.147945737252
 53
83.85800000000008
 43
12130.32266485589
 44
181.3922550044108
 45
10.9520277214346
 46
-0.0000684758235829
 79
     2
 49
8.06054704297589
 49
-2551.147945737252
 53
83.85800000000008
 43
12130.32266485589
 44
144.515156402339
 45
10.9520277214346
 46
-0.0000684758235829
 79
     2
 49
8.06054704297589
 49
-2551.147945737252
 53
83.85800000000008
 43
12130.32266485589
 44
107.6380578002672
 45
10.9520277214346
 46
-0.0000684758235829
 79
     2
 49
8.06054704297589
 49
-2551.147945737252
 53
83.85800000000008
 43
12130.32266485589
 44
70.76095919819545
 45
10.9520277214346
 46
-0.0000684758235829
 79
     2
 49
8.06054704297589
 49
-2551.147945737252
 53
83.85800000000008
 43
12130.32266485589
 44
33.88386059612003
 45
10.9520277214346
 46
-0.0000684758235829
 79
     2
 49
8.06054704297589
 49
-2551.147945737252
 53
83.85800000000008
 43
12130.32266485589
 44
-2.993238005944476
 45
10.9520277214346
 46
-0.0000684758235829
 79
     2
 49
8.06054704297589
 49
-2551.147945737252
 53
83.85800000000008
 43
12130.32266485589
 44
-39.87033660801626
 45
10.9520277214346
 46
-0.0000684758235829
 79
     2
 49
8.06054704297589
 49
-2551.147945737252
 53
83.85800000000008
 43
12130.32266485589
 44
-76.74743521009168
 45
10.9520277214346
 46
-0.0000684758235829
 79
     2
 49
8.06054704297589
 49
-2551.147945737252
 53
83.85800000000008
 43
12130.32266485589
 44
-113.6245338121634
 45
10.9520277214346
 46
-0.0000684758235829
 79
     2
 49
8.06054704297589
 49
-2551.147945737252
 53
83.85800000000008
 43
12130.32266485589
 44
-150.5016324142352
 45
10.9520277214346
 46
-0.0000684758235829
 79
     2
 49
8.06054704297589
 49
-2551.147945737252
 53
83.85800000000008
 43
12130.32266485589
 44
-187.378731016307
 45
10.9520277214346
 46
-0.0000684758235829
 79
     2
 49
8.06054704297589
 49
-2551.147945737252
 53
83.85800000000008
 43
12130.32266485589
 44
-224.2558296183752
 45
10.9520277214346
 46
-0.0000684758235829
 79
     2
 49
8.06054704297589
 49
-2551.147945737252
 53
83.85800000000008
 43
12130.32266485589
 44
-261.132928220447
 45
10.9520277214346
 46
-0.0000684758235829
 79
     2
 49
8.06054704297589
 49
-2551.147945737252
 53
83.85800000000008
 43
12130.32266485589
 44
-298.0100268225224
 45
10.9520277214346
 46
-0.0000684758235829
 79
     2
 49
8.06054704297589
 49
-2551.147945737252
 53
83.85800000000008
 43
12130.32266485589
 44
-334.8871254245905
 45
10.9520277214346
 46
-0.0000684758235829
 79
     2
 49
8.06054704297589
 49
-2551.147945737252
 53
83.85800000000008
 43
12130.32266485589
 44
-371.7642240266623
 45
10.9520277214346
 46
-0.0000684758235829
 79
     2
 49
8.06054704297589
 49
-2551.147945737252
 53
83.85800000000008
 43
12130.32266485589
 44
-408.6413226287341
 45
10.9520277214346
 46
-0.0000684758235829
 79
     2
 49
8.06054704297589
 49
-2551.147945737252
 53
83.85800000000008
 43
12130.32266485589
 44
-445.5184212308059
 45
10.9520277214346
 46
-0.0000684758235829
 79
     2
 49
8.06054704297589
 49
-2551.147945737252
 53
83.85800000000008
 43
12130.32266485589
 44
-482.3955198328776
 45
10.9520277214346
 46
-0.0000684758235829
 79
     2
 49
8.06054704297589
 49
-2551.147945737252
 53
83.85800000000008
 43
12130.32266485589
 44
-519.2726184349494
 45
10.9520277214346
 46
-0.0000684758235829
 79
     2
 49
8.06054704297589
 49
-2551.147945737252
 53
83.85800000000008
 43
12130.32266485589
 44
-556.1497170370212
 45
10.9520277214346
 46
-0.0000684758235829
 79
     2
 49
8.06054704297589
 49
-2551.147945737252
 53
83.85800000000008
 43
12130.32266485589
 44
-593.026815639093
 45
10.9520277214346
 46
-0.0000684758235829
 79
     2
 49
8.06054704297589
 49
-2551.147945737252
 53
83.85800000000008
 43
12130.32266485589
 44
-629.9039142411684
 45
10.9520277214346
 46
-0.0000684758235829
 79
     2
 49
8.06054704297589
 49
-2551.147945737252
 53
83.85800000000008
 43
12130.32266485589
 44
-666.7810128432365
 45
10.9520277214346
 46
-0.0000684758235829
 79
     2
 49
8.06054704297589
 49
-2551.147945737252
 53
83.85800000000008
 43
12130.32266485589
 44
-703.6581114453047
 45
10.9520277214346
 46
-0.0000684758235829
 79
     2
 49
8.06054704297589
 49
-2551.147945737252
 53
83.85800000000008
 43
12130.32266485589
 44
-740.5352100473801
 45
10.9520277214346
 46
-0.0000684758235829
 79
     2
 49
8.06054704297589
 49
-2551.147945737252
 53
83.25300000000003
 43
12126.18348096986
 44
1752.037217829659
 45
10.95204383447483
 46
0.0000798601498432
 79
     2
 49
7.399774995313283
 49
-4560.119085052519
 53
83.25300000000003
 43
12126.18348096986
 44
1715.160283125805
 45
10.95204383447483
 46
0.0000798601498432
 79
     2
 49
7.399774995313283
 49
-4560.119085052519
 53
83.25300000000003
 43
12126.18348096986
 44
1678.28318452373
 45
10.95204383447483
 46
0.0000798601498432
 79
     2
 49
7.399774995313283
 49
-4560.119085052519
 53
83.25300000000003
 43
12126.18348096986
 44
1641.406085921661
 45
10.95204383447483
 46
0.0000798601498432
 79
     2
 49
7.399774995313283
 49
-4560.119085052519
 53
83.25300000000003
 43
12126.18348096986
 44
1604.528987319593
 45
10.95204383447483
 46
0.0000798601498432
 79
     2
 49
7.399774995313283
 49
-4560.119085052519
 53
83.25300000000003
 43
12126.18348096986
 44
1567.651888717518
 45
10.95204383447483
 46
0.0000798601498432
 79
     2
 49
7.399774995313283
 49
-4560.119085052519
 53
83.25300000000003
 43
12126.18348096986
 44
1530.774790115442
 45
10.95204383447483
 46
0.0000798601498432
 79
     2
 49
7.399774995313283
 49
-4560.119085052519
 53
83.25300000000003
 43
12126.18348096986
 44
1493.897691513374
 45
10.95204383447483
 46
0.0000798601498432
 79
     2
 49
7.399774995313283
 49
-4560.119085052519
 53
83.25300000000003
 43
12126.18348096986
 44
1457.020592911299
 45
10.95204383447483
 46
0.0000798601498432
 79
     2
 49
7.399774995313283
 49
-4560.119085052519
 53
83.25300000000003
 43
12126.18348096986
 44
1420.144805494957
 45
10.95204383447483
 46
0.0000798601498432
 79
     2
 49
7.399774995313283
 49
-4560.119085052519
 53
83.25300000000003
 43
12126.18348096986
 44
1383.267706892889
 45
10.95204383447483
 46
0.0000798601498432
 79
     2
 49
7.399774995313283
 49
-4560.119085052519
 53
83.25300000000003
 43
12126.18348096986
 44
1346.390608290813
 45
10.95204383447483
 46
0.0000798601498432
 79
     2
 49
7.399774995313283
 49
-4560.119085052519
 53
83.25300000000003
 43
12126.18348096986
 44
1309.513509688745
 45
10.95204383447483
 46
0.0000798601498432
 79
     2
 49
7.399774995313283
 49
-4560.119085052519
 53
83.25300000000003
 43
12126.18348096986
 44
1272.63641108667
 45
10.95204383447483
 46
0.0000798601498432
 79
     2
 49
7.399774995313283
 49
-4560.119085052519
 53
83.25300000000003
 43
12126.18348096986
 44
1235.759312484594
 45
10.95204383447483
 46
0.0000798601498432
 79
     2
 49
7.399774995313283
 49
-4560.119085052519
 53
83.25300000000003
 43
12126.18348096986
 44
1198.882213882526
 45
10.95204383447483
 46
0.0000798601498432
 79
     2
 49
7.399774995313283
 49
-4560.119085052519
 53
83.25300000000003
 43
12126.18348096986
 44
1162.005115280458
 45
10.95204383447483
 46
0.0000798601498432
 79
     2
 49
7.399774995313283
 49
-4560.119085052519
 53
83.25300000000003
 43
12126.18348096986
 44
1125.128016678383
 45
10.95204383447483
 46
0.0000798601498432
 79
     2
 49
7.399774995313283
 49
-4560.119085052519
 53
83.25300000000003
 43
12126.18348096986
 44
1088.250918076314
 45
10.95204383447483
 46
0.0000798601498432
 79
     2
 49
7.399774995313283
 49
-4560.119085052519
 53
83.25300000000003
 43
12126.18348096986
 44
1051.373819474239
 45
10.95204383447483
 46
0.0000798601498432
 79
     2
 49
7.399774995313283
 49
-4560.119085052519
 53
83.25300000000003
 43
12126.18348096986
 44
1014.496720872171
 45
10.95204383447483
 46
0.0000798601498432
 79
     2
 49
7.399774995313283
 49
-4560.119085052519
 53
83.25300000000003
 43
12126.18348096986
 44
977.6196222701027
 45
10.95204383447483
 46
0.0000798601498432
 79
     2
 49
7.399774995313283
 49
-4560.119085052519
 53
83.25300000000003
 43
12126.18348096986
 44
940.7425236680273
 45
10.95204383447483
 46
0.0000798601498432
 79
     2
 49
7.399774995313283
 49
-4560.119085052519
 53
83.25300000000003
 43
12126.18348096986
 44
903.8654250659519
 45
10.95204383447483
 46
0.0000798601498432
 79
     2
 49
7.399774995313283
 49
-4560.119085052519
 53
83.25300000000003
 43
12126.18348096986
 44
866.9883264638839
 45
10.95204383447483
 46
0.0000798601498432
 79
     2
 49
7.399774995313283
 49
-4560.119085052519
 53
83.25300000000003
 43
12126.18348096986
 44
830.111227861812
 45
10.95204383447483
 46
0.0000798601498432
 79
     2
 49
7.399774995313283
 49
-4560.119085052519
 53
83.25300000000003
 43
12126.18348096986
 44
793.2341292597402
 45
10.95204383447483
 46
0.0000798601498432
 79
     2
 49
7.399774995313283
 49
-4560.119085052519
 53
83.25300000000003
 43
12126.18348096986
 44
756.3570306576685
 45
10.95204383447483
 46
0.0000798601498432
 79
     2
 49
7.399774995313283
 49
-4560.119085052519
 53
83.25300000000003
 43
12126.18348096986
 44
719.4799320555967
 45
10.95204383447483
 46
0.0000798601498432
 79
     2
 49
7.399774995313283
 49
-4560.119085052519
 53
83.25300000000003
 43
12126.18348096986
 44
682.6028334535249
 45
10.95204383447483
 46
0.0000798601498432
 79
     2
 49
7.399774995313283
 49
-4560.119085052519
 53
83.25300000000003
 43
12126.18348096986
 44
645.7257348514531
 45
10.95204383447483
 46
0.0000798601498432
 79
     2
 49
7.399774995313283
 49
-4560.119085052519
 53
83.25300000000003
 43
12126.18348096986
 44
608.8486362493813
 45
10.95204383447483
 46
0.0000798601498432
 79
     2
 49
7.399774995313283
 49
-4560.119085052519
 53
83.25300000000003
 43
12126.18348096986
 44
571.9715376473096
 45
10.95204383447483
 46
0.0000798601498432
 79
     2
 49
7.399774995313283
 49
-4560.119085052519
 53
83.25300000000003
 43
12126.18348096986
 44
535.0944390452414
 45
10.95204383447483
 46
0.0000798601498432
 79
     2
 49
7.399774995313283
 49
-4560.119085052519
 53
83.25300000000003
 43
12126.18348096986
 44
498.2173404431696
 45
10.95204383447483
 46
0.0000798601498432
 79
     2
 49
7.399774995313283
 49
-4560.119085052519
 53
83.25300000000003
 43
12126.18348096986
 44
461.3402418410978
 45
10.95204383447483
 46
0.0000798601498432
 79
     2
 49
7.399774995313283
 49
-4560.119085052519
 53
83.25300000000003
 43
12126.18348096986
 44
424.4631432390224
 45
10.95204383447483
 46
0.0000798601498432
 79
     2
 49
7.399774995313283
 49
-4560.119085052519
 53
83.25300000000003
 43
12126.18348096986
 44
387.5860446369543
 45
10.95204383447483
 46
0.0000798601498432
 79
     2
 49
7.399774995313283
 49
-4560.119085052519
 53
83.25300000000003
 43
12126.18348096986
 44
350.7089460348788
 45
10.95204383447483
 46
0.0000798601498432
 79
     2
 49
7.399774995313283
 49
-4560.119085052519
 53
83.25300000000003
 43
12126.18348096986
 44
313.8318474328107
 45
10.95204383447483
 46
0.0000798601498432
 79
     2
 49
7.399774995313283
 49
-4560.119085052519
 53
83.25300000000003
 43
12126.18348096986
 44
276.9547488307389
 45
10.95204383447483
 46
0.0000798601498432
 79
     2
 49
7.399774995313283
 49
-4560.119085052519
 53
83.25300000000003
 43
12126.18348096986
 44
240.0776502286671
 45
10.95204383447483
 46
0.0000798601498432
 79
     2
 49
7.399774995313283
 49
-4560.119085052519
 53
83.25300000000003
 43
12126.18348096986
 44
203.2005516265954
 45
10.95204383447483
 46
0.0000798601498432
 79
     2
 49
7.399774995313283
 49
-4560.119085052519
 53
83.25300000000003
 43
12126.18348096986
 44
166.3234530245236
 45
10.95204383447483
 46
0.0000798601498432
 79
     2
 49
7.399774995313283
 49
-4560.119085052519
 53
83.25300000000003
 43
12126.18348096986
 44
129.4463544224518
 45
10.95204383447483
 46
0.0000798601498432
 79
     2
 49
7.399774995313283
 49
-4560.119085052519
 53
83.25300000000003
 43
12126.18348096986
 44
92.56925582038002
 45
10.95204383447483
 46
0.0000798601498432
 79
     2
 49
7.399774995313283
 49
-4560.119085052519
 53
83.25300000000003
 43
12126.18348096986
 44
55.69215721831188
 45
10.95204383447483
 46
0.0000798601498432
 79
     2
 49
7.399774995313283
 49
-4560.119085052519
 53
83.25300000000003
 43
12126.18348096986
 44
18.81505861623645
 45
10.95204383447483
 46
0.0000798601498432
 79
     2
 49
7.399774995313283
 49
-4560.119085052519
 53
83.25300000000003
 43
12126.18348096986
 44
-18.06203998583533
 45
10.95204383447483
 46
0.0000798601498432
 79
     2
 49
7.399774995313283
 49
-4560.119085052519
 53
83.25300000000003
 43
12126.18348096986
 44
-54.93913858790711
 45
10.95204383447483
 46
0.0000798601498432
 79
     2
 49
7.399774995313283
 49
-4560.119085052519
 53
83.25300000000003
 43
12126.18348096986
 44
-91.81623718997888
 45
10.95204383447483
 46
0.0000798601498432
 79
     2
 49
7.399774995313283
 49
-4560.119085052519
 53
83.25300000000003
 43
12126.18348096986
 44
-128.693335792047
 45
10.95204383447483
 46
0.0000798601498432
 79
     2
 49
7.399774995313283
 49
-4560.119085052519
 53
83.25300000000003
 43
12126.18348096986
 44
-165.5704343941188
 45
10.95204383447483
 46
0.0000798601498432
 79
     2
 49
7.399774995313283
 49
-4560.119085052519
 53
83.25300000000003
 43
12126.18348096986
 44
-202.4475329961906
 45
10.95204383447483
 46
0.0000798601498432
 79
     2
 49
7.399774995313283
 49
-4560.119085052519
 53
83.25300000000003
 43
12126.18348096986
 44
-239.324631598266
 45
10.95204383447483
 46
0.0000798601498432
 79
     2
 49
7.399774995313283
 49
-4560.119085052519
 53
83.25300000000003
 43
12126.18348096986
 44
-276.2017302003342
 45
10.95204383447483
 46
0.0000798601498432
 79
     2
 49
7.399774995313283
 49
-4560.119085052519
 53
83.25300000000003
 43
12126.18348096986
 44
-313.0788288024096
 45
10.95204383447483
 46
0.0000798601498432
 79
     2
 49
7.399774995313283
 49
-4560.119085052519
 53
83.25300000000003
 43
12126.18348096986
 44
-349.9559274044778
 45
10.95204383447483
 46
0.0000798601498432
 79
     2
 49
7.399774995313283
 49
-4560.119085052519
 53
83.25300000000003
 43
12126.18348096986
 44
-386.8330260065495
 45
10.95204383447483
 46
0.0000798601498432
 79
     2
 49
7.399774995313283
 49
-4560.119085052519
 53
83.25300000000003
 43
12126.18348096986
 44
-423.7101246086212
 45
10.95204383447483
 46
0.0000798601498432
 79
     2
 49
7.399774995313283
 49
-4560.119085052519
 53
83.25300000000003
 43
12126.18348096986
 44
-460.587223210693
 45
10.95204383447483
 46
0.0000798601498432
 79
     2
 49
7.399774995313283
 49
-4560.119085052519
 53
83.25300000000003
 43
12126.18348096986
 44
-497.4643218127648
 45
10.95204383447483
 46
0.0000798601498432
 79
     2
 49
7.399774995313283
 49
-4560.119085052519
 53
83.25300000000003
 43
12126.18348096986
 44
-534.3414204148366
 45
10.95204383447483
 46
0.0000798601498432
 79
     2
 49
7.399774995313283
 49
-4560.119085052519
 53
83.25300000000003
 43
12126.18348096986
 44
-571.2185190169084
 45
10.95204383447483
 46
0.0000798601498432
 79
     2
 49
7.399774995313283
 49
-4560.119085052519
 53
83.25300000000003
 43
12126.18348096986
 44
-608.0956176189801
 45
10.95204383447483
 46
0.0000798601498432
 79
     2
 49
7.399774995313283
 49
-4560.119085052519
 53
83.25300000000003
 43
12126.18348096986
 44
-644.9727162210483
 45
10.95204383447483
 46
0.0000798601498432
 79
     2
 49
7.399774995313283
 49
-4560.119085052519
 53
83.25300000000003
 43
12126.18348096986
 44
-681.8498148231237
 45
10.95204383447483
 46
0.0000798601498432
 79
     2
 49
7.399774995313283
 49
-4560.119085052519
 53
83.25300000000003
 43
12126.18348096986
 44
-718.7269134251955
 45
10.95204383447483
 46
0.0000798601498432
 79
     2
 49
7.399774995313283
 49
-4560.119085052519
 53
83.25300000000003
 43
12126.18348096986
 44
-755.6040120272673
 45
10.95204383447483
 46
0.0000798601498432
 79
     2
 49
7.399774995313283
 49
-4560.119085052519
 53
83.25300000000003
 43
12126.18348096986
 44
-792.4811106293355
 45
10.95204383447483
 46
0.0000798601498432
 79
     2
 49
7.399774995313283
 49
-4560.119085052519
 53
83.25300000000003
 43
12126.18348096986
 44
-829.3582092314073
 45
10.95204383447483
 46
0.0000798601498432
 79
     2
 49
7.399774995313283
 49
-4560.119085052519
 53
83.25300000000003
 43
12126.18348096986
 44
-866.235307833479
 45
10.95204383447483
 46
0.0000798601498432
 79
     2
 49
7.399774995313283
 49
-4560.119085052519
 53
83.25300000000003
 43
12126.18348096986
 44
-903.1124064355545
 45
10.95204383447483
 46
0.0000798601498432
 79
     2
 49
7.399774995313283
 49
-4560.119085052519
 53
83.25300000000003
 43
12126.18348096986
 44
-939.9895050376226
 45
10.95204383447483
 46
0.0000798601498432
 79
     2
 49
7.399774995313283
 49
-4560.119085052519
 53
83.25300000000003
 43
12126.18348096986
 44
-976.8666036396908
 45
10.95204383447483
 46
0.0000798601498432
 79
     2
 49
7.399774995313283
 49
-4560.119085052519
 53
83.25300000000003
 43
12126.18348096986
 44
-1013.743702241766
 45
10.95204383447483
 46
0.0000798601498432
 79
     2
 49
7.399774995313283
 49
-4560.119085052519
 53
83.25300000000003
 43
12126.18348096986
 44
-1050.620800843838
 45
10.95204383447483
 46
0.0000798601498432
 79
     2
 49
7.399774995313283
 49
-4560.119085052519
 53
83.25300000000003
 43
12126.18348096986
 44
-1087.497899445909
 45
10.95204383447483
 46
0.0000798601498432
 79
     2
 49
7.399774995313283
 49
-4560.119085052519
 53
83.25300000000003
 43
12126.18348096986
 44
-1124.374998047981
 45
10.95204383447483
 46
0.0000798601498432
 79
     2
 49
7.399774995313283
 49
-4560.119085052519
 53
83.25300000000003
 43
12126.18348096986
 44
-1161.252096650053
 45
10.95204383447483
 46
0.0000798601498432
 79
     2
 49
7.399774995313283
 49
-4560.119085052519
 53
83.25300000000003
 43
12126.18348096986
 44
-1198.129195252124
 45
10.95204383447483
 46
0.0000798601498432
 79
     2
 49
7.399774995313283
 49
-4560.119085052519
 53
83.25300000000003
 43
12126.18348096986
 44
-1235.006293854196
 45
10.95204383447483
 46
0.0000798601498432
 79
     2
 49
7.399774995313283
 49
-4560.119085052519
 53
83.25300000000003
 43
12126.18348096986
 44
-1271.883392456268
 45
10.95204383447483
 46
0.0000798601498432
 79
     2
 49
7.399774995313283
 49
-4560.119085052519
 53
83.25300000000003
 43
12126.18348096986
 44
-1308.760491058336
 45
10.95204383447483
 46
0.0000798601498432
 79
     2
 49
7.399774995313283
 49
-4560.119085052519
 53
83.25300000000003
 43
12126.18348096986
 44
-1345.637589660411
 45
10.95204383447483
 46
0.0000798601498432
 79
     2
 49
7.399774995313283
 49
-4560.119085052519
 53
83.25300000000003
 43
12126.18348096986
 44
-1382.514688262483
 45
10.95204383447483
 46
0.0000798601498432
 79
     2
 49
7.399774995313283
 49
-4560.119085052519
 53
83.25300000000003
 43
12126.18348096986
 44
-1419.391786864551
 45
10.95204383447483
 46
0.0000798601498432
 79
     2
 49
7.399774995313283
 49
-4560.119085052519
 53
83.25300000000003
 43
12126.18348096986
 44
-1456.268885466623
 45
10.95204383447483
 46
0.0000798601498432
 79
     2
 49
7.399774995313283
 49
-4560.119085052519
 53
83.25300000000003
 43
12126.18348096986
 44
-1493.145984068695
 45
10.95204383447483
 46
0.0000798601498432
 79
     2
 49
7.399774995313283
 49
-4560.119085052519
 53
83.25300000000003
 43
12126.18348096986
 44
-1530.026360635089
 45
10.95204383447483
 46
0.0000798601498432
 79
     2
 49
7.399774995313283
 49
-4560.119085052519
 53
83.25300000000003
 43
12126.18348096986
 44
-1566.903459237161
 45
10.95204383447483
 46
0.0000798601498432
 79
     2
 49
7.399774995313283
 49
-4560.119085052519
 53
83.25300000000003
 43
12126.18348096986
 44
-1603.780557839233
 45
10.95204383447483
 46
0.0000798601498432
 79
     2
 49
7.399774995313283
 49
-4560.119085052519
 53
83.25300000000003
 43
12126.18348096986
 44
-1640.657656441301
 45
10.95204383447483
 46
0.0000798601498432
 79
     2
 49
7.399774995313283
 49
-4560.119085052519
 53
83.25300000000003
 43
12126.18348096986
 44
-1677.534755043372
 45
10.95204383447483
 46
0.0000798601498432
 79
     2
 49
7.399774995313283
 49
-4560.119085052519
 53
83.25300000000003
 43
12126.18348096986
 44
-1714.411853645448
 45
10.95204383447483
 46
0.0000798601498432
 79
     2
 49
7.399774995313283
 49
-4560.119085052519
 53
83.25300000000003
 43
12126.18348096986
 44
-1751.28895224752
 45
10.95204383447483
 46
0.0000798601498432
 79
     2
 49
7.399774995313283
 49
-4560.119085052519
 53
83.25300000000003
 43
12126.18348096986
 44
-1788.166050849591
 45
10.95204383447483
 46
0.0000798601498432
 79
     2
 49
7.399774995313283
 49
-4560.119085052519
 53
83.25300000000003
 43
12126.18348096986
 44
-1825.043149451663
 45
10.95204383447483
 46
0.0000798601498432
 79
     2
 49
7.399774995313283
 49
-4560.119085052519
 53
83.25300000000003
 43
12126.18348096986
 44
-1861.920248053731
 45
10.95204383447483
 46
0.0000798601498432
 79
     2
 49
7.399774995313283
 49
-4560.119085052519
 53
83.25300000000003
 43
12126.18348096986
 44
-1898.797346655803
 45
10.95204383447483
 46
0.0000798601498432
 79
     2
 49
7.399774995313283
 49
-4560.119085052519
 53
83.25300000000003
 43
12126.18348096986
 44
-1935.674445257879
 45
10.95204383447483
 46
0.0000798601498432
 79
     2
 49
7.399774995313283
 49
-4560.119085052519
 53
83.25300000000003
 43
12126.18348096986
 44
-1972.551543859947
 45
10.95204383447483
 46
0.0000798601498432
 79
     2
 49
7.399774995313283
 49
-4560.119085052519
 53
83.25300000000003
 43
12126.18348096986
 44
-2009.428642462019
 45
10.95204383447483
 46
0.0000798601498432
 79
     2
 49
7.399774995313283
 49
-4560.119085052519
 53
83.25300000000003
 43
12126.18348096986
 44
-2046.30574106409
 45
10.95204383447483
 46
0.0000798601498432
 79
     2
 49
7.399774995313283
 49
-4560.119085052519
 53
83.25300000000003
 43
12126.18348096986
 44
-2083.182839666162
 45
10.95204383447483
 46
0.0000798601498432
 79
     2
 49
7.399774995313283
 49
-4560.119085052519
 53
83.25300000000003
 43
12126.18348096986
 44
-2120.059938268234
 45
10.95204383447483
 46
0.0000798601498432
 79
     2
 49
7.399774995313283
 49
-4560.119085052519
 53
83.25300000000003
 43
12126.18348096986
 44
-2156.937036870306
 45
10.95204383447483
 46
0.0000798601498432
 79
     2
 49
7.399774995313283
 49
-4560.119085052519
 53
83.25300000000003
 43
12126.18348096986
 44
-2193.814135472377
 45
10.95204383447483
 46
0.0000798601498432
 79
     2
 49
7.399774995313283
 49
-4560.119085052519
 53
83.25300000000003
 43
12126.18348096986
 44
-2230.691234074449
 45
10.95204383447483
 46
0.0000798601498432
 79
     2
 49
7.399774995313283
 49
-4560.119085052519
 53
83.25300000000003
 43
12126.18348096986
 44
-2267.568332676525
 45
10.95204383447483
 46
0.0000798601498432
 79
     2
 49
7.399774995313283
 49
-4560.119085052519
 53
83.25300000000003
 43
12126.18348096986
 44
-2304.445431278593
 45
10.95204383447483
 46
0.0000798601498432
 79
     2
 49
7.399774995313283
 49
-4560.119085052519
 53
83.25300000000003
 43
12126.18348096986
 44
-2341.322529880665
 45
10.95204383447483
 46
0.0000798601498432
 79
     2
 49
7.399774995313283
 49
-4560.119085052519
 53
83.25300000000003
 43
12126.18348096986
 44
-2378.199628482736
 45
10.95204383447483
 46
0.0000798601498432
 79
     2
 49
7.399774995313283
 49
-4560.119085052519
 53
83.25300000000003
 43
12126.18348096986
 44
-2415.076727084808
 45
10.95204383447483
 46
0.0000798601498432
 79
     2
 49
7.399774995313283
 49
-4560.119085052519
 53
83.25300000000003
 43
12126.18348096986
 44
-2451.95382568688
 45
10.95204383447483
 46
0.0000798601498432
 79
     2
 49
7.399774995313283
 49
-4560.119085052519
 53
83.25300000000003
 43
12126.18348096986
 44
-2488.830924288952
 45
10.95204383447483
 46
0.0000798601498432
 79
     2
 49
7.399774995313283
 49
-4560.119085052519
 53
83.25300000000003
 43
12126.18348096986
 44
-2525.70802289102
 45
10.95204383447483
 46
0.0000798601498432
 79
     2
 49
7.399774995313283
 49
-4560.119085052519
 53
83.25300000000003
 43
12126.18348096986
 44
-2562.585121493092
 45
10.95204383447483
 46
0.0000798601498432
 79
     2
 49
7.399774995313283
 49
-4560.119085052519
 53
83.25300000000003
 43
12126.18348096986
 44
-2599.462220095167
 45
10.95204383447483
 46
0.0000798601498432
 79
     2
 49
7.399774995313283
 49
-4560.119085052519
 53
83.25300000000003
 43
12126.18348096986
 44
-2636.339318697235
 45
10.95204383447483
 46
0.0000798601498432
 79
     2
 49
7.399774995313283
 49
-4560.119085052519
 53
83.25300000000003
 43
12126.18348096986
 44
-2673.216417299307
 45
10.95204383447483
 46
0.0000798601498432
 79
     2
 49
7.399774995313283
 49
-4560.119085052519
 53
83.25300000000003
 43
12126.18348096986
 44
-2710.093515901379
 45
10.95204383447483
 46
0.0000798601498432
 79
     2
 49
7.399774995313283
 49
-4560.119085052519
 53
83.25300000000003
 43
12126.18348096986
 44
-2746.970614503451
 45
10.95204383447483
 46
0.0000798601498432
 79
     2
 49
7.399774995313283
 49
-4560.119085052519
 53
74.89100000000004
 43
12124.580031943
 44
1748.523731773071
 45
10.95202665113163
 46
-0.000003043705463
 79
     2
 49
3.63896653076602
 49
-416.5337124354707
 53
74.89100000000004
 43
12124.580031943
 44
1711.646633170995
 45
10.95202665113163
 46
-0.000003043705463
 79
     2
 49
3.63896653076602
 49
-416.5337124354707
 53
74.89100000000004
 43
12124.580031943
 44
1674.769534568927
 45
10.95202665113163
 46
-0.000003043705463
 79
     2
 49
3.63896653076602
 49
-416.5337124354707
 53
74.89100000000004
 43
12124.580031943
 44
1637.892435966852
 45
10.95202665113163
 46
-0.000003043705463
 79
     2
 49
3.63896653076602
 49
-416.5337124354707
 53
74.89100000000004
 43
12124.580031943
 44
1601.015337364783
 45
10.95202665113163
 46
-0.000003043705463
 79
     2
 49
3.63896653076602
 49
-416.5337124354707
 53
74.89100000000004
 43
12124.580031943
 44
1564.138238762708
 45
10.95202665113163
 46
-0.000003043705463
 79
     2
 49
3.63896653076602
 49
-416.5337124354707
 53
74.89100000000004
 43
12124.580031943
 44
1527.26114016064
 45
10.95202665113163
 46
-0.000003043705463
 79
     2
 49
3.63896653076602
 49
-416.5337124354707
 53
74.89100000000004
 43
12124.580031943
 44
1490.384041558565
 45
10.95202665113163
 46
-0.000003043705463
 79
     2
 49
3.63896653076602
 49
-416.5337124354707
 53
74.89100000000004
 43
12124.580031943
 44
1453.507926345795
 45
10.95202665113163
 46
-0.000003043705463
 79
     2
 49
3.63896653076602
 49
-416.5337124354707
 53
74.89100000000004
 43
12124.580031943
 44
1416.630827743719
 45
10.95202665113163
 46
-0.000003043705463
 79
     2
 49
3.63896653076602
 49
-416.5337124354707
 53
74.89100000000004
 43
12124.580031943
 44
1379.753729141651
 45
10.95202665113163
 46
-0.000003043705463
 79
     2
 49
3.63896653076602
 49
-416.5337124354707
 53
67.06200000000002
 43
12127.05453442867
 44
1759.385561564783
 45
10.95204222691618
 46
0.0000810236171289
 79
     2
 49
8.386475035331908
 49
-1593.356600854788
 53
67.06200000000002
 43
12127.05453442867
 44
1722.508495742359
 45
10.95204222691618
 46
0.0000810236171289
 79
     2
 49
8.386475035331908
 49
-1593.356600854788
 53
67.06200000000002
 43
12127.05453442867
 44
1685.631397140291
 45
10.95204222691618
 46
0.0000810236171289
 79
     2
 49
8.386475035331908
 49
-1593.356600854788
 53
67.06200000000002
 43
12127.05453442867
 44
1648.754298538216
 45
10.95204222691618
 46
0.0000810236171289
 79
     2
 49
8.386475035331908
 49
-1593.356600854788
 53
67.06200000000002
 43
12127.05453442867
 44
1611.877199936141
 45
10.95204222691618
 46
0.0000810236171289
 79
     2
 49
8.386475035331908
 49
-1593.356600854788
 53
67.06200000000002
 43
12127.05453442867
 44
1575.000101334072
 45
10.95204222691618
 46
0.0000810236171289
 79
     2
 49
8.386475035331908
 49
-1593.356600854788
 53
67.06200000000002
 43
12127.05453442867
 44
1538.123002732004
 45
10.95204222691618
 46
0.0000810236171289
 79
     2
 49
8.386475035331908
 49
-1593.356600854788
 53
67.06200000000002
 43
12127.05453442867
 44
1501.245904129929
 45
10.95204222691618
 46
0.0000810236171289
 79
     2
 49
8.386475035331908
 49
-1593.356600854788
 53
67.06200000000002
 43
12127.05453442867
 44
1464.36880552786
 45
10.95204222691618
 46
0.0000810236171289
 79
     2
 49
8.386475035331908
 49
-1593.356600854788
 53
67.06200000000002
 43
12127.05453442867
 44
1427.490723536487
 45
10.95204222691618
 46
0.0000810236171289
 79
     2
 49
8.386475035331908
 49
-1593.356600854788
 53
67.06200000000002
 43
12127.05453442867
 44
1390.613624934419
 45
10.95204222691618
 46
0.0000810236171289
 79
     2
 49
8.386475035331908
 49
-1593.356600854788
 53
67.06200000000002
 43
12127.05453442867
 44
1353.736526332343
 45
10.95204222691618
 46
0.0000810236171289
 79
     2
 49
8.386475035331908
 49
-1593.356600854788
 53
67.06200000000002
 43
12127.05453442867
 44
1316.859427730275
 45
10.95204222691618
 46
0.0000810236171289
 79
     2
 49
8.386475035331908
 49
-1593.356600854788
 53
67.06200000000002
 43
12127.05453442867
 44
1279.982329128207
 45
10.95204222691618
 46
0.0000810236171289
 79
     2
 49
8.386475035331908
 49
-1593.356600854788
 53
67.06200000000002
 43
12127.05453442867
 44
1243.105230526132
 45
10.95204222691618
 46
0.0000810236171289
 79
     2
 49
8.386475035331908
 49
-1593.356600854788
 53
67.06200000000002
 43
12127.05453442867
 44
1206.228131924064
 45
10.95204222691618
 46
0.0000810236171289
 79
     2
 49
8.386475035331908
 49
-1593.356600854788
 53
67.06200000000002
 43
12127.05453442867
 44
1169.351033321988
 45
10.95204222691618
 46
0.0000810236171289
 79
     2
 49
8.386475035331908
 49
-1593.356600854788
 53
67.06200000000002
 43
12127.05453442867
 44
1132.473934719913
 45
10.95204222691618
 46
0.0000810236171289
 79
     2
 49
8.386475035331908
 49
-1593.356600854788
 53
67.06200000000002
 43
12127.05453442867
 44
1095.596836117844
 45
10.95204222691618
 46
0.0000810236171289
 79
     2
 49
8.386475035331908
 49
-1593.356600854788
 53
67.06200000000002
 43
12127.05453442867
 44
1058.719737515776
 45
10.95204222691618
 46
0.0000810236171289
 79
     2
 49
8.386475035331908
 49
-1593.356600854788
 53
67.06200000000002
 43
12127.05453442867
 44
1021.842638913701
 45
10.95204222691618
 46
0.0000810236171289
 79
     2
 49
8.386475035331908
 49
-1593.356600854788
 53
67.06200000000002
 43
12127.05453442867
 44
984.9655403116329
 45
10.95204222691618
 46
0.0000810236171289
 79
     2
 49
8.386475035331908
 49
-1593.356600854788
 53
67.06200000000002
 43
12127.05453442867
 44
948.0884417095577
 45
10.95204222691618
 46
0.0000810236171289
 79
     2
 49
8.386475035331908
 49
-1593.356600854788
 53
67.06200000000002
 43
12127.05453442867
 44
911.2113431074895
 45
10.95204222691618
 46
0.0000810236171289
 79
     2
 49
8.386475035331908
 49
-1593.356600854788
 53
67.06200000000002
 43
12127.05453442867
 44
874.3342445054214
 45
10.95204222691618
 46
0.0000810236171289
 79
     2
 49
8.386475035331908
 49
-1593.356600854788
 53
67.06200000000002
 43
12127.05453442867
 44
837.4571459033459
 45
10.95204222691618
 46
0.0000810236171289
 79
     2
 49
8.386475035331908
 49
-1593.356600854788
 53
67.06200000000002
 43
12127.05453442867
 44
800.5800473012705
 45
10.95204222691618
 46
0.0000810236171289
 79
     2
 49
8.386475035331908
 49
-1593.356600854788
 53
67.06200000000002
 43
12127.05453442867
 44
763.7029486992023
 45
10.95204222691618
 46
0.0000810236171289
 79
     2
 49
8.386475035331908
 49
-1593.356600854788
 53
67.06200000000002
 43
12127.05453442867
 44
726.8258500971305
 45
10.95204222691618
 46
0.0000810236171289
 79
     2
 49
8.386475035331908
 49
-1593.356600854788
 53
67.06200000000002
 43
12127.05453442867
 44
689.9487514950587
 45
10.95204222691618
 46
0.0000810236171289
 79
     2
 49
8.386475035331908
 49
-1593.356600854788
 53
67.06200000000002
 43
12127.05453442867
 44
653.0716528929834
 45
10.95204222691618
 46
0.0000810236171289
 79
     2
 49
8.386475035331908
 49
-1593.356600854788
 53
67.06200000000002
 43
12127.05453442867
 44
616.1945542909152
 45
10.95204222691618
 46
0.0000810236171289
 79
     2
 49
8.386475035331908
 49
-1593.356600854788
 53
67.06200000000002
 43
12127.05453442867
 44
579.3174556888434
 45
10.95204222691618
 46
0.0000810236171289
 79
     2
 49
8.386475035331908
 49
-1593.356600854788
 53
67.06200000000002
 43
12127.05453442867
 44
542.4403570867716
 45
10.95204222691618
 46
0.0000810236171289
 79
     2
 49
8.386475035331908
 49
-1593.356600854788
 53
67.06200000000002
 43
12127.05453442867
 44
505.5632584846998
 45
10.95204222691618
 46
0.0000810236171289
 79
     2
 49
8.386475035331908
 49
-1593.356600854788
 53
67.06200000000002
 43
12127.05453442867
 44
468.6861598826281
 45
10.95204222691618
 46
0.0000810236171289
 79
     2
 49
8.386475035331908
 49
-1593.356600854788
 53
67.06200000000002
 43
12127.05453442867
 44
431.8090612805563
 45
10.95204222691618
 46
0.0000810236171289
 79
     2
 49
8.386475035331908
 49
-1593.356600854788
 53
67.06200000000002
 43
12127.05453442867
 44
394.9319626784882
 45
10.95204222691618
 46
0.0000810236171289
 79
     2
 49
8.386475035331908
 49
-1593.356600854788
 53
67.06200000000002
 43
12127.05453442867
 44
358.0548640764164
 45
10.95204222691618
 46
0.0000810236171289
 79
     2
 49
8.386475035331908
 49
-1593.356600854788
 53
67.06200000000002
 43
12127.05453442867
 44
321.177765474341
 45
10.95204222691618
 46
0.0000810236171289
 79
     2
 49
8.386475035331908
 49
-1593.356600854788
 53
52.43499999999998
 43
12120.52625050039
 44
1775.123297723497
 45
10.95203172552474
 46
-0.000054871588512
 79
     2
 49
4.503300162712174
 49
-1809.889024393906
 53
52.43499999999998
 43
12120.52625050039
 44
1738.246330239998
 45
10.95203172552474
 46
-0.000054871588512
 79
     2
 49
4.503300162712174
 49
-1809.889024393906
 53
52.43499999999998
 43
12120.52625050039
 44
1701.369231637922
 45
10.95203172552474
 46
-0.000054871588512
 79
     2
 49
4.503300162712174
 49
-1809.889024393906
 53
52.43499999999998
 43
12120.52625050039
 44
1664.492133035847
 45
10.95203172552474
 46
-0.000054871588512
 79
     2
 49
4.503300162712174
 49
-1809.889024393906
 53
52.43499999999998
 43
12120.52625050039
 44
1627.615034433779
 45
10.95203172552474
 46
-0.000054871588512
 79
     2
 49
4.503300162712174
 49
-1809.889024393906
 53
52.43499999999998
 43
12120.52625050039
 44
1590.737935831711
 45
10.95203172552474
 46
-0.000054871588512
 79
     2
 49
4.503300162712174
 49
-1809.889024393906
 53
52.43499999999998
 43
12120.52625050039
 44
1553.860837229643
 45
10.95203172552474
 46
-0.000054871588512
 79
     2
 49
4.503300162712174
 49
-1809.889024393906
 53
52.43499999999998
 43
12120.52625050039
 44
1516.983738627567
 45
10.95203172552474
 46
-0.000054871588512
 79
     2
 49
4.503300162712174
 49
-1809.889024393906
 53
52.43499999999998
 43
12120.52625050039
 44
1480.106640025492
 45
10.95203172552474
 46
-0.000054871588512
 79
     2
 49
4.503300162712174
 49
-1809.889024393906
 53
52.43499999999998
 43
12120.52625050039
 44
1443.22823023769
 45
10.95203172552474
 46
-0.000054871588512
 79
     2
 49
4.503300162712174
 49
-1809.889024393906
 53
52.43499999999998
 43
12120.52625050039
 44
1406.351131635623
 45
10.95203172552474
 46
-0.000054871588512
 79
     2
 49
4.503300162712174
 49
-1809.889024393906
 53
52.43499999999998
 43
12120.52625050039
 44
1369.474033033554
 45
10.95203172552474
 46
-0.000054871588512
 79
     2
 49
4.503300162712174
 49
-1809.889024393906
 53
52.43499999999998
 43
12120.52625050039
 44
1332.596934431479
 45
10.95203172552474
 46
-0.000054871588512
 79
     2
 49
4.503300162712174
 49
-1809.889024393906
 53
52.43499999999998
 43
12120.52625050039
 44
1295.719835829403
 45
10.95203172552474
 46
-0.000054871588512
 79
     2
 49
4.503300162712174
 49
-1809.889024393906
 53
52.43499999999998
 43
12120.52625050039
 44
1258.842737227335
 45
10.95203172552474
 46
-0.000054871588512
 79
     2
 49
4.503300162712174
 49
-1809.889024393906
 53
52.43499999999998
 43
12120.52625050039
 44
1221.965638625267
 45
10.95203172552474
 46
-0.000054871588512
 79
     2
 49
4.503300162712174
 49
-1809.889024393906
 53
52.43499999999998
 43
12120.52625050039
 44
1185.088540023192
 45
10.95203172552474
 46
-0.000054871588512
 79
     2
 49
4.503300162712174
 49
-1809.889024393906
 53
52.43499999999998
 43
12120.52625050039
 44
1148.211441421123
 45
10.95203172552474
 46
-0.000054871588512
 79
     2
 49
4.503300162712174
 49
-1809.889024393906
 53
52.43499999999998
 43
12120.52625050039
 44
1111.334342819048
 45
10.95203172552474
 46
-0.000054871588512
 79
     2
 49
4.503300162712174
 49
-1809.889024393906
 53
52.43499999999998
 43
12120.52625050039
 44
1074.45724421698
 45
10.95203172552474
 46
-0.000054871588512
 79
     2
 49
4.503300162712174
 49
-1809.889024393906
 53
52.43499999999998
 43
12120.52625050039
 44
1037.580145614912
 45
10.95203172552474
 46
-0.000054871588512
 79
     2
 49
4.503300162712174
 49
-1809.889024393906
 53
52.43499999999998
 43
12120.52625050039
 44
1000.703047012836
 45
10.95203172552474
 46
-0.000054871588512
 79
     2
 49
4.503300162712174
 49
-1809.889024393906
 53
52.43499999999998
 43
12120.52625050039
 44
963.8259484107612
 45
10.95203172552474
 46
-0.000054871588512
 79
     2
 49
4.503300162712174
 49
-1809.889024393906
 53
52.43499999999998
 43
12120.52625050039
 44
926.948849808693
 45
10.95203172552474
 46
-0.000054871588512
 79
     2
 49
4.503300162712174
 49
-1809.889024393906
 53
52.43499999999998
 43
12120.52625050039
 44
890.0717512066176
 45
10.95203172552474
 46
-0.000054871588512
 79
     2
 49
4.503300162712174
 49
-1809.889024393906
 53
52.43499999999998
 43
12120.52625050039
 44
853.1946526045494
 45
10.95203172552474
 46
-0.000054871588512
 79
     2
 49
4.503300162712174
 49
-1809.889024393906
 53
52.43499999999998
 43
12120.52625050039
 44
816.317554002474
 45
10.95203172552474
 46
-0.000054871588512
 79
     2
 49
4.503300162712174
 49
-1809.889024393906
 53
52.43499999999998
 43
12120.52625050039
 44
779.4404554004058
 45
10.95203172552474
 46
-0.000054871588512
 79
     2
 49
4.503300162712174
 49
-1809.889024393906
 53
52.43499999999998
 43
12120.52625050039
 44
742.563356798334
 45
10.95203172552474
 46
-0.000054871588512
 79
     2
 49
4.503300162712174
 49
-1809.889024393906
 53
52.43499999999998
 43
12120.52625050039
 44
705.6862581962623
 45
10.95203172552474
 46
-0.000054871588512
 79
     2
 49
4.503300162712174
 49
-1809.889024393906
 53
52.43499999999998
 43
12120.52625050039
 44
668.8091595941905
 45
10.95203172552474
 46
-0.000054871588512
 79
     2
 49
4.503300162712174
 49
-1809.889024393906
 53
52.43499999999998
 43
12120.52625050039
 44
631.9320609921187
 45
10.95203172552474
 46
-0.000054871588512
 79
     2
 49
4.503300162712174
 49
-1809.889024393906
 53
52.43499999999998
 43
12120.52625050039
 44
595.0549623900506
 45
10.95203172552474
 46
-0.000054871588512
 79
     2
 49
4.503300162712174
 49
-1809.889024393906
 53
52.43499999999998
 43
12120.52625050039
 44
558.1778637879751
 45
10.95203172552474
 46
-0.000054871588512
 79
     2
 49
4.503300162712174
 49
-1809.889024393906
 53
52.43499999999998
 43
12120.52625050039
 44
521.300765185907
 45
10.95203172552474
 46
-0.000054871588512
 79
     2
 49
4.503300162712174
 49
-1809.889024393906
 53
52.43499999999998
 43
12120.52625050039
 44
484.4236665838316
 45
10.95203172552474
 46
-0.000054871588512
 79
     2
 49
4.503300162712174
 49
-1809.889024393906
 53
52.43499999999998
 43
12120.52625050039
 44
447.5465679817598
 45
10.95203172552474
 46
-0.000054871588512
 79
     2
 49
4.503300162712174
 49
-1809.889024393906
 53
52.43499999999998
 43
12120.52625050039
 44
410.669469379688
 45
10.95203172552474
 46
-0.000054871588512
 79
     2
 49
4.503300162712174
 49
-1809.889024393906
 53
52.43499999999998
 43
12120.52625050039
 44
373.7923707776199
 45
10.95203172552474
 46
-0.000054871588512
 79
     2
 49
4.503300162712174
 49
-1809.889024393906
 53
25.04599999999999
 43
12120.37968124276
 44
1746.561214534579
 45
10.95203652759968
 46
0.0000881814618674
 79
     2
 49
4.636287175181984
 49
-2957.102061108969
 53
25.04599999999999
 43
12120.37968124276
 44
1709.684115932504
 45
10.95203652759968
 46
0.0000881814618674
 79
     2
 49
4.636287175181984
 49
-2957.102061108969
 53
25.04599999999999
 43
12120.37968124276
 44
1672.807017330428
 45
10.95203652759968
 46
0.0000881814618674
 79
     2
 49
4.636287175181984
 49
-2957.102061108969
 53
25.04599999999999
 43
12120.37968124276
 44
1635.92991872836
 45
10.95203652759968
 46
0.0000881814618674
 79
     2
 49
4.636287175181984
 49
-2957.102061108969
 53
25.04599999999999
 43
12120.37968124276
 44
1599.052820126285
 45
10.95203652759968
 46
0.0000881814618674
 79
     2
 49
4.636287175181984
 49
-2957.102061108969
 53
25.04599999999999
 43
12120.37968124276
 44
1562.175721524217
 45
10.95203652759968
 46
0.0000881814618674
 79
     2
 49
4.636287175181984
 49
-2957.102061108969
 53
25.04599999999999
 43
12120.37968124276
 44
1525.298622922148
 45
10.95203652759968
 46
0.0000881814618674
 79
     2
 49
4.636287175181984
 49
-2957.102061108969
 53
25.04599999999999
 43
12120.37968124276
 44
1488.421524320073
 45
10.95203652759968
 46
0.0000881814618674
 79
     2
 49
4.636287175181984
 49
-2957.102061108969
 53
25.04599999999999
 43
12120.37968124276
 44
1451.544425717998
 45
10.95203652759968
 46
0.0000881814618674
 79
     2
 49
4.636287175181984
 49
-2957.102061108969
 53
25.04599999999999
 43
12120.37968124276
 44
1414.66732711593
 45
10.95203652759968
 46
0.0000881814618674
 79
     2
 49
4.636287175181984
 49
-2957.102061108969
 53
25.04599999999999
 43
12120.37968124276
 44
1377.790228513854
 45
10.95203652759968
 46
0.0000881814618674
 79
     2
 49
4.636287175181984
 49
-2957.102061108969
 53
25.04599999999999
 43
12120.37968124276
 44
1340.913129911786
 45
10.95203652759968
 46
0.0000881814618674
 79
     2
 49
4.636287175181984
 49
-2957.102061108969
 53
25.04599999999999
 43
12120.37968124276
 44
1304.036031309718
 45
10.95203652759968
 46
0.0000881814618674
 79
     2
 49
4.636287175181984
 49
-2957.102061108969
 53
25.04599999999999
 43
12120.37968124276
 44
1267.158932707643
 45
10.95203652759968
 46
0.0000881814618674
 79
     2
 49
4.636287175181984
 49
-2957.102061108969
 53
25.04599999999999
 43
12120.37968124276
 44
1230.281834105574
 45
10.95203652759968
 46
0.0000881814618674
 79
     2
 49
4.636287175181984
 49
-2957.102061108969
 53
25.04599999999999
 43
12120.37968124276
 44
1193.404735503499
 45
10.95203652759968
 46
0.0000881814618674
 79
     2
 49
4.636287175181984
 49
-2957.102061108969
 53
25.04599999999999
 43
12120.37968124276
 44
1156.527636901423
 45
10.95203652759968
 46
0.0000881814618674
 79
     2
 49
4.636287175181984
 49
-2957.102061108969
 53
25.04599999999999
 43
12120.37968124276
 44
1119.650538299355
 45
10.95203652759968
 46
0.0000881814618674
 79
     2
 49
4.636287175181984
 49
-2957.102061108969
 53
25.04599999999999
 43
12120.37968124276
 44
1082.773439697287
 45
10.95203652759968
 46
0.0000881814618674
 79
     2
 49
4.636287175181984
 49
-2957.102061108969
 53
25.04599999999999
 43
12120.37968124276
 44
1045.896341095212
 45
10.95203652759968
 46
0.0000881814618674
 79
     2
 49
4.636287175181984
 49
-2957.102061108969
 53
25.04599999999999
 43
12120.37968124276
 44
1009.019242493144
 45
10.95203652759968
 46
0.0000881814618674
 79
     2
 49
4.636287175181984
 49
-2957.102061108969
 53
25.04599999999999
 43
12120.37968124276
 44
972.1421438910683
 45
10.95203652759968
 46
0.0000881814618674
 79
     2
 49
4.636287175181984
 49
-2957.102061108969
 53
25.04599999999999
 43
12120.37968124276
 44
935.2650452890001
 45
10.95203652759968
 46
0.0000881814618674
 79
     2
 49
4.636287175181984
 49
-2957.102061108969
 53
25.04599999999999
 43
12120.37968124276
 44
898.3879466869321
 45
10.95203652759968
 46
0.0000881814618674
 79
     2
 49
4.636287175181984
 49
-2957.102061108969
 53
25.04599999999999
 43
12120.37968124276
 44
861.5108480848567
 45
10.95203652759968
 46
0.0000881814618674
 79
     2
 49
4.636287175181984
 49
-2957.102061108969
 53
25.04599999999999
 43
12120.37968124276
 44
824.6337494827812
 45
10.95203652759968
 46
0.0000881814618674
 79
     2
 49
4.636287175181984
 49
-2957.102061108969
 53
25.04599999999999
 43
12120.37968124276
 44
787.7566508807131
 45
10.95203652759968
 46
0.0000881814618674
 79
     2
 49
4.636287175181984
 49
-2957.102061108969
 53
25.04599999999999
 43
12120.37968124276
 44
750.8795522786413
 45
10.95203652759968
 46
0.0000881814618674
 79
     2
 49
4.636287175181984
 49
-2957.102061108969
 53
25.04599999999999
 43
12120.37968124276
 44
714.0024536765695
 45
10.95203652759968
 46
0.0000881814618674
 79
     2
 49
4.636287175181984
 49
-2957.102061108969
 53
25.04599999999999
 43
12120.37968124276
 44
677.125355074494
 45
10.95203652759968
 46
0.0000881814618674
 79
     2
 49
4.636287175181984
 49
-2957.102061108969
 53
25.04599999999999
 43
12120.37968124276
 44
640.2482564724259
 45
10.95203652759968
 46
0.0000881814618674
 79
     2
 49
4.636287175181984
 49
-2957.102061108969
 53
25.04599999999999
 43
12120.37968124276
 44
603.3711578703542
 45
10.95203652759968
 46
0.0000881814618674
 79
     2
 49
4.636287175181984
 49
-2957.102061108969
 53
25.04599999999999
 43
12120.37968124276
 44
566.4940592682824
 45
10.95203652759968
 46
0.0000881814618674
 79
     2
 49
4.636287175181984
 49
-2957.102061108969
 53
25.04599999999999
 43
12120.37968124276
 44
529.6169606662106
 45
10.95203652759968
 46
0.0000881814618674
 79
     2
 49
4.636287175181984
 49
-2957.102061108969
 53
14.07599999999998
 43
12123.27175704724
 44
1778.692869749603
 45
10.95202660951167
 46
-0.0000805056871684
 79
     2
 49
2.663936043727242
 49
-1058.697838380728
 53
14.07599999999998
 43
12123.27175704724
 44
1741.815705588247
 45
10.95202660951167
 46
-0.0000805056871684
 79
     2
 49
2.663936043727242
 49
-1058.697838380728
 53
14.07599999999998
 43
12123.27175704724
 44
1704.938606986171
 45
10.95202660951167
 46
-0.0000805056871684
 79
     2
 49
2.663936043727242
 49
-1058.697838380728
 53
14.07599999999998
 43
12123.27175704724
 44
1668.061508384103
 45
10.95202660951167
 46
-0.0000805056871684
 79
     2
 49
2.663936043727242
 49
-1058.697838380728
 53
14.07599999999998
 43
12123.27175704724
 44
1631.184409782028
 45
10.95202660951167
 46
-0.0000805056871684
 79
     2
 49
2.663936043727242
 49
-1058.697838380728
 53
14.07599999999998
 43
12123.27175704724
 44
1594.307311179952
 45
10.95202660951167
 46
-0.0000805056871684
 79
     2
 49
2.663936043727242
 49
-1058.697838380728
 53
14.07599999999998
 43
12123.27175704724
 44
1557.430212577884
 45
10.95202660951167
 46
-0.0000805056871684
 79
     2
 49
2.663936043727242
 49
-1058.697838380728
 98
        1
 10
1645.114211261901
 20
615.8282513468939
  0
POLYLINE
  5
9144
330
67
100
AcDbEntity
  8
F_31 Ansichtsfenster
370
    13
100
AcDb2dPolyline
 66
     1
 10
0.0
 20
0.0
 30
0.0
  0
VERTEX
  5
9145
330
9144
100
AcDbEntity
  8
F_31 Ansichtsfenster
370
    13
100
AcDbVertex
100
AcDb2dVertex
 10
712.4795317953503
 20
285.1102093712679
 30
0.0
  0
VERTEX
  5
9146
330
9144
100
AcDbEntity
  8
F_31 Ansichtsfenster
370
    13
100
AcDbVertex
100
AcDb2dVertex
 10
712.479531795343
 20
635.610173105254
 30
0.0
  0
SEQEND
  5
9147
330
9144
100
AcDbEntity
  8
F_31 Ansichtsfenster
370
    13
  0
HATCH
  5
9148
330
67
100
AcDbEntity
  8
F_29 Bemassung M
370
    13
100
AcDbHatch
 10
0.0
 20
0.0
 30
0.0
210
0.0
220
0.0
230
1.0
  2
SOLID
 70
     1
 71
     0
 91
        1
 92
        1
 93
        4
 72
     1
 10
493.1371870691837
 20
284.6101747346138
 11
493.1371870691837
 21
287.6101747346138
 72
     1
 10
493.1371870691837
 20
287.6101747346138
 11
463.1371870691837
 21
287.6101747346138
 72
     1
 10
463.1371870691837
 20
287.6101747346138
 11
463.1371870691837
 21
284.6101747346138
 72
     1
 10
463.1371870691837
 20
284.6101747346138
 11
493.1371870691837
 21
284.6101747346138
 97
        0
 75
     0
 76
     1
 98
        1
 10
-34261.62647242672
 20
-14108.43822112969
450
        0
451
        0
460
0.0
461
0.0
452
        1
462
1.0
453
        2
463
0.0
 63
     5
421
      255
463
1.0
 63
     7
421
 16777215
470
LINEAR
1001
ACAD
1010
0.0
1020
0.0
1030
0.0
  0
LWPOLYLINE
  5
9149
330
67
100
AcDbEntity
  8
F_01 sichtbar
370
    13
100
AcDbPolyline
 90
        4
 70
     1
 43
0.0
 10
493.1371870691837
 20
284.6101747346138
 10
493.1371870691837
 20
287.6101747346138
 10
463.1371870691837
 20
287.6101747346138
 10
463.1371870691837
 20
284.6101747346138
  0
MTEXT
  5
914A
330
67
100
AcDbEntity
  8
F_01 sichtbar
370
    13
100
AcDbMText
 10
448.2803887919398
 20
232.5898170272221
 30
0.0
 40
15.0
 41
187.1747820159653
 71
     1
 72
     5
  1
\A1;{\fArial Narrow|b0|i0|c0|p34;Metall-Flachrahmen\P30/3 mm}
 73
     1
 44
1.0
  0
LINE
  5
914B
330
67
100
AcDbEntity
  8
F_01 sichtbar
370
    13
100
AcDbLine
 10
478.1371870691836
 20
269.6101747346138
 30
0.0
 11
478.1371870691836
 21
236.287279552761
 31
0.0
  0
SOLID
  5
914C
330
67
100
AcDbEntity
  8
F_01 sichtbar
370
    13
100
AcDbTrace
 10
475.6371870691837
 20
269.6101747346138
 30
0.0
 11
480.6371870691837
 21
269.6101747346138
 31
0.0
 12
478.1371870691836
 22
284.6101747346138
 32
0.0
 13
478.1371870691836
 23
284.6101747346138
 33
0.0
  0
LINE
  5
914D
330
67
100
AcDbEntity
  8
F_01 sichtbar
370
    13
100
AcDbLine
 10
425.9085886033171
 20
608.110173105254
 30
0.0
 11
425.9085886033171
 21
295.1101729475513
 31
0.0
  0
SOLID
  5
914E
330
67
100
AcDbEntity
  8
F_01 sichtbar
370
    13
100
AcDbTrace
 10
423.4085886033171
 20
302.6101729475513
 30
0.0
 11
428.4085886033172
 21
302.6101729475513
 31
0.0
 12
425.9085886033171
 22
287.6101729475513
 32
0.0
 13
425.9085886033171
 23
287.6101729475513
 33
0.0
  0
SOLID
  5
914F
330
67
100
AcDbEntity
  8
F_01 sichtbar
370
    13
100
AcDbTrace
 10
423.4085886033171
 20
600.610173105254
 30
0.0
 11
428.4085886033172
 21
600.610173105254
 31
0.0
 12
425.9085886033171
 22
615.610173105254
 32
0.0
 13
425.9085886033171
 23
615.610173105254
 33
0.0
  0
TEXT
  5
9150
330
67
100
AcDbEntity
  8
F_01 sichtbar
370
    13
100
AcDbText
 10
420.9085886033172
 20
212.3431600504218
 30
0.0
 40
15.0
  1
RH
 50
90.0
  7
Arial
100
AcDbText
  0
LINE
  5
9151
330
67
100
AcDbEntity
  8
F_01 sichtbar
370
    13
100
AcDbLine
 10
376.8201063360066
 20
608.110173105254
 30
0.0
 11
376.8201063360066
 21
93.52215668172993
 31
0.0
  0
SOLID
  5
9152
330
67
100
AcDbEntity
  8
F_01 sichtbar
370
    13
100
AcDbTrace
 10
374.3201063360066
 20
600.610173105254
 30
0.0
 11
379.3201063360066
 21
600.610173105254
 31
0.0
 12
376.8201063360066
 22
615.610173105254
 32
0.0
 13
376.8201063360066
 23
615.610173105254
 33
0.0
  0
LINE
  5
9153
330
67
100
AcDbEntity
  8
F_01 sichtbar
370
    13
100
AcDbLine
 10
425.9085886033171
 20
280.1101729475513
 30
0.0
 11
425.9085886033171
 21
93.52215668172993
 31
0.0
  0
TEXT
  5
9154
330
67
100
AcDbEntity
  8
F_01 sichtbar
370
    13
100
AcDbText
 10
371.4364092009455
 20
218.3258524172879
 30
0.0
 40
15.0
  1
C
 50
90.0
  7
Arial
100
AcDbText
  0
SOLID
  5
9155
330
67
100
AcDbEntity
  8
F_01 sichtbar
370
    13
100
AcDbTrace
 10
423.4085886033171
 20
272.6101729475513
 30
0.0
 11
428.4085886033172
 21
272.6101729475513
 31
0.0
 12
425.9085886033171
 22
287.6101729475513
 32
0.0
 13
425.9085886033171
 23
287.6101729475513
 33
0.0
  0
TEXT
  5
9156
330
67
100
AcDbEntity
  8
F_01 sichtbar
370
    13
100
AcDbText
 10
420.9085886033172
 20
448.7929833159023
 30
0.0
 40
15.0
  1
D
 50
90.0
  7
Arial
100
AcDbText
  0
HATCH
  5
9157
330
67
100
AcDbEntity
  8
F_01 sichtbar
370
    13
100
AcDbHatch
 10
0.0
 20
0.0
 30
0.0
210
0.0
220
0.0
230
1.0
  2
HEX
 70
     0
 71
     0
 91
        1
 92
        7
 72
     0
 73
     1
 93
        4
 10
476.1371871527553
 20
615.6101731051994
 10
314.1935345889178
 20
615.6101731051994
 10
314.1935345889178
 20
525.6101731051995
 10
476.137187152748
 20
525.6101731051995
 97
        0
 75
     0
 76
     1
 52
0.0
 41
2.0
 77
     0
 78
     3
 53
0.0
 43
-34261.62647242672
 44
-14108.43822112969
 45
0.0
 46
10.99852
 79
     2
 49
6.349999999999999
 49
-12.7
 53
120.0
 43
-34261.62647242672
 44
-14108.43822112969
 45
-9.524997724031223
 46
-5.499259999999996
 79
     2
 49
6.349999999999993
 49
-12.69999999999998
 53
60.0
 43
-34255.27647242673
 44
-14108.43822112969
 45
-9.524997724031223
 46
5.49926
 79
     2
 49
6.349999999999999
 49
-12.7
 47
0.536036505142345
 98
        1
 10
398.3892678073571
 20
570.0291976331527
1001
ACAD
1010
0.0
1020
0.0
1030
0.0
  0
HATCH
  5
9158
330
67
100
AcDbEntity
  8
F_01 sichtbar
370
    13
100
AcDbHatch
 10
0.0
 20
0.0
 30
0.0
210
0.0
220
0.0
230
1.0
  2
CROSS
 70
     0
 71
     0
 91
        2
 92
        1
 93
        5
 72
     1
 10
476.1371871527408
 20
299.6101729475513
 11
376.8201063360066
 21
299.6101729475513
 72
     1
 10
376.8201063360066
 20
299.6101729475513
 11
376.8201063360066
 21
287.6101729475495
 72
     1
 10
376.8201063360066
 20
287.6101729475513
 11
438.1371688456092
 21
287.6101742090059
 72
     1
 10
438.1371688456092
 20
287.6101742090059
 11
476.1371871527408
 21
287.6101742090059
 72
     1
 10
476.1371871527408
 20
287.6101742090059
 11
476.1371871527408
 21
299.6101729475531
 97
        0
 92
        1
 93
        4
 72
     1
 10
376.8201063360066
 20
299.6101729475513
 11
314.1935345889178
 21
299.6101729475513
 72
     1
 10
314.1935345889178
 20
299.6101729475513
 11
314.1935345889178
 21
287.6101729475495
 72
     1
 10
314.1935345889178
 20
287.6101729475513
 11
376.8201063360066
 21
287.6101729475513
 72
     1
 10
376.8201063360066
 20
287.6101729475513
 11
376.8201063360066
 21
299.6101729475531
 97
        0
 75
     0
 76
     1
 52
0.0
 41
1.0
 77
     0
 78
     2
 53
0.0
 43
-33363.34047522029
 44
-14111.4382211297
 45
6.349999999999999
 46
6.349999999999999
 79
     2
 49
3.174999999999999
 49
-9.525
 53
90.0
 43
-33361.7529752203
 44
-14113.02572112969
 45
-6.349999999999999
 46
6.349999999999999
 79
     2
 49
3.174999999999999
 49
-9.525
 98
        2
 10
390.769232375027
 20
289.6291756233504
 10
362.8999448917566
 20
289.0032256211843
1001
ACAD
1010
0.0
1020
0.0
1030
0.0
  0
POLYLINE
  5
9159
330
67
100
AcDbEntity
  8
F_01 sichtbar
370
    13
100
AcDb2dPolyline
 66
     1
 10
0.0
 20
0.0
 30
0.0
  0
VERTEX
  5
915A
330
9159
100
AcDbEntity
  8
F_01 sichtbar
370
    13
100
AcDbVertex
100
AcDb2dVertex
 10
521.1371541689405
 20
615.610173105254
 30
0.0
  0
VERTEX
  5
915B
330
9159
100
AcDbEntity
  8
F_01 sichtbar
370
    13
100
AcDbVertex
100
AcDb2dVertex
 10
712.4795317953503
 20
615.6101731052467
 30
0.0
  0
SEQEND
  5
915C
330
9159
100
AcDbEntity
  8
F_01 sichtbar
370
    13
  0
LWPOLYLINE
  5
915D
330
67
100
AcDbEntity
  8
F_01 sichtbar
370
    13
100
AcDbPolyline
 90
        6
 70
     1
 43
0.0
 10
521.1371541689405
 20
615.610173105254
 10
521.1371541689405
 20
634.610173105254
 10
520.1371541689404
 20
635.610173105254
 10
462.1371541689405
 20
635.610173105254
 10
461.1371541689404
 20
634.610173105254
 10
461.1371541689404
 20
615.610173105254
  0
LINE
  5
915E
330
67
100
AcDbEntity
  8
F_01 sichtbar
370
    13
100
AcDbLine
 10
520.1371541689404
 20
635.610173105254
 30
0.0
 11
712.479531795343
 21
635.610173105254
 31
0.0
  0
LWPOLYLINE
  5
915F
330
67
100
AcDbEntity
  8
F_01 sichtbar
370
    13
100
AcDbPolyline
 90
        2
 70
     0
 43
0.0
 10
462.1371541689405
 20
635.610173105254
 10
521.1371541689405
 20
615.610173105254
  0
LWPOLYLINE
  5
9160
330
67
100
AcDbEntity
  8
F_01 sichtbar
370
    13
100
AcDbPolyline
 90
        2
 70
     0
 43
0.0
 10
520.1371541689404
 20
635.610173105254
 10
461.1371541689404
 20
615.610173105254
  0
HATCH
  5
9161
330
67
100
AcDbEntity
  8
F_01 sichtbar
370
    13
100
AcDbHatch
 10
0.0
 20
0.0
 30
0.0
210
0.0
220
0.0
230
1.0
  2
JIS_WOOD
 70
     0
 71
     0
 91
        1
 92
        1
 93
       24
 72
     1
 10
521.1371870691837
 20
405.6101747346137
 11
510.1371804852788
 21
405.6101747346137
 72
     1
 10
510.1371804852788
 20
405.6101747346137
 11
510.1371804852788
 21
394.6101747346138
 72
     1
 10
510.1371804852788
 20
394.6101747346138
 11
506.1371804852788
 21
394.6101747346138
 72
     1
 10
506.1371804852788
 20
394.6101747346138
 11
506.1371804852788
 21
405.6101747346137
 72
     1
 10
506.1371804852788
 20
405.6101747346137
 11
496.1371804852787
 21
405.6101747346137
 72
     1
 10
496.1371804852787
 20
405.6101747346137
 11
496.1371804852787
 21
425.6101747346137
 72
     1
 10
496.1371804852787
 20
425.6101747346137
 11
481.1371870691837
 21
425.6101747346137
 72
     1
 10
481.1371870691837
 20
425.6101747346137
 11
481.1371871973205
 21
287.6101747346138
 72
     1
 10
481.1371871973205
 20
287.6101747346138
 11
493.1371870691837
 21
287.6101747346138
 72
     1
 10
493.1371870691837
 20
287.6101747346138
 11
493.1371870691837
 21
297.6101747346138
 72
     1
 10
493.1371870691837
 20
297.6101747346138
 11
506.1371870691837
 21
297.6101747346138
 72
     1
 10
506.1371870691837
 20
297.6101747346138
 11
507.1371870691836
 21
298.6101747346138
 72
     1
 10
507.1371870691836
 20
298.6101747346138
 11
507.1371870691836
 21
302.1101747346138
 72
     1
 10
507.1371870691836
 20
302.1101747346138
 11
504.6371870691837
 21
302.1101747346138
 72
     1
 10
504.6371870691837
 20
302.1101747346138
 11
504.6371870691837
 21
327.1101747346138
 72
     1
 10
504.6371870691837
 20
327.1101747346138
 11
507.1371870691836
 21
327.1101747346138
 72
     1
 10
507.1371870691836
 20
327.1101747346138
 11
507.1371870691836
 21
327.6101747346138
 72
     1
 10
507.1371870691836
 20
327.6101747346138
 11
512.1371870691837
 21
327.6101747346138
 72
     1
 10
512.1371870691837
 20
327.6101747346138
 11
512.1371870691837
 21
335.6101747346138
 72
     1
 10
512.1371870691837
 20
335.6101747346138
 11
516.1371870691836
 21
335.6101747346138
 72
     1
 10
516.1371870691836
 20
335.6101747346138
 11
516.1371870691836
 21
327.6101747346138
 72
     1
 10
516.1371870691836
 20
327.6101747346138
 11
520.1371870691836
 21
327.6101747346138
 72
     1
 10
520.1371870691836
 20
327.6101747346138
 11
521.1371870691837
 21
328.6101747346138
 72
     1
 10
521.1371870691837
 20
328.6101747346138
 11
521.1371870691837
 21
405.6101747346137
 97
        0
 75
     0
 76
     1
 52
0.0
 41
15.0
 77
     0
 78
     1
 53
45.0
 43
-33363.34044890395
 44
-15532.44668241396
 45
-7.499999987414763
 46
7.499999987414764
 79
     0
 98
        1
 10
503.9167831869745
 20
379.1143446715605
1001
ACAD
1010
0.0
1020
0.0
1030
0.0
  0
LWPOLYLINE
  5
9162
330
67
100
AcDbEntity
  8
F_01 sichtbar
370
    13
100
AcDbPolyline
 90
       25
 70
     0
 43
0.0
 10
521.1371804852787
 20
405.6101747346137
 10
510.1371804852788
 20
405.6101747346137
 10
510.1371804852788
 20
394.6101747346138
 10
506.1371804852788
 20
394.6101747346138
 10
506.1371804852788
 20
405.6101747346137
 10
496.1371804852787
 20
405.6101747346137
 10
496.1371804852787
 20
425.6101747346137
 10
481.1371870691837
 20
425.6101747346137
 10
481.1371871973205
 20
287.6101747346138
 10
493.1371870691837
 20
287.6101747346138
 10
493.1371870691837
 20
297.6101747346138
 10
506.1371870691837
 20
297.6101747346138
 10
507.1371870691836
 20
298.6101747346138
 10
507.1371870691836
 20
302.1101747346138
 10
504.6371870691837
 20
302.1101747346138
 10
504.6371870691837
 20
327.1101747346138
 10
507.1371870691836
 20
327.1101747346138
 10
507.1371870691836
 20
327.6101747346138
 10
512.1371870691837
 20
327.6101747346138
 10
512.1371870691837
 20
335.6101747346138
 10
516.1371870691836
 20
335.6101747346138
 10
516.1371870691836
 20
327.6101747346138
 10
520.1371870691836
 20
327.6101747346138
 10
521.1371870691837
 20
328.6101747346138
 10
521.1371870691837
 20
405.6101747346137
  0
HATCH
  5
9163
330
67
100
AcDbEntity
  8
F_01 sichtbar
370
    13
100
AcDbHatch
 10
0.0
 20
0.0
 30
0.0
210
0.0
220
0.0
230
1.0
  2
JIS_WOOD
 70
     0
 71
     0
 91
        1
 92
        7
 72
     1
 73
     1
 93
       21
 10
535.6371870691909
 20
323.6101747346138
 42
0.0
 10
516.6371963642705
 20
323.6101747346138
 42
0.0
 10
516.4553948553985
 20
323.4283731875212
 42
0.0
 10
517.8012846468082
 20
322.0824836790771
 42
-2.295511712501344
 10
517.1542340682536
 20
321.7395847319995
 42
0.0
 10
515.5061307909672
 20
323.3876876627828
 42
0.4142135623731789
 10
515.3647094347288
 20
323.387687647918
 42
0.0
 10
514.9871968478292
 20
323.0101749816486
 42
0.0
 10
514.1371968478233
 20
323.0101748922925
 42
0.0
 10
513.2871968478321
 20
323.0101748029401
 42
0.0
 10
512.8349146031505
 20
323.4624569525322
 42
-0.8501016268507999
 10
511.8501139377949
 20
323.3972575212129
 42
0.0
 10
511.6371966796323
 20
323.6101747346138
 42
0.0
 10
509.637187069191
 20
323.6101747346138
 42
0.0
 10
508.637187069191
 20
322.6101747346138
 42
0.0
 10
508.637187069191
 20
297.6101747346138
 42
0.0
 10
496.637187069191
 20
297.6101747346138
 42
0.0
 10
495.6371870691909
 20
296.6101747346138
 42
0.0
 10
495.6371870691909
 20
285.6101747346138
 42
0.0
 10
496.637187069191
 20
284.6101747346138
 42
0.0
 10
535.6371870691909
 20
284.6101747346138
 42
0.0
 97
        0
 75
     0
 76
     1
 52
0.0
 41
15.0
 77
     0
 78
     1
 53
45.0
 43
-33363.34044890395
 44
-15532.44668241396
 45
-7.499999987414763
 46
7.499999987414764
 79
     0
 47
0.316875376217985
 98
        1
 10
519.119505048573
 20
296.9699416772519
1001
ACAD
1010
0.0
1020
0.0
1030
0.0
  0
POLYLINE
  5
9164
330
67
100
AcDbEntity
  8
F_01 sichtbar
370
    13
100
AcDb2dPolyline
 66
     1
 10
0.0
 20
0.0
 30
0.0
  0
VERTEX
  5
9165
330
9164
100
AcDbEntity
  8
F_01 sichtbar
370
    13
100
AcDbVertex
100
AcDb2dVertex
 10
712.4795581116886
 20
284.6101747346138
 30
0.0
  0
VERTEX
  5
9166
330
9164
100
AcDbEntity
  8
F_01 sichtbar
370
    13
100
AcDbVertex
100
AcDb2dVertex
 10
496.637187069191
 20
284.6101747346138
 30
0.0
  0
VERTEX
  5
9167
330
9164
100
AcDbEntity
  8
F_01 sichtbar
370
    13
100
AcDbVertex
100
AcDb2dVertex
 10
495.6371870691909
 20
285.6101747346138
 30
0.0
  0
VERTEX
  5
9168
330
9164
100
AcDbEntity
  8
F_01 sichtbar
370
    13
100
AcDbVertex
100
AcDb2dVertex
 10
495.6371870691909
 20
296.6101747346138
 30
0.0
  0
VERTEX
  5
9169
330
9164
100
AcDbEntity
  8
F_01 sichtbar
370
    13
100
AcDbVertex
100
AcDb2dVertex
 10
496.637187069191
 20
297.6101747346138
 30
0.0
  0
VERTEX
  5
916A
330
9164
100
AcDbEntity
  8
F_01 sichtbar
370
    13
100
AcDbVertex
100
AcDb2dVertex
 10
508.637187069191
 20
297.6101747346138
 30
0.0
  0
VERTEX
  5
916B
330
9164
100
AcDbEntity
  8
F_01 sichtbar
370
    13
100
AcDbVertex
100
AcDb2dVertex
 10
508.637187069191
 20
322.6101747346138
 30
0.0
  0
VERTEX
  5
916C
330
9164
100
AcDbEntity
  8
F_01 sichtbar
370
    13
100
AcDbVertex
100
AcDb2dVertex
 10
509.637187069191
 20
323.6101747346138
 30
0.0
  0
VERTEX
  5
916D
330
9164
100
AcDbEntity
  8
F_01 sichtbar
370
    13
100
AcDbVertex
100
AcDb2dVertex
 10
712.4795581116959
 20
323.6101747346138
 30
0.0
  0
SEQEND
  5
916E
330
9164
100
AcDbEntity
  8
F_01 sichtbar
370
    13
  0
POLYLINE
  5
916F
330
67
100
AcDbEntity
  8
F_01 sichtbar
370
    13
100
AcDb2dPolyline
 66
     1
 10
0.0
 20
0.0
 30
0.0
 70
     1
  0
VERTEX
  5
9170
330
916F
100
AcDbEntity
  8
F_01 sichtbar
370
    13
100
AcDbVertex
100
AcDb2dVertex
 10
496.1372068016171
 20
615.6102507384594
 30
0.0
  0
VERTEX
  5
9171
330
916F
100
AcDbEntity
  8
F_01 sichtbar
370
    13
100
AcDbVertex
100
AcDb2dVertex
 10
496.1371804852787
 20
405.6101747346137
 30
0.0
  0
VERTEX
  5
9172
330
916F
100
AcDbEntity
  8
F_01 sichtbar
370
    13
100
AcDbVertex
100
AcDb2dVertex
 10
506.1371804852788
 20
405.6101747346137
 30
0.0
  0
VERTEX
  5
9173
330
916F
100
AcDbEntity
  8
F_01 sichtbar
370
    13
100
AcDbVertex
100
AcDb2dVertex
 10
506.1371804852788
 20
416.6101747346138
 30
0.0
  0
VERTEX
  5
9174
330
916F
100
AcDbEntity
  8
F_01 sichtbar
370
    13
100
AcDbVertex
100
AcDb2dVertex
 10
510.1371804852788
 20
416.6101747346138
 30
0.0
  0
VERTEX
  5
9175
330
916F
100
AcDbEntity
  8
F_01 sichtbar
370
    13
100
AcDbVertex
100
AcDb2dVertex
 10
510.1371804852788
 20
405.6101747346137
 30
0.0
  0
VERTEX
  5
9176
330
916F
100
AcDbEntity
  8
F_01 sichtbar
370
    13
100
AcDbVertex
100
AcDb2dVertex
 10
521.1371804852787
 20
405.6101747346137
 30
0.0
  0
VERTEX
  5
9177
330
916F
100
AcDbEntity
  8
F_01 sichtbar
370
    13
100
AcDbVertex
100
AcDb2dVertex
 10
521.1372068016171
 20
615.6102507384594
 30
0.0
  0
SEQEND
  5
9178
330
916F
100
AcDbEntity
  8
F_01 sichtbar
370
    13
  0
LWPOLYLINE
  5
9179
330
67
100
AcDbEntity
  8
F_01 sichtbar
370
    13
100
AcDbPolyline
 90
        5
 70
     0
 43
0.0
 10
504.6371870691837
 20
327.1101747346138
 10
507.1371870691836
 20
327.1101747346138
 10
507.1371870691836
 20
302.1101747346138
 10
504.6371870691837
 20
302.1101747346138
 10
504.6371870691837
 20
327.1101747346138
  0
LWPOLYLINE
  5
917A
330
67
100
AcDbEntity
  8
F_01 sichtbar
370
    13
100
AcDbPolyline
 90
       59
 70
     1
 43
0.0
 10
516.4553948553985
 20
323.4283731875212
 10
517.8012846468082
 20
322.0824836790771
 42
-2.295511712501342
 10
517.1542340682536
 20
321.7395847319995
 10
515.5061307909672
 20
323.3876876627828
 42
0.4142135623730925
 10
515.3647094347288
 20
323.387687647918
 10
514.9871968478292
 20
323.0101749816486
 10
514.1371968478233
 20
323.0101748922925
 10
513.2871968478321
 20
323.0101748029401
 10
512.8349146031505
 20
323.4624569525322
 42
-0.8501016268507996
 10
511.8501139377949
 20
323.3972575212129
 10
508.6371964693862
 20
326.6101743141253
 10
508.6371963117089
 20
328.1101743141253
 10
509.0639730518705
 20
327.6833976636944
 42
0.198912367379658
 10
509.2407497548593
 20
327.6101743775716
 10
512.1041836623808
 20
327.6101746785816
 42
0.1316524975873961
 10
512.2291836588592
 20
327.6436683407764
 10
512.9121963192919
 20
328.0380059798726
 42
0.2679491924311224
 10
513.0371962965328
 20
328.2545123439586
 10
513.0371960751836
 20
330.3601747766616
 42
0.4142135623730951
 10
512.7871960489028
 20
330.6101747503808
 10
511.7871960489028
 20
330.6101746452577
 42
-0.5773502691896217
 10
511.5706896585361
 20
330.9851746224986
 10
511.8160634782725
 20
331.4101746482947
 10
512.7871959648073
 20
331.4101747503801
 42
0.4142135623730951
 10
513.0371959385265
 20
331.6601747766608
 10
513.0371957598217
 20
333.3601747766615
 42
0.4142135623730951
 10
512.7871957335482
 20
333.6101747503808
 10
511.7871957335482
 20
333.6101746452578
 42
-0.577350269189623
 10
511.5706893431815
 20
333.9851746224986
 10
511.8160631629034
 20
334.4101746482948
 10
512.7871956494455
 20
334.4101747503801
 42
0.4142135623730951
 10
513.0371956231647
 20
334.6601747766608
 10
513.0371956021445
 20
334.8601747766616
 42
-0.4142135623730951
 10
513.2871955758637
 20
335.1101748029423
 10
514.1371955758622
 20
335.1101748922947
 10
514.9871955758608
 20
335.1101749816471
 42
-0.4142135623730951
 10
515.2371956021416
 20
334.8601750079279
 10
515.237195623169
 20
334.6601750079271
 42
0.4142135623730951
 10
515.4871956494498
 20
334.4101750342079
 10
516.4583281359846
 20
334.4101751362932
 10
516.7037020450698
 20
333.9851751620872
 42
-0.5773502691896199
 10
516.4871957335454
 20
333.610175139328
 10
515.4871957335453
 20
333.6101750342086
 42
0.4142135623730951
 10
515.2371957598261
 20
333.3601750079278
 10
515.2371959385236
 20
331.6601750079271
 42
0.4142135623730951
 10
515.4871959648044
 20
331.4101750342079
 10
516.4583284513537
 20
331.4101751362932
 10
516.7037023604316
 20
330.9851751620872
 42
-0.5773502691896196
 10
516.4871960489072
 20
330.610175139328
 10
515.4871960489072
 20
330.6101750342086
 42
0.4142135623730951
 10
515.2371960751879
 20
330.3601750079279
 10
515.2371962965371
 20
328.2545125752249
 42
0.2679491924311216
 10
515.3621963192963
 20
328.0380062374197
 10
516.0452090626385
 20
327.6436687419218
 42
0.1316524975873966
 10
516.1702090661601
 20
327.6101751060078
 10
519.0336429736817
 20
327.6101754070142
 42
0.198912367379658
 10
519.2104196612818
 20
327.6833987303025
 10
519.637196311709
 20
328.1101754704605
 10
519.6371964693862
 20
326.6101754704605
  0
LWPOLYLINE
  5
917B
330
67
100
AcDbEntity
  8
F_01 sichtbar
370
    13
100
AcDbPolyline
 90
       28
 70
     1
 43
0.0
 10
517.9022722288973
 20
326.610175288085
 10
514.7746986836464
 20
326.6101749593099
 42
0.3394542588633794
 10
514.6781061088149
 20
326.5360568536662
 10
514.637441134695
 20
326.3842930403689
 42
-0.3394542588633798
 10
514.5408485598636
 20
326.3101749347252
 10
514.4943139574571
 20
326.3101749298357
 42
-0.3394542588633751
 10
514.3977213670332
 20
326.3842930151723
 10
514.3570563610155
 20
326.5360568199167
 42
0.3394542588633729
 10
514.260463770599
 20
326.6101749052532
 10
514.1371964693935
 20
326.6101748922947
 10
514.013929168188
 20
326.6101748793362
 42
0.3394542588633786
 10
513.9173365933565
 20
326.5360567736925
 10
513.8766716192367
 20
326.3842929603989
 42
-0.3394542588633769
 10
513.7800790444052
 20
326.3101748547551
 10
513.7335444419987
 20
326.3101748498621
 42
-0.3394542588633807
 10
513.6369518515748
 20
326.3842929351986
 10
513.5962868455571
 20
326.536056739943
 42
0.3394542588633759
 10
513.4996942551406
 20
326.6101748252795
 10
510.3721207098824
 20
326.6101744965045
 42
0.6681786379192993
 10
510.1953440594552
 20
326.1833977826236
 10
512.3696199655787
 20
324.009122333623
 42
-0.3679559611094144
 10
512.834914593117
 20
323.5578925582622
 10
513.2871967427091
 20
324.0101748029401
 10
514.1371967427075
 20
324.0101748922961
 10
514.9871967427061
 20
324.0101749816485
 10
515.3758006804891
 20
323.6215711255673
 42
0.4142135623730948
 10
515.5172220367275
 20
323.621571140432
 10
518.0790489690589
 20
326.1833986113698
 42
0.6681786379192982
  0
LINE
  5
917C
330
67
100
AcDbEntity
  8
F_01 sichtbar
370
    13
100
AcDbLine
 10
535.6371870691909
 20
323.6101747346138
 30
0.0
 11
535.6371870691909
 21
284.6101747346138
 31
0.0
  0
LINE
  5
917D
330
67
100
AcDbEntity
  8
F_01 sichtbar
370
    13
100
AcDbLine
 10
519.6371615280695
 20
615.6102507384558
 30
0.0
 11
519.6371352117312
 21
405.6101747346137
 31
0.0
  0
LINE
  5
917E
330
67
100
AcDbEntity
  8
F_01 sichtbar
370
    13
100
AcDbLine
 10
497.6371352117312
 20
405.6101747346101
 30
0.0
 11
497.6371615280696
 21
615.6102507384594
 31
0.0
  0
HATCH
  5
917F
330
67
100
AcDbEntity
  8
F_01 sichtbar
370
    13
100
AcDbHatch
 10
0.0
 20
0.0
 30
0.0
210
0.0
220
0.0
230
1.0
  2
JIS_WOOD
 70
     0
 71
     0
 91
        1
 92
        1
 93
        8
 72
     1
 10
497.6371380338277
 20
405.6101747346137
 11
506.1371804852788
 21
405.6101747346137
 72
     1
 10
506.1371804852788
 20
405.6101747346137
 11
506.1371804852788
 21
416.6101747346138
 72
     1
 10
506.1371804852788
 20
416.6101747346138
 11
510.1371804852788
 21
416.6101747346138
 72
     1
 10
510.1371804852788
 20
416.6101747346138
 11
510.1371804852788
 21
405.6101747346137
 72
     1
 10
510.1371804852788
 20
405.6101747346137
 11
519.6371217284868
 21
405.6101747346137
 72
     1
 10
519.6371217284868
 20
405.6101747346137
 11
519.6371615280622
 21
615.610173105254
 72
     1
 10
519.6371615280622
 20
615.610173105254
 11
497.6371615280696
 21
615.6102507384594
 72
     1
 10
497.6371615280696
 20
615.6102507384594
 11
497.6371380338277
 21
405.6101747346137
 97
        0
 75
     0
 76
     1
 52
315.0
 41
30.0
 77
     0
 78
     1
 53
0.0
 43
-23212.68378393491
 44
-14066.40617834401
 45
0.0000000000000071
 46
21.2132034
 79
     0
 98
        1
 10
-23212.68378393491
 20
-14066.40617834401
1001
ACAD
1010
0.0
1020
0.0
1030
0.0
  0
HATCH
  5
9180
330
67
100
AcDbEntity
  8
F_01 sichtbar
370
    13
100
AcDbHatch
 10
0.0
 20
0.0
 30
0.0
210
0.0
220
0.0
230
1.0
  2
JIS_WOOD
 70
     0
 71
     0
 91
        1
 92
        1
 93
        4
 72
     1
 10
712.4795581116813
 20
323.6101747346138
 11
535.6371870691909
 21
323.610174734612
 72
     1
 10
535.6371870691909
 20
323.6101747346138
 11
535.6371870691909
 21
284.6101747346138
 72
     1
 10
535.6371870691909
 20
284.6101747346138
 11
712.4795581116886
 21
284.6101747346156
 72
     1
 10
712.4795581116886
 20
284.6101747346138
 11
712.4795581116813
 21
323.6101747346138
 97
        0
 75
     0
 76
     1
 52
45.0
 41
25.0
 77
     0
 78
     1
 53
90.0
 43
-5573.263613398002
 44
2046.828681094448
 45
-17.6776695
 46
0.0000000000000036
 79
     0
 98
        1
 10
574.3461430362621
 20
302.5253519186181
  0
HATCH
  5
9181
330
67
100
AcDbEntity
  8
F_01 sichtbar
370
    13
100
AcDbHatch
 10
0.0
 20
0.0
 30
0.0
210
0.0
220
0.0
230
1.0
  2
BATT_INSULATION
 70
     0
 71
     0
 91
        1
 92
        1
 93
        4
 72
     1
 10
476.1371871527553
 20
615.610173105254
 11
496.1372068016171
 21
615.6102507384594
 72
     1
 10
496.1372068016171
 20
615.6102507384594
 11
496.1371829915988
 21
425.6101747346137
 72
     1
 10
496.1371829915988
 20
425.6101747346137
 11
476.1462772647173
 21
425.6101747346137
 72
     1
 10
476.1462772647173
 20
425.6101747346137
 11
476.1371871527553
 21
615.610173105254
 97
        0
 75
     0
 76
     2
 52
270.0
 41
19.93002306671958
 77
     0
 78
   528
 53
90.0
 43
-288.6132318743748
 44
7610.184450250635
 45
22.42127595005953
 46
6.658839936844743
 79
     2
 49
0.0
 49
-6.658839936844742
 53
75.92359999999998
 43
-286.1219789910301
 44
7606.855020317201
 45
-0.000002460039453
 46
6.658832178762542
 79
     2
 49
1.619673114586158
 49
-643.68828573548
 53
75.92359999999998
 43
-263.7007030409713
 44
7606.855020317201
 45
-0.000002460039453
 46
6.658832178762542
 79
     2
 49
1.619673114586158
 49
-643.68828573548
 53
75.92359999999998
 43
-241.2794270909126
 44
7606.855020317201
 45
-0.000002460039453
 46
6.658832178762542
 79
     2
 49
1.619673114586158
 49
-643.68828573548
 53
75.92359999999998
 43
-218.8581511408611
 44
7606.855020317201
 45
-0.000002460039453
 46
6.658832178762542
 79
     2
 49
1.619673114586158
 49
-643.68828573548
 53
75.92359999999998
 43
-196.436875190795
 44
7606.855020317201
 45
-0.000002460039453
 46
6.658832178762542
 79
     2
 49
1.619673114586158
 49
-643.68828573548
 53
75.92359999999998
 43
-174.0155992407435
 44
7606.855020317201
 45
-0.000002460039453
 46
6.658832178762542
 79
     2
 49
1.619673114586158
 49
-643.68828573548
 53
75.92359999999998
 43
-151.5943232906702
 44
7606.855020317201
 45
-0.000002460039453
 46
6.658832178762542
 79
     2
 49
1.619673114586158
 49
-643.68828573548
 53
64.95440000000001
 43
-267.3851664053273
 44
7607.630637024889
 45
0.0000071268683736
 46
6.65883820899263
 79
     2
 49
2.818862602510645
 49
-1797.918053154253
 53
64.95440000000001
 43
-244.9638904552612
 44
7607.630637024889
 45
0.0000071268683736
 46
6.65883820899263
 79
     2
 49
2.818862602510645
 49
-1797.918053154253
 53
64.95440000000001
 43
-222.5426145052024
 44
7607.630637024889
 45
0.0000071268683736
 46
6.65883820899263
 79
     2
 49
2.818862602510645
 49
-1797.918053154253
 53
64.95440000000001
 43
-200.1213385551364
 44
7607.630637024889
 45
0.0000071268683736
 46
6.65883820899263
 79
     2
 49
2.818862602510645
 49
-1797.918053154253
 53
64.95440000000001
 43
-177.7000626050776
 44
7607.630637024889
 45
0.0000071268683736
 46
6.65883820899263
 79
     2
 49
2.818862602510645
 49
-1797.918053154253
 53
64.95440000000001
 43
-155.2787866550261
 44
7607.630637024889
 45
0.0000071268683736
 46
6.65883820899263
 79
     2
 49
2.818862602510645
 49
-1797.918053154253
 53
64.95440000000001
 43
-132.8575107049601
 44
7607.630637024889
 45
0.0000071268683736
 46
6.65883820899263
 79
     2
 49
2.818862602510645
 49
-1797.918053154253
 53
64.95440000000001
 43
-110.4362347549013
 44
7607.630637024889
 45
0.0000071268683736
 46
6.65883820899263
 79
     2
 49
2.818862602510645
 49
-1797.918053154253
 53
64.95440000000001
 43
-88.01555670553899
 44
7607.630637024889
 45
0.0000071268683736
 46
6.65883820899263
 79
     2
 49
2.818862602510645
 49
-1797.918053154253
 53
64.95440000000001
 43
-65.59428075547294
 44
7607.630637024889
 45
0.0000071268683736
 46
6.65883820899263
 79
     2
 49
2.818862602510645
 49
-1797.918053154253
 53
64.95440000000001
 43
-43.17300480541962
 44
7607.630637024889
 45
0.0000071268683736
 46
6.65883820899263
 79
     2
 49
2.818862602510645
 49
-1797.918053154253
 53
64.95440000000001
 43
-20.75172885535358
 44
7607.630637024889
 45
0.0000071268683736
 46
6.65883820899263
 79
     2
 49
2.818862602510645
 49
-1797.918053154253
 53
64.95440000000001
 43
1.669547094705194
 44
7607.630637024889
 45
0.0000071268683736
 46
6.65883820899263
 79
     2
 49
2.818862602510645
 49
-1797.918053154253
 53
64.95440000000001
 43
24.09082304476397
 44
7607.630637024889
 45
0.0000071268683736
 46
6.65883820899263
 79
     2
 49
2.818862602510645
 49
-1797.918053154253
 53
64.95440000000001
 43
46.51209899482274
 44
7607.630637024889
 45
0.0000071268683736
 46
6.65883820899263
 79
     2
 49
2.818862602510645
 49
-1797.918053154253
 53
64.95440000000001
 43
68.93337494488879
 44
7607.630637024889
 45
0.0000071268683736
 46
6.65883820899263
 79
     2
 49
2.818862602510645
 49
-1797.918053154253
 53
64.95440000000001
 43
91.35465089494756
 44
7607.630637024889
 45
0.0000071268683736
 46
6.65883820899263
 79
     2
 49
2.818862602510645
 49
-1797.918053154253
 53
64.95440000000001
 43
113.775926844999
 44
7607.630637024889
 45
0.0000071268683736
 46
6.65883820899263
 79
     2
 49
2.818862602510645
 49
-1797.918053154253
 53
64.95440000000001
 43
136.1972027950651
 44
7607.630637024889
 45
0.0000071268683736
 46
6.65883820899263
 79
     2
 49
2.818862602510645
 49
-1797.918053154253
 53
64.95440000000001
 43
158.6184787451238
 44
7607.630637024889
 45
0.0000071268683736
 46
6.65883820899263
 79
     2
 49
2.818862602510645
 49
-1797.918053154253
 53
64.95440000000001
 43
181.0397546951899
 44
7607.630637024889
 45
0.0000071268683736
 46
6.65883820899263
 79
     2
 49
2.818862602510645
 49
-1797.918053154253
 53
64.95440000000001
 43
203.4610306452414
 44
7607.630637024889
 45
0.0000071268683736
 46
6.65883820899263
 79
     2
 49
2.818862602510645
 49
-1797.918053154253
 53
64.95440000000001
 43
225.8823065953002
 44
7607.630637024889
 45
0.0000071268683736
 46
6.65883820899263
 79
     2
 49
2.818862602510645
 49
-1797.918053154253
 53
64.95440000000001
 43
248.303582545359
 44
7607.630637024889
 45
0.0000071268683736
 46
6.65883820899263
 79
     2
 49
2.818862602510645
 49
-1797.918053154253
 53
64.95440000000001
 43
270.724858495425
 44
7607.630637024889
 45
0.0000071268683736
 46
6.65883820899263
 79
     2
 49
2.818862602510645
 49
-1797.918053154253
 53
64.95440000000001
 43
293.1461344454692
 44
7607.630637024889
 45
0.0000071268683736
 46
6.65883820899263
 79
     2
 49
2.818862602510645
 49
-1797.918053154253
 53
64.95440000000001
 43
315.5674103955353
 44
7607.630637024889
 45
0.0000071268683736
 46
6.65883820899263
 79
     2
 49
2.818862602510645
 49
-1797.918053154253
 53
64.95440000000001
 43
337.988686345594
 44
7607.630637024889
 45
0.0000071268683736
 46
6.65883820899263
 79
     2
 49
2.818862602510645
 49
-1797.918053154253
 53
64.95440000000001
 43
360.4099622956601
 44
7607.630637024889
 45
0.0000071268683736
 46
6.65883820899263
 79
     2
 49
2.818862602510645
 49
-1797.918053154253
 53
64.95440000000001
 43
382.8312382457188
 44
7607.630637024889
 45
0.0000071268683736
 46
6.65883820899263
 79
     2
 49
2.818862602510645
 49
-1797.918053154253
 53
64.95440000000001
 43
405.2525141957703
 44
7607.630637024889
 45
0.0000071268683736
 46
6.65883820899263
 79
     2
 49
2.818862602510645
 49
-1797.918053154253
 53
64.95440000000001
 43
427.673790145829
 44
7607.630637024889
 45
0.0000071268683736
 46
6.65883820899263
 79
     2
 49
2.818862602510645
 49
-1797.918053154253
 53
64.95440000000001
 43
450.0950660958952
 44
7607.630637024889
 45
0.0000071268683736
 46
6.65883820899263
 79
     2
 49
2.818862602510645
 49
-1797.918053154253
 53
64.95440000000001
 43
472.5163420459539
 44
7607.630637024889
 45
0.0000071268683736
 46
6.65883820899263
 79
     2
 49
2.818862602510645
 49
-1797.918053154253
 53
37.5647
 43
-285.7280022950563
 44
7608.426064175502
 45
0.0000015036542286
 46
6.658835289202447
 79
     2
 49
2.738006498928991
 49
-1100.412526831492
 53
37.5647
 43
-263.3066864849443
 44
7608.426064175502
 45
0.0000015036542286
 46
6.658835289202447
 79
     2
 49
2.738006498928991
 49
-1100.412526831492
 53
37.5647
 43
-240.8854105348855
 44
7608.426064175502
 45
0.0000015036542286
 46
6.658835289202447
 79
     2
 49
2.738006498928991
 49
-1100.412526831492
 53
37.5647
 43
-218.4641345848195
 44
7608.426064175502
 45
0.0000015036542286
 46
6.658835289202447
 79
     2
 49
2.738006498928991
 49
-1100.412526831492
 53
37.5647
 43
-196.0428586347752
 44
7608.426064175502
 45
0.0000015036542286
 46
6.658835289202447
 79
     2
 49
2.738006498928991
 49
-1100.412526831492
 53
37.5647
 43
-173.6215826846946
 44
7608.426064175502
 45
0.0000015036542286
 46
6.658835289202447
 79
     2
 49
2.738006498928991
 49
-1100.412526831492
 53
37.5647
 43
-151.2003067346504
 44
7608.426064175502
 45
0.0000015036542286
 46
6.658835289202447
 79
     2
 49
2.738006498928991
 49
-1100.412526831492
 53
37.5647
 43
-128.7790307845844
 44
7608.426064175502
 45
0.0000015036542286
 46
6.658835289202447
 79
     2
 49
2.738006498928991
 49
-1100.412526831492
 53
37.5647
 43
-106.3577548345329
 44
7608.426064175502
 45
0.0000015036542286
 46
6.658835289202447
 79
     2
 49
2.738006498928991
 49
-1100.412526831492
 53
37.5647
 43
-83.93588098377767
 44
7608.426064175502
 45
0.0000015036542286
 46
6.658835289202447
 79
     2
 49
2.738006498928991
 49
-1100.412526831492
 53
37.5647
 43
-61.51460503372618
 44
7608.426064175502
 45
0.0000015036542286
 46
6.658835289202447
 79
     2
 49
2.738006498928991
 49
-1100.412526831492
 53
37.5647
 43
-39.09332908365104
 44
7608.426064175502
 45
0.0000015036542286
 46
6.658835289202447
 79
     2
 49
2.738006498928991
 49
-1100.412526831492
 53
37.5647
 43
-16.67205313359955
 44
7608.426064175502
 45
0.0000015036542286
 46
6.658835289202447
 79
     2
 49
2.738006498928991
 49
-1100.412526831492
 53
37.5647
 43
5.749222816459223
 44
7608.426064175502
 45
0.0000015036542286
 46
6.658835289202447
 79
     2
 49
2.738006498928991
 49
-1100.412526831492
 53
37.5647
 43
28.17049876651799
 44
7608.426064175502
 45
0.0000015036542286
 46
6.658835289202447
 79
     2
 49
2.738006498928991
 49
-1100.412526831492
 53
37.5647
 43
50.59177471658404
 44
7608.426064175502
 45
0.0000015036542286
 46
6.658835289202447
 79
     2
 49
2.738006498928991
 49
-1100.412526831492
 53
37.5647
 43
73.01305066664281
 44
7608.426064175502
 45
0.0000015036542286
 46
6.658835289202447
 79
     2
 49
2.738006498928991
 49
-1100.412526831492
 53
37.5647
 43
95.43432661669431
 44
7608.426064175502
 45
0.0000015036542286
 46
6.658835289202447
 79
     2
 49
2.738006498928991
 49
-1100.412526831492
 53
37.5647
 43
117.8556025667603
 44
7608.426064175502
 45
0.0000015036542286
 46
6.658835289202447
 79
     2
 49
2.738006498928991
 49
-1100.412526831492
 53
37.5647
 43
140.2768785168191
 44
7608.426064175502
 45
0.0000015036542286
 46
6.658835289202447
 79
     2
 49
2.738006498928991
 49
-1100.412526831492
 53
37.5647
 43
162.6981544668852
 44
7608.426064175502
 45
0.0000015036542286
 46
6.658835289202447
 79
     2
 49
2.738006498928991
 49
-1100.412526831492
 53
37.5647
 43
185.1194304169366
 44
7608.426064175502
 45
0.0000015036542286
 46
6.658835289202447
 79
     2
 49
2.738006498928991
 49
-1100.412526831492
 53
37.5647
 43
207.5407063669954
 44
7608.426064175502
 45
0.0000015036542286
 46
6.658835289202447
 79
     2
 49
2.738006498928991
 49
-1100.412526831492
 53
37.5647
 43
229.9619823170542
 44
7608.426064175502
 45
0.0000015036542286
 46
6.658835289202447
 79
     2
 49
2.738006498928991
 49
-1100.412526831492
 53
37.5647
 43
252.3832582671202
 44
7608.426064175502
 45
0.0000015036542286
 46
6.658835289202447
 79
     2
 49
2.738006498928991
 49
-1100.412526831492
 53
37.5647
 43
274.804534217179
 44
7608.426064175502
 45
0.0000015036542286
 46
6.658835289202447
 79
     2
 49
2.738006498928991
 49
-1100.412526831492
 53
37.5647
 43
297.2258101672305
 44
7608.426064175502
 45
0.0000015036542286
 46
6.658835289202447
 79
     2
 49
2.738006498928991
 49
-1100.412526831492
 53
37.5647
 43
319.6470861172965
 44
7608.426064175502
 45
0.0000015036542286
 46
6.658835289202447
 79
     2
 49
2.738006498928991
 49
-1100.412526831492
 53
37.5647
 43
342.0683620673553
 44
7608.426064175502
 45
0.0000015036542286
 46
6.658835289202447
 79
     2
 49
2.738006498928991
 49
-1100.412526831492
 53
37.5647
 43
364.4896380174214
 44
7608.426064175502
 45
0.0000015036542286
 46
6.658835289202447
 79
     2
 49
2.738006498928991
 49
-1100.412526831492
 53
37.5647
 43
386.9109139674656
 44
7608.426064175502
 45
0.0000015036542286
 46
6.658835289202447
 79
     2
 49
2.738006498928991
 49
-1100.412526831492
 53
37.5647
 43
409.3321899175389
 44
7608.426064175502
 45
0.0000015036542286
 46
6.658835289202447
 79
     2
 49
2.738006498928991
 49
-1100.412526831492
 53
37.5647
 43
431.7534658675904
 44
7608.426064175502
 45
0.0000015036542286
 46
6.658835289202447
 79
     2
 49
2.738006498928991
 49
-1100.412526831492
 53
37.5647
 43
454.1747418176564
 44
7608.426064175502
 45
0.0000015036542286
 46
6.658835289202447
 79
     2
 49
2.738006498928991
 49
-1100.412526831492
 53
37.5647
 43
476.5960177677079
 44
7608.426064175502
 45
0.0000015036542286
 46
6.658835289202447
 79
     2
 49
2.738006498928991
 49
-1100.412526831492
 53
37.5647
 43
499.0172937177667
 44
7608.426064175502
 45
0.0000015036542286
 46
6.658835289202447
 79
     2
 49
2.738006498928991
 49
-1100.412526831492
 53
37.5647
 43
521.4385696678255
 44
7608.426064175502
 45
0.0000015036542286
 46
6.658835289202447
 79
     2
 49
2.738006498928991
 49
-1100.412526831492
 53
37.5647
 43
543.8598456178915
 44
7608.426064175502
 45
0.0000015036542286
 46
6.658835289202447
 79
     2
 49
2.738006498928991
 49
-1100.412526831492
 53
37.5647
 43
566.2811215679503
 44
7608.426064175502
 45
0.0000015036542286
 46
6.658835289202447
 79
     2
 49
2.738006498928991
 49
-1100.412526831492
 53
22.93839999999997
 43
-278.6850310936188
 44
7604.139106248843
 45
0.0000027748745772
 46
6.658841674146681
 79
     2
 49
5.098976821481803
 49
-968.7608133197118
 53
22.93839999999997
 43
-256.2638149336253
 44
7604.139106248843
 45
0.0000027748745772
 46
6.658841674146681
 79
     2
 49
5.098976821481803
 49
-968.7608133197118
 53
22.93839999999997
 43
-233.8425389835665
 44
7604.139106248843
 45
0.0000027748745772
 46
6.658841674146681
 79
     2
 49
5.098976821481803
 49
-968.7608133197118
 53
22.93839999999997
 43
-211.421263033515
 44
7604.139106248843
 45
0.0000027748745772
 46
6.658841674146681
 79
     2
 49
5.098976821481803
 49
-968.7608133197118
 53
22.93839999999997
 43
-188.9999870834563
 44
7604.139106248843
 45
0.0000027748745772
 46
6.658841674146681
 79
     2
 49
5.098976821481803
 49
-968.7608133197118
 53
22.93839999999997
 43
-166.5787111333902
 44
7604.139106248843
 45
0.0000027748745772
 46
6.658841674146681
 79
     2
 49
5.098976821481803
 49
-968.7608133197118
 53
22.93839999999997
 43
-144.1574351833315
 44
7604.139106248843
 45
0.0000027748745772
 46
6.658841674146681
 79
     2
 49
5.098976821481803
 49
-968.7608133197118
 53
22.93839999999997
 43
-121.7361592332727
 44
7604.139106248843
 45
0.0000027748745772
 46
6.658841674146681
 79
     2
 49
5.098976821481803
 49
-968.7608133197118
 53
22.93839999999997
 43
-99.31488328322121
 44
7604.139106248843
 45
0.0000027748745772
 46
6.658841674146681
 79
     2
 49
5.098976821481803
 49
-968.7608133197118
 53
22.93839999999997
 43
-76.89261083199927
 44
7604.139106248843
 45
0.0000027748745772
 46
6.658841674146681
 79
     2
 49
5.098976821481803
 49
-968.7608133197118
 53
22.93839999999997
 43
-54.47133488194049
 44
7604.139106248843
 45
0.0000027748745772
 46
6.658841674146681
 79
     2
 49
5.098976821481803
 49
-968.7608133197118
 53
22.93839999999997
 43
-32.05005893187263
 44
7604.139106248843
 45
0.0000027748745772
 46
6.658841674146681
 79
     2
 49
5.098976821481803
 49
-968.7608133197118
 53
22.93839999999997
 43
-9.628782981813856
 44
7604.139106248843
 45
0.0000027748745772
 46
6.658841674146681
 79
     2
 49
5.098976821481803
 49
-968.7608133197118
 53
22.93839999999997
 43
12.79249296823764
 44
7604.139106248843
 45
0.0000027748745772
 46
6.658841674146681
 79
     2
 49
5.098976821481803
 49
-968.7608133197118
 53
22.93839999999997
 43
35.21376891830369
 44
7604.139106248843
 45
0.0000027748745772
 46
6.658841674146681
 79
     2
 49
5.098976821481803
 49
-968.7608133197118
 53
22.93839999999997
 43
57.63504486835518
 44
7604.139106248843
 45
0.0000027748745772
 46
6.658841674146681
 79
     2
 49
5.098976821481803
 49
-968.7608133197118
 53
22.93839999999997
 43
80.05632081842851
 44
7604.139106248843
 45
0.0000027748745772
 46
6.658841674146681
 79
     2
 49
5.098976821481803
 49
-968.7608133197118
 53
22.93839999999997
 43
102.47759676848
 44
7604.139106248843
 45
0.0000027748745772
 46
6.658841674146681
 79
     2
 49
5.098976821481803
 49
-968.7608133197118
 53
22.93839999999997
 43
124.8988727185387
 44
7604.139106248843
 45
0.0000027748745772
 46
6.658841674146681
 79
     2
 49
5.098976821481803
 49
-968.7608133197118
 53
22.93839999999997
 43
147.3201486685975
 44
7604.139106248843
 45
0.0000027748745772
 46
6.658841674146681
 79
     2
 49
5.098976821481803
 49
-968.7608133197118
 53
22.93839999999997
 43
169.7414246186636
 44
7604.139106248843
 45
0.0000027748745772
 46
6.658841674146681
 79
     2
 49
5.098976821481803
 49
-968.7608133197118
 53
22.93839999999997
 43
192.1627005687223
 44
7604.139106248843
 45
0.0000027748745772
 46
6.658841674146681
 79
     2
 49
5.098976821481803
 49
-968.7608133197118
 53
22.93839999999997
 43
214.5839765187739
 44
7604.139106248843
 45
0.0000027748745772
 46
6.658841674146681
 79
     2
 49
5.098976821481803
 49
-968.7608133197118
 53
22.93839999999997
 43
237.0052524688326
 44
7604.139106248843
 45
0.0000027748745772
 46
6.658841674146681
 79
     2
 49
5.098976821481803
 49
-968.7608133197118
 53
22.93839999999997
 43
259.4265284188987
 44
7604.139106248843
 45
0.0000027748745772
 46
6.658841674146681
 79
     2
 49
5.098976821481803
 49
-968.7608133197118
 53
22.93839999999997
 43
281.8478043689574
 44
7604.139106248843
 45
0.0000027748745772
 46
6.658841674146681
 79
     2
 49
5.098976821481803
 49
-968.7608133197118
 53
22.93839999999997
 43
304.2690803190089
 44
7604.139106248843
 45
0.0000027748745772
 46
6.658841674146681
 79
     2
 49
5.098976821481803
 49
-968.7608133197118
 53
22.93839999999997
 43
326.6903562690677
 44
7604.139106248843
 45
0.0000027748745772
 46
6.658841674146681
 79
     2
 49
5.098976821481803
 49
-968.7608133197118
 53
22.93839999999997
 43
349.1116322191337
 44
7604.139106248843
 45
0.0000027748745772
 46
6.658841674146681
 79
     2
 49
5.098976821481803
 49
-968.7608133197118
 53
22.93839999999997
 43
371.5329081691925
 44
7604.139106248843
 45
0.0000027748745772
 46
6.658841674146681
 79
     2
 49
5.098976821481803
 49
-968.7608133197118
 53
22.93839999999997
 43
393.9541841192513
 44
7604.139106248843
 45
0.0000027748745772
 46
6.658841674146681
 79
     2
 49
5.098976821481803
 49
-968.7608133197118
 53
22.93839999999997
 43
416.37546006931
 44
7604.139106248843
 45
0.0000027748745772
 46
6.658841674146681
 79
     2
 49
5.098976821481803
 49
-968.7608133197118
 53
22.93839999999997
 43
438.7967360193688
 44
7604.139106248843
 45
0.0000027748745772
 46
6.658841674146681
 79
     2
 49
5.098976821481803
 49
-968.7608133197118
 53
22.93839999999997
 43
461.2180119694349
 44
7604.139106248843
 45
0.0000027748745772
 46
6.658841674146681
 79
     2
 49
5.098976821481803
 49
-968.7608133197118
 53
22.93839999999997
 43
483.6392879194936
 44
7604.139106248843
 45
0.0000027748745772
 46
6.658841674146681
 79
     2
 49
5.098976821481803
 49
-968.7608133197118
 53
22.93839999999997
 43
506.0605638695524
 44
7604.139106248843
 45
0.0000027748745772
 46
6.658841674146681
 79
     2
 49
5.098976821481803
 49
-968.7608133197118
 53
22.93839999999997
 43
528.4818398196039
 44
7604.139106248843
 45
0.0000027748745772
 46
6.658841674146681
 79
     2
 49
5.098976821481803
 49
-968.7608133197118
 53
22.93839999999997
 43
550.9031157696699
 44
7604.139106248843
 45
0.0000027748745772
 46
6.658841674146681
 79
     2
 49
5.098976821481803
 49
-968.7608133197118
 53
22.93839999999997
 43
573.3243917197287
 44
7604.139106248843
 45
0.0000027748745772
 46
6.658841674146681
 79
     2
 49
5.098976821481803
 49
-968.7608133197118
 53
22.93839999999997
 43
595.7456676697947
 44
7604.139106248843
 45
0.0000027748745772
 46
6.658841674146681
 79
     2
 49
5.098976821481803
 49
-968.7608133197118
 53
15.10899999999998
 43
-269.5213659277269
 44
7607.054320547871
 45
22.42126228022084
 46
0.0000000603162756
 79
     2
 49
2.21249165070574
 49
-253.2524971607663
 53
15.10899999999998
 43
-269.5213659277269
 44
7613.713160484715
 45
22.42126228022084
 46
0.0000000603162756
 79
     2
 49
2.21249165070574
 49
-253.2524971607663
 53
15.10899999999998
 43
-269.5213659277269
 44
7620.37200042156
 45
22.42126228022084
 46
0.0000000603162756
 79
     2
 49
2.21249165070574
 49
-253.2524971607663
 53
15.10899999999998
 43
-269.5213659277269
 44
7627.030880218447
 45
22.42126228022084
 46
0.0000000603162756
 79
     2
 49
2.21249165070574
 49
-253.2524971607663
 53
15.10899999999998
 43
-269.5213659277269
 44
7633.68970022527
 45
22.42126228022084
 46
0.0000000603162756
 79
     2
 49
2.21249165070574
 49
-253.2524971607663
 53
15.10899999999998
 43
-269.5213659277269
 44
7640.348520232091
 45
22.42126228022084
 46
0.0000000603162756
 79
     2
 49
2.21249165070574
 49
-253.2524971607663
 53
15.10899999999998
 43
-269.5213659277269
 44
7647.007340238913
 45
22.42126228022084
 46
0.0000000603162756
 79
     2
 49
2.21249165070574
 49
-253.2524971607663
 53
15.10899999999998
 43
-269.5213659277269
 44
7653.666160245738
 45
22.42126228022084
 46
0.0000000603162756
 79
     2
 49
2.21249165070574
 49
-253.2524971607663
 53
15.10899999999998
 43
-269.5213659277269
 44
7660.324980252557
 45
22.42126228022084
 46
0.0000000603162756
 79
     2
 49
2.21249165070574
 49
-253.2524971607663
 53
15.10899999999998
 43
-269.5213659277269
 44
7666.983800259382
 45
22.42126228022084
 46
0.0000000603162756
 79
     2
 49
2.21249165070574
 49
-253.2524971607663
 53
6.747399999999972
 43
-273.9891589186791
 44
7606.126139513605
 45
22.42131556330144
 46
0.0000021777780818
 79
     2
 49
4.499063197150475
 49
-2772.552403711932
 53
6.747399999999972
 43
-273.9891589186791
 44
7612.784979450447
 45
22.42131556330144
 46
0.0000021777780818
 79
     2
 49
4.499063197150475
 49
-2772.552403711932
 53
6.747399999999972
 43
-273.9891589186791
 44
7619.443819387296
 45
22.42131556330144
 46
0.0000021777780818
 79
     2
 49
4.499063197150475
 49
-2772.552403711932
 53
6.747399999999972
 43
-273.9891589186791
 44
7626.102739044235
 45
22.42131556330144
 46
0.0000021777780818
 79
     2
 49
4.499063197150475
 49
-2772.552403711932
 53
6.747399999999972
 43
-273.9891589186791
 44
7632.761559051058
 45
22.42131556330144
 46
0.0000021777780818
 79
     2
 49
4.499063197150475
 49
-2772.552403711932
 53
6.747399999999972
 43
-273.9891589186791
 44
7639.420379057878
 45
22.42131556330144
 46
0.0000021777780818
 79
     2
 49
4.499063197150475
 49
-2772.552403711932
 53
6.747399999999972
 43
-273.9891589186791
 44
7646.079199064697
 45
22.42131556330144
 46
0.0000021777780818
 79
     2
 49
4.499063197150475
 49
-2772.552403711932
 53
6.747399999999972
 43
-273.9891589186791
 44
7652.738019071522
 45
22.42131556330144
 46
0.0000021777780818
 79
     2
 49
4.499063197150475
 49
-2772.552403711932
 53
6.747399999999972
 43
-273.9891589186791
 44
7659.396839078344
 45
22.42131556330144
 46
0.0000021777780818
 79
     2
 49
4.499063197150475
 49
-2772.552403711932
 53
6.747399999999972
 43
-273.9891589186791
 44
7666.055659085163
 45
22.42131556330144
 46
0.0000021777780818
 79
     2
 49
4.499063197150475
 49
-2772.552403711932
 53
6.747399999999972
 43
-273.9891589186791
 44
7672.714479091983
 45
22.42131556330144
 46
0.0000021777780818
 79
     2
 49
4.499063197150475
 49
-2772.552403711932
 53
6.747399999999972
 43
-273.9891589186791
 44
7679.373299098806
 45
22.42131556330144
 46
0.0000021777780818
 79
     2
 49
4.499063197150475
 49
-2772.552403711932
 53
6.747399999999972
 43
-273.9891589186791
 44
7686.032119105627
 45
22.42131556330144
 46
0.0000021777780818
 79
     2
 49
4.499063197150475
 49
-2772.552403711932
 53
6.747399999999972
 43
-273.9891589186791
 44
7692.690939112449
 45
22.42131556330144
 46
0.0000021777780818
 79
     2
 49
4.499063197150475
 49
-2772.552403711932
 53
6.747399999999972
 43
-273.9891589186791
 44
7699.349958419505
 45
22.42131556330144
 46
0.0000021777780818
 79
     2
 49
4.499063197150475
 49
-2772.552403711932
 53
6.747399999999972
 43
-273.9891589186791
 44
7706.008778426323
 45
22.42131556330144
 46
0.0000021777780818
 79
     2
 49
4.499063197150475
 49
-2772.552403711932
 53
6.747399999999972
 43
-273.9891589186791
 44
7712.667598433141
 45
22.42131556330144
 46
0.0000021777780818
 79
     2
 49
4.499063197150475
 49
-2772.552403711932
 53
6.747399999999972
 43
-273.9891589186791
 44
7719.326418439966
 45
22.42131556330144
 46
0.0000021777780818
 79
     2
 49
4.499063197150475
 49
-2772.552403711932
 53
6.747399999999972
 43
-273.9891589186791
 44
7725.985238446785
 45
22.42131556330144
 46
0.0000021777780818
 79
     2
 49
4.499063197150475
 49
-2772.552403711932
 53
6.747399999999972
 43
-273.9891589186791
 44
7732.644058453613
 45
22.42131556330144
 46
0.0000021777780818
 79
     2
 49
4.499063197150475
 49
-2772.552403711932
 53
6.747399999999972
 43
-273.9891589186791
 44
7739.302878460435
 45
22.42131556330144
 46
0.0000021777780818
 79
     2
 49
4.499063197150475
 49
-2772.552403711932
 53
6.747399999999972
 43
-273.9891589186791
 44
7745.961698467256
 45
22.42131556330144
 46
0.0000021777780818
 79
     2
 49
4.499063197150475
 49
-2772.552403711932
 53
6.747399999999972
 43
-273.9891589186791
 44
7752.620518474074
 45
22.42131556330144
 46
0.0000021777780818
 79
     2
 49
4.499063197150475
 49
-2772.552403711932
 53
6.747399999999972
 43
-273.9891589186791
 44
7759.279338480897
 45
22.42131556330144
 46
0.0000021777780818
 79
     2
 49
4.499063197150475
 49
-2772.552403711932
 53
6.747399999999972
 43
-273.9891589186791
 44
7765.938357787952
 45
22.42131556330144
 46
0.0000021777780818
 79
     2
 49
4.499063197150475
 49
-2772.552403711932
 53
6.747399999999972
 43
-273.9891589186791
 44
7772.597177794771
 45
22.42131556330144
 46
0.0000021777780818
 79
     2
 49
4.499063197150475
 49
-2772.552403711932
 53
6.747399999999972
 43
-273.9891589186791
 44
7779.255997801596
 45
22.42131556330144
 46
0.0000021777780818
 79
     2
 49
4.499063197150475
 49
-2772.552403711932
 53
6.747399999999972
 43
-273.9891589186791
 44
7785.914817808417
 45
22.42131556330144
 46
0.0000021777780818
 79
     2
 49
4.499063197150475
 49
-2772.552403711932
 53
6.747399999999972
 43
-273.9891589186791
 44
7792.573637815235
 45
22.42131556330144
 46
0.0000021777780818
 79
     2
 49
4.499063197150475
 49
-2772.552403711932
 53
6.747399999999972
 43
-273.9891589186791
 44
7799.232457822057
 45
22.42131556330144
 46
0.0000021777780818
 79
     2
 49
4.499063197150475
 49
-2772.552403711932
 53
6.747399999999972
 43
-273.9891589186791
 44
7805.891078528645
 45
22.42131556330144
 46
0.0000021777780818
 79
     2
 49
4.499063197150475
 49
-2772.552403711932
 53
6.747399999999972
 43
-273.9891589186791
 44
7812.549699235241
 45
22.42131556330144
 46
0.0000021777780818
 79
     2
 49
4.499063197150475
 49
-2772.552403711932
 53
6.747399999999972
 43
-273.9891589186791
 44
7819.208319941829
 45
22.42131556330144
 46
0.0000021777780818
 79
     2
 49
4.499063197150475
 49
-2772.552403711932
 53
6.747399999999972
 43
-273.9891589186791
 44
7825.866940648417
 45
22.42131556330144
 46
0.0000021777780818
 79
     2
 49
4.499063197150475
 49
-2772.552403711932
 53
6.747399999999972
 43
-273.9891589186791
 44
7832.527554357321
 45
22.42131556330144
 46
0.0000021777780818
 79
     2
 49
4.499063197150475
 49
-2772.552403711932
 53
6.747399999999972
 43
-273.9891589186791
 44
7839.186175063911
 45
22.42131556330144
 46
0.0000021777780818
 79
     2
 49
4.499063197150475
 49
-2772.552403711932
 53
6.747399999999972
 43
-273.9891589186791
 44
7845.844795770499
 45
22.42131556330144
 46
0.0000021777780818
 79
     2
 49
4.499063197150475
 49
-2772.552403711932
 53
6.747399999999972
 43
-273.9891589186791
 44
7852.503416477095
 45
22.42131556330144
 46
0.0000021777780818
 79
     2
 49
4.499063197150475
 49
-2772.552403711932
 53
6.747399999999972
 43
-273.9891589186791
 44
7859.162037183683
 45
22.42131556330144
 46
0.0000021777780818
 79
     2
 49
4.499063197150475
 49
-2772.552403711932
 53
6.747399999999972
 43
-273.9891589186791
 44
7865.820657890274
 45
22.42131556330144
 46
0.0000021777780818
 79
     2
 49
4.499063197150475
 49
-2772.552403711932
 53
6.747399999999972
 43
-273.9891589186791
 44
7872.479278596863
 45
22.42131556330144
 46
0.0000021777780818
 79
     2
 49
4.499063197150475
 49
-2772.552403711932
 53
6.747399999999972
 43
-273.9891589186791
 44
7879.137899303458
 45
22.42131556330144
 46
0.0000021777780818
 79
     2
 49
4.499063197150475
 49
-2772.552403711932
 53
6.747399999999972
 43
-273.9891589186791
 44
7885.796520010046
 45
22.42131556330144
 46
0.0000021777780818
 79
     2
 49
4.499063197150475
 49
-2772.552403711932
 53
6.747399999999972
 43
-273.9891589186791
 44
7892.457133718943
 45
22.42131556330144
 46
0.0000021777780818
 79
     2
 49
4.499063197150475
 49
-2772.552403711932
 53
6.747399999999972
 43
-273.9891589186791
 44
7899.115754425536
 45
22.42131556330144
 46
0.0000021777780818
 79
     2
 49
4.499063197150475
 49
-2772.552403711932
 53
6.747399999999972
 43
-273.9891589186791
 44
7905.774375132124
 45
22.42131556330144
 46
0.0000021777780818
 79
     2
 49
4.499063197150475
 49
-2772.552403711932
 53
6.747399999999972
 43
-273.9891589186791
 44
7912.432995838717
 45
22.42131556330144
 46
0.0000021777780818
 79
     2
 49
4.499063197150475
 49
-2772.552403711932
 53
6.747399999999972
 43
-273.9891589186791
 44
7919.091616545305
 45
22.42131556330144
 46
0.0000021777780818
 79
     2
 49
4.499063197150475
 49
-2772.552403711932
 53
6.747399999999972
 43
-273.9891589186791
 44
7925.7502372519
 45
22.42131556330144
 46
0.0000021777780818
 79
     2
 49
4.499063197150475
 49
-2772.552403711932
 53
6.141599999999983
 43
-283.5577025031725
 44
7603.614724422429
 45
22.4212162591076
 46
-0.000021699014323
 79
     2
 49
4.900812602129414
 49
-1551.097951008268
 53
6.141599999999983
 43
-283.5577025031725
 44
7610.273557383766
 45
22.4212162591076
 46
-0.000021699014323
 79
     2
 49
4.900812602129414
 49
-1551.097951008268
 53
6.141599999999983
 43
-283.5577025031725
 44
7616.932397320614
 45
22.4212162591076
 46
-0.000021699014323
 79
     2
 49
4.900812602129414
 49
-1551.097951008268
 53
6.141599999999983
 43
-283.5577025031725
 44
7623.591157537368
 45
22.4212162591076
 46
-0.000021699014323
 79
     2
 49
4.900812602129414
 49
-1551.097951008268
 53
6.141599999999983
 43
-283.5577025031725
 44
7630.250176844419
 45
22.4212162591076
 46
-0.000021699014323
 79
     2
 49
4.900812602129414
 49
-1551.097951008268
 53
6.141599999999983
 43
-283.5577025031725
 44
7636.908996851237
 45
22.4212162591076
 46
-0.000021699014323
 79
     2
 49
4.900812602129414
 49
-1551.097951008268
 53
6.141599999999983
 43
-283.5577025031725
 44
7643.567816858055
 45
22.4212162591076
 46
-0.000021699014323
 79
     2
 49
4.900812602129414
 49
-1551.097951008268
 53
6.141599999999983
 43
-283.5577025031725
 44
7650.22663686488
 45
22.4212162591076
 46
-0.000021699014323
 79
     2
 49
4.900812602129414
 49
-1551.097951008268
 53
6.141599999999983
 43
-283.5577025031725
 44
7656.885456871698
 45
22.4212162591076
 46
-0.000021699014323
 79
     2
 49
4.900812602129414
 49
-1551.097951008268
 53
6.141599999999983
 43
-283.5577025031725
 44
7663.544276878528
 45
22.4212162591076
 46
-0.000021699014323
 79
     2
 49
4.900812602129414
 49
-1551.097951008268
 53
6.141599999999983
 43
-283.5577025031725
 44
7670.203096885349
 45
22.4212162591076
 46
-0.000021699014323
 79
     2
 49
4.900812602129414
 49
-1551.097951008268
 53
6.141599999999983
 43
-283.5577025031725
 44
7676.861916892171
 45
22.4212162591076
 46
-0.000021699014323
 79
     2
 49
4.900812602129414
 49
-1551.097951008268
 53
6.141599999999983
 43
-283.5577025031725
 44
7683.520736898993
 45
22.4212162591076
 46
-0.000021699014323
 79
     2
 49
4.900812602129414
 49
-1551.097951008268
 53
6.141599999999983
 43
-283.5577025031725
 44
7690.179556905808
 45
22.4212162591076
 46
-0.000021699014323
 79
     2
 49
4.900812602129414
 49
-1551.097951008268
 53
6.141599999999983
 43
-283.5577025031725
 44
7696.838376912636
 45
22.4212162591076
 46
-0.000021699014323
 79
     2
 49
4.900812602129414
 49
-1551.097951008268
 53
6.141599999999983
 43
-283.5577025031725
 44
7703.497396219685
 45
22.4212162591076
 46
-0.000021699014323
 79
     2
 49
4.900812602129414
 49
-1551.097951008268
 53
6.141599999999983
 43
-283.5577025031725
 44
7710.15621622651
 45
22.4212162591076
 46
-0.000021699014323
 79
     2
 49
4.900812602129414
 49
-1551.097951008268
 53
6.141599999999983
 43
-283.5577025031725
 44
7716.815036233327
 45
22.4212162591076
 46
-0.000021699014323
 79
     2
 49
4.900812602129414
 49
-1551.097951008268
 53
6.141599999999983
 43
-283.5577025031725
 44
7723.473856240151
 45
22.4212162591076
 46
-0.000021699014323
 79
     2
 49
4.900812602129414
 49
-1551.097951008268
 53
6.141599999999983
 43
-283.5577025031725
 44
7730.132676246975
 45
22.4212162591076
 46
-0.000021699014323
 79
     2
 49
4.900812602129414
 49
-1551.097951008268
 53
6.141599999999983
 43
-283.5577025031725
 44
7736.79149625379
 45
22.4212162591076
 46
-0.000021699014323
 79
     2
 49
4.900812602129414
 49
-1551.097951008268
 53
6.141599999999983
 43
-283.5577025031725
 44
7743.450316260615
 45
22.4212162591076
 46
-0.000021699014323
 79
     2
 49
4.900812602129414
 49
-1551.097951008268
 53
6.141599999999983
 43
-283.5577025031725
 44
7750.109136267433
 45
22.4212162591076
 46
-0.000021699014323
 79
     2
 49
4.900812602129414
 49
-1551.097951008268
 53
6.141599999999983
 43
-283.5577025031725
 44
7756.767956274258
 45
22.4212162591076
 46
-0.000021699014323
 79
     2
 49
4.900812602129414
 49
-1551.097951008268
 53
6.141599999999983
 43
-283.5577025031725
 44
7763.426776281081
 45
22.4212162591076
 46
-0.000021699014323
 79
     2
 49
4.900812602129414
 49
-1551.097951008268
 53
173.8580000000001
 43
-278.6850310936188
 44
7609.570944350572
 45
0.0000416333007388
 46
6.658832854632235
 79
     2
 49
4.900812602129348
 49
-1551.097951008251
 53
173.8580000000001
 43
-256.2638149336253
 44
7609.570944350572
 45
0.0000416333007388
 46
6.658832854632235
 79
     2
 49
4.900812602129348
 49
-1551.097951008251
 53
173.8580000000001
 43
-233.8425389835665
 44
7609.570944350572
 45
0.0000416333007388
 46
6.658832854632235
 79
     2
 49
4.900812602129348
 49
-1551.097951008251
 53
173.8580000000001
 43
-211.421263033515
 44
7609.570944350572
 45
0.0000416333007388
 46
6.658832854632235
 79
     2
 49
4.900812602129348
 49
-1551.097951008251
 53
173.8580000000001
 43
-188.9999870834563
 44
7609.570944350572
 45
0.0000416333007388
 46
6.658832854632235
 79
     2
 49
4.900812602129348
 49
-1551.097951008251
 53
173.8580000000001
 43
-166.5787111333902
 44
7609.570944350572
 45
0.0000416333007388
 46
6.658832854632235
 79
     2
 49
4.900812602129348
 49
-1551.097951008251
 53
173.8580000000001
 43
-144.1574351833315
 44
7609.570944350572
 45
0.0000416333007388
 46
6.658832854632235
 79
     2
 49
4.900812602129348
 49
-1551.097951008251
 53
173.8580000000001
 43
-121.7361592332727
 44
7609.570944350572
 45
0.0000416333007388
 46
6.658832854632235
 79
     2
 49
4.900812602129348
 49
-1551.097951008251
 53
173.8580000000001
 43
-99.31488328322121
 44
7609.570944350572
 45
0.0000416333007388
 46
6.658832854632235
 79
     2
 49
4.900812602129348
 49
-1551.097951008251
 53
173.8580000000001
 43
-76.89261083199927
 44
7609.570944350572
 45
0.0000416333007388
 46
6.658832854632235
 79
     2
 49
4.900812602129348
 49
-1551.097951008251
 53
173.8580000000001
 43
-54.47133488194049
 44
7609.570944350572
 45
0.0000416333007388
 46
6.658832854632235
 79
     2
 49
4.900812602129348
 49
-1551.097951008251
 53
173.8580000000001
 43
-32.05005893187263
 44
7609.570944350572
 45
0.0000416333007388
 46
6.658832854632235
 79
     2
 49
4.900812602129348
 49
-1551.097951008251
 53
173.8580000000001
 43
-9.628782981813856
 44
7609.570944350572
 45
0.0000416333007388
 46
6.658832854632235
 79
     2
 49
4.900812602129348
 49
-1551.097951008251
 53
173.8580000000001
 43
12.79249296823764
 44
7609.570944350572
 45
0.0000416333007388
 46
6.658832854632235
 79
     2
 49
4.900812602129348
 49
-1551.097951008251
 53
173.8580000000001
 43
35.21376891830369
 44
7609.570944350572
 45
0.0000416333007388
 46
6.658832854632235
 79
     2
 49
4.900812602129348
 49
-1551.097951008251
 53
173.8580000000001
 43
57.63504486835518
 44
7609.570944350572
 45
0.0000416333007388
 46
6.658832854632235
 79
     2
 49
4.900812602129348
 49
-1551.097951008251
 53
173.8580000000001
 43
80.05632081842851
 44
7609.570944350572
 45
0.0000416333007388
 46
6.658832854632235
 79
     2
 49
4.900812602129348
 49
-1551.097951008251
 53
173.8580000000001
 43
102.47759676848
 44
7609.570944350572
 45
0.0000416333007388
 46
6.658832854632235
 79
     2
 49
4.900812602129348
 49
-1551.097951008251
 53
173.8580000000001
 43
124.8988727185387
 44
7609.570944350572
 45
0.0000416333007388
 46
6.658832854632235
 79
     2
 49
4.900812602129348
 49
-1551.097951008251
 53
173.8580000000001
 43
147.3201486685975
 44
7609.570944350572
 45
0.0000416333007388
 46
6.658832854632235
 79
     2
 49
4.900812602129348
 49
-1551.097951008251
 53
173.8580000000001
 43
169.7414246186636
 44
7609.570944350572
 45
0.0000416333007388
 46
6.658832854632235
 79
     2
 49
4.900812602129348
 49
-1551.097951008251
 53
173.8580000000001
 43
192.1627005687223
 44
7609.570944350572
 45
0.0000416333007388
 46
6.658832854632235
 79
     2
 49
4.900812602129348
 49
-1551.097951008251
 53
173.8580000000001
 43
214.5839765187739
 44
7609.570944350572
 45
0.0000416333007388
 46
6.658832854632235
 79
     2
 49
4.900812602129348
 49
-1551.097951008251
 53
173.8580000000001
 43
237.0052524688326
 44
7609.570944350572
 45
0.0000416333007388
 46
6.658832854632235
 79
     2
 49
4.900812602129348
 49
-1551.097951008251
 53
173.8580000000001
 43
259.4265284188987
 44
7609.570944350572
 45
0.0000416333007388
 46
6.658832854632235
 79
     2
 49
4.900812602129348
 49
-1551.097951008251
 53
173.8580000000001
 43
281.8478043689574
 44
7609.570944350572
 45
0.0000416333007388
 46
6.658832854632235
 79
     2
 49
4.900812602129348
 49
-1551.097951008251
 53
173.8580000000001
 43
304.2690803190089
 44
7609.570944350572
 45
0.0000416333007388
 46
6.658832854632235
 79
     2
 49
4.900812602129348
 49
-1551.097951008251
 53
173.8580000000001
 43
326.6903562690677
 44
7609.570944350572
 45
0.0000416333007388
 46
6.658832854632235
 79
     2
 49
4.900812602129348
 49
-1551.097951008251
 53
173.8580000000001
 43
349.1116322191337
 44
7609.570944350572
 45
0.0000416333007388
 46
6.658832854632235
 79
     2
 49
4.900812602129348
 49
-1551.097951008251
 53
173.8580000000001
 43
371.5329081691925
 44
7609.570944350572
 45
0.0000416333007388
 46
6.658832854632235
 79
     2
 49
4.900812602129348
 49
-1551.097951008251
 53
173.8580000000001
 43
393.9541841192513
 44
7609.570944350572
 45
0.0000416333007388
 46
6.658832854632235
 79
     2
 49
4.900812602129348
 49
-1551.097951008251
 53
173.8580000000001
 43
416.37546006931
 44
7609.570944350572
 45
0.0000416333007388
 46
6.658832854632235
 79
     2
 49
4.900812602129348
 49
-1551.097951008251
 53
173.8580000000001
 43
438.7967360193688
 44
7609.570944350572
 45
0.0000416333007388
 46
6.658832854632235
 79
     2
 49
4.900812602129348
 49
-1551.097951008251
 53
173.8580000000001
 43
461.2180119694349
 44
7609.570944350572
 45
0.0000416333007388
 46
6.658832854632235
 79
     2
 49
4.900812602129348
 49
-1551.097951008251
 53
173.8580000000001
 43
483.6392879194936
 44
7609.570944350572
 45
0.0000416333007388
 46
6.658832854632235
 79
     2
 49
4.900812602129348
 49
-1551.097951008251
 53
173.8580000000001
 43
506.0605638695524
 44
7609.570944350572
 45
0.0000416333007388
 46
6.658832854632235
 79
     2
 49
4.900812602129348
 49
-1551.097951008251
 53
173.8580000000001
 43
528.4818398196039
 44
7609.570944350572
 45
0.0000416333007388
 46
6.658832854632235
 79
     2
 49
4.900812602129348
 49
-1551.097951008251
 53
173.8580000000001
 43
550.9031157696699
 44
7609.570944350572
 45
0.0000416333007388
 46
6.658832854632235
 79
     2
 49
4.900812602129348
 49
-1551.097951008251
 53
173.8580000000001
 43
573.3243917197287
 44
7609.570944350572
 45
0.0000416333007388
 46
6.658832854632235
 79
     2
 49
4.900812602129348
 49
-1551.097951008251
 53
173.8580000000001
 43
595.7456676697947
 44
7609.570944350572
 45
0.0000416333007388
 46
6.658832854632235
 79
     2
 49
4.900812602129348
 49
-1551.097951008251
 53
173.8580000000001
 43
618.1669436198462
 44
7609.570944350572
 45
0.0000416333007388
 46
6.658832854632235
 79
     2
 49
4.900812602129348
 49
-1551.097951008251
 53
173.8580000000001
 43
640.588219569905
 44
7609.570944350572
 45
0.0000416333007388
 46
6.658832854632235
 79
     2
 49
4.900812602129348
 49
-1551.097951008251
 53
173.8580000000001
 43
663.0094955199638
 44
7609.570944350572
 45
0.0000416333007388
 46
6.658832854632235
 79
     2
 49
4.900812602129348
 49
-1551.097951008251
 53
173.8580000000001
 43
685.4307714700298
 44
7609.570944350572
 45
0.0000416333007388
 46
6.658832854632235
 79
     2
 49
4.900812602129348
 49
-1551.097951008251
 53
173.8580000000001
 43
707.8520474200886
 44
7609.570944350572
 45
0.0000416333007388
 46
6.658832854632235
 79
     2
 49
4.900812602129348
 49
-1551.097951008251
 53
173.8580000000001
 43
730.2733233701474
 44
7609.570944350572
 45
0.0000416333007388
 46
6.658832854632235
 79
     2
 49
4.900812602129348
 49
-1551.097951008251
 53
173.8580000000001
 43
752.6945993201989
 44
7609.570944350572
 45
0.0000416333007388
 46
6.658832854632235
 79
     2
 49
4.900812602129348
 49
-1551.097951008251
 53
173.8580000000001
 43
775.1158752702649
 44
7609.570944350572
 45
0.0000416333007388
 46
6.658832854632235
 79
     2
 49
4.900812602129348
 49
-1551.097951008251
 53
173.8580000000001
 43
797.5371512203237
 44
7609.570944350572
 45
0.0000416333007388
 46
6.658832854632235
 79
     2
 49
4.900812602129348
 49
-1551.097951008251
 53
173.8580000000001
 43
819.9584271703752
 44
7609.570944350572
 45
0.0000416333007388
 46
6.658832854632235
 79
     2
 49
4.900812602129348
 49
-1551.097951008251
 53
173.8580000000001
 43
842.3797031204411
 44
7609.570944350572
 45
0.0000416333007388
 46
6.658832854632235
 79
     2
 49
4.900812602129348
 49
-1551.097951008251
 53
173.8580000000001
 43
864.8009790705
 44
7609.570944350572
 45
0.0000416333007388
 46
6.658832854632235
 79
     2
 49
4.900812602129348
 49
-1551.097951008251
 53
173.8580000000001
 43
887.2222550205588
 44
7609.570944350572
 45
0.0000416333007388
 46
6.658832854632235
 79
     2
 49
4.900812602129348
 49
-1551.097951008251
 53
173.8580000000001
 43
909.6435309706249
 44
7609.570944350572
 45
0.0000416333007388
 46
6.658832854632235
 79
     2
 49
4.900812602129348
 49
-1551.097951008251
 53
173.8580000000001
 43
932.0648069206836
 44
7609.570944350572
 45
0.0000416333007388
 46
6.658832854632235
 79
     2
 49
4.900812602129348
 49
-1551.097951008251
 53
173.8580000000001
 43
954.4860828707351
 44
7609.570944350572
 45
0.0000416333007388
 46
6.658832854632235
 79
     2
 49
4.900812602129348
 49
-1551.097951008251
 53
173.8580000000001
 43
976.9073588208012
 44
7609.570944350572
 45
0.0000416333007388
 46
6.658832854632235
 79
     2
 49
4.900812602129348
 49
-1551.097951008251
 53
173.8580000000001
 43
999.3286347708599
 44
7609.570944350572
 45
0.0000416333007388
 46
6.658832854632235
 79
     2
 49
4.900812602129348
 49
-1551.097951008251
 53
173.8580000000001
 43
1021.749910720926
 44
7609.570944350572
 45
0.0000416333007388
 46
6.658832854632235
 79
     2
 49
4.900812602129348
 49
-1551.097951008251
 53
173.8580000000001
 43
1044.17118667097
 44
7609.570944350572
 45
0.0000416333007388
 46
6.658832854632235
 79
     2
 49
4.900812602129348
 49
-1551.097951008251
 53
173.8580000000001
 43
1066.592462621036
 44
7609.570944350572
 45
0.0000416333007388
 46
6.658832854632235
 79
     2
 49
4.900812602129348
 49
-1551.097951008251
 53
173.8580000000001
 43
1089.013738571095
 44
7609.570944350572
 45
0.0000416333007388
 46
6.658832854632235
 79
     2
 49
4.900812602129348
 49
-1551.097951008251
 53
173.8580000000001
 43
1111.435014521154
 44
7609.570944350572
 45
0.0000416333007388
 46
6.658832854632235
 79
     2
 49
4.900812602129348
 49
-1551.097951008251
 53
173.8580000000001
 43
1133.856290471212
 44
7609.570944350572
 45
0.0000416333007388
 46
6.658832854632235
 79
     2
 49
4.900812602129348
 49
-1551.097951008251
 53
173.8580000000001
 43
1156.277566421278
 44
7609.570944350572
 45
0.0000416333007388
 46
6.658832854632235
 79
     2
 49
4.900812602129348
 49
-1551.097951008251
 53
173.8580000000001
 43
1178.698842371337
 44
7609.570944350572
 45
0.0000416333007388
 46
6.658832854632235
 79
     2
 49
4.900812602129348
 49
-1551.097951008251
 53
173.8580000000001
 43
1201.120118321389
 44
7609.570944350572
 45
0.0000416333007388
 46
6.658832854632235
 79
     2
 49
4.900812602129348
 49
-1551.097951008251
 53
173.8580000000001
 43
1223.541394271455
 44
7609.570944350572
 45
0.0000416333007388
 46
6.658832854632235
 79
     2
 49
4.900812602129348
 49
-1551.097951008251
 53
173.8580000000001
 43
1245.962670221514
 44
7609.570944350572
 45
0.0000416333007388
 46
6.658832854632235
 79
     2
 49
4.900812602129348
 49
-1551.097951008251
 53
173.253
 43
-269.5213659277269
 44
7607.054320547871
 45
-0.0000485549711043
 46
6.658842651360698
 79
     2
 49
4.499063197150475
 49
-2772.552403711932
 53
173.253
 43
-247.1001896277867
 44
7607.054320547871
 45
-0.0000485549711043
 46
6.658842651360698
 79
     2
 49
4.499063197150475
 49
-2772.552403711932
 53
173.253
 43
-224.6789136777206
 44
7607.054320547871
 45
-0.0000485549711043
 46
6.658842651360698
 79
     2
 49
4.499063197150475
 49
-2772.552403711932
 53
173.253
 43
-202.2576377276619
 44
7607.054320547871
 45
-0.0000485549711043
 46
6.658842651360698
 79
     2
 49
4.499063197150475
 49
-2772.552403711932
 53
173.253
 43
-179.8363617776031
 44
7607.054320547871
 45
-0.0000485549711043
 46
6.658842651360698
 79
     2
 49
4.499063197150475
 49
-2772.552403711932
 53
173.253
 43
-157.4150858275443
 44
7607.054320547871
 45
-0.0000485549711043
 46
6.658842651360698
 79
     2
 49
4.499063197150475
 49
-2772.552403711932
 53
173.253
 43
-134.9938098774782
 44
7607.054320547871
 45
-0.0000485549711043
 46
6.658842651360698
 79
     2
 49
4.499063197150475
 49
-2772.552403711932
 53
173.253
 43
-112.5725339274268
 44
7607.054320547871
 45
-0.0000485549711043
 46
6.658842651360698
 79
     2
 49
4.499063197150475
 49
-2772.552403711932
 53
173.253
 43
-90.15125797736073
 44
7607.054320547871
 45
-0.0000485549711043
 46
6.658842651360698
 79
     2
 49
4.499063197150475
 49
-2772.552403711932
 53
173.253
 43
-67.7307792282354
 44
7607.054320547871
 45
-0.0000485549711043
 46
6.658842651360698
 79
     2
 49
4.499063197150475
 49
-2772.552403711932
 53
173.253
 43
-45.30950327817663
 44
7607.054320547871
 45
-0.0000485549711043
 46
6.658842651360698
 79
     2
 49
4.499063197150475
 49
-2772.552403711932
 53
173.253
 43
-22.88822732810877
 44
7607.054320547871
 45
-0.0000485549711043
 46
6.658842651360698
 79
     2
 49
4.499063197150475
 49
-2772.552403711932
 53
173.253
 43
-0.4669513780499984
 44
7607.054320547871
 45
-0.0000485549711043
 46
6.658842651360698
 79
     2
 49
4.499063197150475
 49
-2772.552403711932
 53
173.253
 43
21.95432457200877
 44
7607.054320547871
 45
-0.0000485549711043
 46
6.658842651360698
 79
     2
 49
4.499063197150475
 49
-2772.552403711932
 53
173.253
 43
44.37560052207482
 44
7607.054320547871
 45
-0.0000485549711043
 46
6.658842651360698
 79
     2
 49
4.499063197150475
 49
-2772.552403711932
 53
173.253
 43
66.79687647213359
 44
7607.054320547871
 45
-0.0000485549711043
 46
6.658842651360698
 79
     2
 49
4.499063197150475
 49
-2772.552403711932
 53
173.253
 43
89.21815242219237
 44
7607.054320547871
 45
-0.0000485549711043
 46
6.658842651360698
 79
     2
 49
4.499063197150475
 49
-2772.552403711932
 53
173.253
 43
111.6394283722511
 44
7607.054320547871
 45
-0.0000485549711043
 46
6.658842651360698
 79
     2
 49
4.499063197150475
 49
-2772.552403711932
 53
173.253
 43
134.0607043223099
 44
7607.054320547871
 45
-0.0000485549711043
 46
6.658842651360698
 79
     2
 49
4.499063197150475
 49
-2772.552403711932
 53
173.253
 43
156.4819802723759
 44
7607.054320547871
 45
-0.0000485549711043
 46
6.658842651360698
 79
     2
 49
4.499063197150475
 49
-2772.552403711932
 53
173.253
 43
178.9032562224347
 44
7607.054320547871
 45
-0.0000485549711043
 46
6.658842651360698
 79
     2
 49
4.499063197150475
 49
-2772.552403711932
 53
173.253
 43
201.3245321724862
 44
7607.054320547871
 45
-0.0000485549711043
 46
6.658842651360698
 79
     2
 49
4.499063197150475
 49
-2772.552403711932
 53
173.253
 43
223.7458081225522
 44
7607.054320547871
 45
-0.0000485549711043
 46
6.658842651360698
 79
     2
 49
4.499063197150475
 49
-2772.552403711932
 53
173.253
 43
246.167084072611
 44
7607.054320547871
 45
-0.0000485549711043
 46
6.658842651360698
 79
     2
 49
4.499063197150475
 49
-2772.552403711932
 53
173.253
 43
268.5883600226771
 44
7607.054320547871
 45
-0.0000485549711043
 46
6.658842651360698
 79
     2
 49
4.499063197150475
 49
-2772.552403711932
 53
173.253
 43
291.0096359727213
 44
7607.054320547871
 45
-0.0000485549711043
 46
6.658842651360698
 79
     2
 49
4.499063197150475
 49
-2772.552403711932
 53
173.253
 43
313.4309119227873
 44
7607.054320547871
 45
-0.0000485549711043
 46
6.658842651360698
 79
     2
 49
4.499063197150475
 49
-2772.552403711932
 53
173.253
 43
335.8521878728461
 44
7607.054320547871
 45
-0.0000485549711043
 46
6.658842651360698
 79
     2
 49
4.499063197150475
 49
-2772.552403711932
 53
173.253
 43
358.2734638229049
 44
7607.054320547871
 45
-0.0000485549711043
 46
6.658842651360698
 79
     2
 49
4.499063197150475
 49
-2772.552403711932
 53
173.253
 43
380.6947397729564
 44
7607.054320547871
 45
-0.0000485549711043
 46
6.658842651360698
 79
     2
 49
4.499063197150475
 49
-2772.552403711932
 53
173.253
 43
403.1160157230224
 44
7607.054320547871
 45
-0.0000485549711043
 46
6.658842651360698
 79
     2
 49
4.499063197150475
 49
-2772.552403711932
 53
173.253
 43
425.5372916730811
 44
7607.054320547871
 45
-0.0000485549711043
 46
6.658842651360698
 79
     2
 49
4.499063197150475
 49
-2772.552403711932
 53
173.253
 43
447.9585676231472
 44
7607.054320547871
 45
-0.0000485549711043
 46
6.658842651360698
 79
     2
 49
4.499063197150475
 49
-2772.552403711932
 53
173.253
 43
470.3798435731987
 44
7607.054320547871
 45
-0.0000485549711043
 46
6.658842651360698
 79
     2
 49
4.499063197150475
 49
-2772.552403711932
 53
173.253
 43
492.8011195232575
 44
7607.054320547871
 45
-0.0000485549711043
 46
6.658842651360698
 79
     2
 49
4.499063197150475
 49
-2772.552403711932
 53
173.253
 43
515.2223954733162
 44
7607.054320547871
 45
-0.0000485549711043
 46
6.658842651360698
 79
     2
 49
4.499063197150475
 49
-2772.552403711932
 53
173.253
 43
537.6436714233823
 44
7607.054320547871
 45
-0.0000485549711043
 46
6.658842651360698
 79
     2
 49
4.499063197150475
 49
-2772.552403711932
 53
173.253
 43
560.0649473734411
 44
7607.054320547871
 45
-0.0000485549711043
 46
6.658842651360698
 79
     2
 49
4.499063197150475
 49
-2772.552403711932
 53
173.253
 43
582.4862233234998
 44
7607.054320547871
 45
-0.0000485549711043
 46
6.658842651360698
 79
     2
 49
4.499063197150475
 49
-2772.552403711932
 53
173.253
 43
604.9074992735586
 44
7607.054320547871
 45
-0.0000485549711043
 46
6.658842651360698
 79
     2
 49
4.499063197150475
 49
-2772.552403711932
 53
173.253
 43
627.3287752236174
 44
7607.054320547871
 45
-0.0000485549711043
 46
6.658842651360698
 79
     2
 49
4.499063197150475
 49
-2772.552403711932
 53
173.253
 43
649.7500511736834
 44
7607.054320547871
 45
-0.0000485549711043
 46
6.658842651360698
 79
     2
 49
4.499063197150475
 49
-2772.552403711932
 53
173.253
 43
672.1713271237422
 44
7607.054320547871
 45
-0.0000485549711043
 46
6.658842651360698
 79
     2
 49
4.499063197150475
 49
-2772.552403711932
 53
173.253
 43
694.592603073801
 44
7607.054320547871
 45
-0.0000485549711043
 46
6.658842651360698
 79
     2
 49
4.499063197150475
 49
-2772.552403711932
 53
173.253
 43
717.0138790238524
 44
7607.054320547871
 45
-0.0000485549711043
 46
6.658842651360698
 79
     2
 49
4.499063197150475
 49
-2772.552403711932
 53
173.253
 43
739.4351549739185
 44
7607.054320547871
 45
-0.0000485549711043
 46
6.658842651360698
 79
     2
 49
4.499063197150475
 49
-2772.552403711932
 53
173.253
 43
761.85643092397
 44
7607.054320547871
 45
-0.0000485549711043
 46
6.658842651360698
 79
     2
 49
4.499063197150475
 49
-2772.552403711932
 53
173.253
 43
784.2777068740433
 44
7607.054320547871
 45
-0.0000485549711043
 46
6.658842651360698
 79
     2
 49
4.499063197150475
 49
-2772.552403711932
 53
173.253
 43
806.6989828240949
 44
7607.054320547871
 45
-0.0000485549711043
 46
6.658842651360698
 79
     2
 49
4.499063197150475
 49
-2772.552403711932
 53
173.253
 43
829.1202587741535
 44
7607.054320547871
 45
-0.0000485549711043
 46
6.658842651360698
 79
     2
 49
4.499063197150475
 49
-2772.552403711932
 53
173.253
 43
851.5415347242123
 44
7607.054320547871
 45
-0.0000485549711043
 46
6.658842651360698
 79
     2
 49
4.499063197150475
 49
-2772.552403711932
 53
173.253
 43
873.9628106742785
 44
7607.054320547871
 45
-0.0000485549711043
 46
6.658842651360698
 79
     2
 49
4.499063197150475
 49
-2772.552403711932
 53
173.253
 43
896.3840866243227
 44
7607.054320547871
 45
-0.0000485549711043
 46
6.658842651360698
 79
     2
 49
4.499063197150475
 49
-2772.552403711932
 53
173.253
 43
918.8053625743959
 44
7607.054320547871
 45
-0.0000485549711043
 46
6.658842651360698
 79
     2
 49
4.499063197150475
 49
-2772.552403711932
 53
173.253
 43
941.2266385244475
 44
7607.054320547871
 45
-0.0000485549711043
 46
6.658842651360698
 79
     2
 49
4.499063197150475
 49
-2772.552403711932
 53
173.253
 43
963.6479144745136
 44
7607.054320547871
 45
-0.0000485549711043
 46
6.658842651360698
 79
     2
 49
4.499063197150475
 49
-2772.552403711932
 53
173.253
 43
986.0691904245722
 44
7607.054320547871
 45
-0.0000485549711043
 46
6.658842651360698
 79
     2
 49
4.499063197150475
 49
-2772.552403711932
 53
173.253
 43
1008.490466374638
 44
7607.054320547871
 45
-0.0000485549711043
 46
6.658842651360698
 79
     2
 49
4.499063197150475
 49
-2772.552403711932
 53
173.253
 43
1030.911742324682
 44
7607.054320547871
 45
-0.0000485549711043
 46
6.658842651360698
 79
     2
 49
4.499063197150475
 49
-2772.552403711932
 53
173.253
 43
1053.333018274748
 44
7607.054320547871
 45
-0.0000485549711043
 46
6.658842651360698
 79
     2
 49
4.499063197150475
 49
-2772.552403711932
 53
173.253
 43
1075.754294224807
 44
7607.054320547871
 45
-0.0000485549711043
 46
6.658842651360698
 79
     2
 49
4.499063197150475
 49
-2772.552403711932
 53
173.253
 43
1098.175570174873
 44
7607.054320547871
 45
-0.0000485549711043
 46
6.658842651360698
 79
     2
 49
4.499063197150475
 49
-2772.552403711932
 53
173.253
 43
1120.596846124917
 44
7607.054320547871
 45
-0.0000485549711043
 46
6.658842651360698
 79
     2
 49
4.499063197150475
 49
-2772.552403711932
 53
173.253
 43
1143.018122074991
 44
7607.054320547871
 45
-0.0000485549711043
 46
6.658842651360698
 79
     2
 49
4.499063197150475
 49
-2772.552403711932
 53
173.253
 43
1165.439398025042
 44
7607.054320547871
 45
-0.0000485549711043
 46
6.658842651360698
 79
     2
 49
4.499063197150475
 49
-2772.552403711932
 53
173.253
 43
1187.860673975108
 44
7607.054320547871
 45
-0.0000485549711043
 46
6.658842651360698
 79
     2
 49
4.499063197150475
 49
-2772.552403711932
 53
173.253
 43
1210.28194992516
 44
7607.054320547871
 45
-0.0000485549711043
 46
6.658842651360698
 79
     2
 49
4.499063197150475
 49
-2772.552403711932
 53
173.253
 43
1232.703225875233
 44
7607.054320547871
 45
-0.0000485549711043
 46
6.658842651360698
 79
     2
 49
4.499063197150475
 49
-2772.552403711932
 53
173.253
 43
1255.124501825277
 44
7607.054320547871
 45
-0.0000485549711043
 46
6.658842651360698
 79
     2
 49
4.499063197150475
 49
-2772.552403711932
 53
173.253
 43
1277.545777775343
 44
7607.054320547871
 45
-0.0000485549711043
 46
6.658842651360698
 79
     2
 49
4.499063197150475
 49
-2772.552403711932
 53
173.253
 43
1299.967053725402
 44
7607.054320547871
 45
-0.0000485549711043
 46
6.658842651360698
 79
     2
 49
4.499063197150475
 49
-2772.552403711932
 53
173.253
 43
1322.388329675461
 44
7607.054320547871
 45
-0.0000485549711043
 46
6.658842651360698
 79
     2
 49
4.499063197150475
 49
-2772.552403711932
 53
173.253
 43
1344.809605625512
 44
7607.054320547871
 45
-0.0000485549711043
 46
6.658842651360698
 79
     2
 49
4.499063197150475
 49
-2772.552403711932
 53
173.253
 43
1367.230881575579
 44
7607.054320547871
 45
-0.0000485549711043
 46
6.658842651360698
 79
     2
 49
4.499063197150475
 49
-2772.552403711932
 53
173.253
 43
1389.652157525637
 44
7607.054320547871
 45
-0.0000485549711043
 46
6.658842651360698
 79
     2
 49
4.499063197150475
 49
-2772.552403711932
 53
173.253
 43
1412.073433475703
 44
7607.054320547871
 45
-0.0000485549711043
 46
6.658842651360698
 79
     2
 49
4.499063197150475
 49
-2772.552403711932
 53
173.253
 43
1434.494709425762
 44
7607.054320547871
 45
-0.0000485549711043
 46
6.658842651360698
 79
     2
 49
4.499063197150475
 49
-2772.552403711932
 53
173.253
 43
1456.915985375814
 44
7607.054320547871
 45
-0.0000485549711043
 46
6.658842651360698
 79
     2
 49
4.499063197150475
 49
-2772.552403711932
 53
173.253
 43
1479.33726132588
 44
7607.054320547871
 45
-0.0000485549711043
 46
6.658842651360698
 79
     2
 49
4.499063197150475
 49
-2772.552403711932
 53
173.253
 43
1501.758537275938
 44
7607.054320547871
 45
-0.0000485549711043
 46
6.658842651360698
 79
     2
 49
4.499063197150475
 49
-2772.552403711932
 53
173.253
 43
1524.179813226004
 44
7607.054320547871
 45
-0.0000485549711043
 46
6.658842651360698
 79
     2
 49
4.499063197150475
 49
-2772.552403711932
 53
173.253
 43
1546.601089176056
 44
7607.054320547871
 45
-0.0000485549711043
 46
6.658842651360698
 79
     2
 49
4.499063197150475
 49
-2772.552403711932
 53
173.253
 43
1569.022365126115
 44
7607.054320547871
 45
-0.0000485549711043
 46
6.658842651360698
 79
     2
 49
4.499063197150475
 49
-2772.552403711932
 53
173.253
 43
1591.443641076174
 44
7607.054320547871
 45
-0.0000485549711043
 46
6.658842651360698
 79
     2
 49
4.499063197150475
 49
-2772.552403711932
 53
173.253
 43
1613.86491702624
 44
7607.054320547871
 45
-0.0000485549711043
 46
6.658842651360698
 79
     2
 49
4.499063197150475
 49
-2772.552403711932
 53
173.253
 43
1636.286192976298
 44
7607.054320547871
 45
-0.0000485549711043
 46
6.658842651360698
 79
     2
 49
4.499063197150475
 49
-2772.552403711932
 53
173.253
 43
1658.70746892635
 44
7607.054320547871
 45
-0.0000485549711043
 46
6.658842651360698
 79
     2
 49
4.499063197150475
 49
-2772.552403711932
 53
173.253
 43
1681.128744876408
 44
7607.054320547871
 45
-0.0000485549711043
 46
6.658842651360698
 79
     2
 49
4.499063197150475
 49
-2772.552403711932
 53
173.253
 43
1703.550020826474
 44
7607.054320547871
 45
-0.0000485549711043
 46
6.658842651360698
 79
     2
 49
4.499063197150475
 49
-2772.552403711932
 53
173.253
 43
1725.973289778845
 44
7607.054320547871
 45
-0.0000485549711043
 46
6.658842651360698
 79
     2
 49
4.499063197150475
 49
-2772.552403711932
 53
173.253
 43
1748.394565728897
 44
7607.054320547871
 45
-0.0000485549711043
 46
6.658842651360698
 79
     2
 49
4.499063197150475
 49
-2772.552403711932
 53
173.253
 43
1770.815841678963
 44
7607.054320547871
 45
-0.0000485549711043
 46
6.658842651360698
 79
     2
 49
4.499063197150475
 49
-2772.552403711932
 53
173.253
 43
1793.237117629014
 44
7607.054320547871
 45
-0.0000485549711043
 46
6.658842651360698
 79
     2
 49
4.499063197150475
 49
-2772.552403711932
 53
173.253
 43
1815.658393579073
 44
7607.054320547871
 45
-0.0000485549711043
 46
6.658842651360698
 79
     2
 49
4.499063197150475
 49
-2772.552403711932
 53
173.253
 43
1838.079669529132
 44
7607.054320547871
 45
-0.0000485549711043
 46
6.658842651360698
 79
     2
 49
4.499063197150475
 49
-2772.552403711932
 53
173.253
 43
1860.500945479198
 44
7607.054320547871
 45
-0.0000485549711043
 46
6.658842651360698
 79
     2
 49
4.499063197150475
 49
-2772.552403711932
 53
173.253
 43
1882.922221429257
 44
7607.054320547871
 45
-0.0000485549711043
 46
6.658842651360698
 79
     2
 49
4.499063197150475
 49
-2772.552403711932
 53
173.253
 43
1905.343497379323
 44
7607.054320547871
 45
-0.0000485549711043
 46
6.658842651360698
 79
     2
 49
4.499063197150475
 49
-2772.552403711932
 53
173.253
 43
1927.764773329367
 44
7607.054320547871
 45
-0.0000485549711043
 46
6.658842651360698
 79
     2
 49
4.499063197150475
 49
-2772.552403711932
 53
173.253
 43
1950.186049279433
 44
7607.054320547871
 45
-0.0000485549711043
 46
6.658842651360698
 79
     2
 49
4.499063197150475
 49
-2772.552403711932
 53
173.253
 43
1972.607325229492
 44
7607.054320547871
 45
-0.0000485549711043
 46
6.658842651360698
 79
     2
 49
4.499063197150475
 49
-2772.552403711932
 53
173.253
 43
1995.028601179558
 44
7607.054320547871
 45
-0.0000485549711043
 46
6.658842651360698
 79
     2
 49
4.499063197150475
 49
-2772.552403711932
 53
173.253
 43
2017.449877129617
 44
7607.054320547871
 45
-0.0000485549711043
 46
6.658842651360698
 79
     2
 49
4.499063197150475
 49
-2772.552403711932
 53
173.253
 43
2039.871153079668
 44
7607.054320547871
 45
-0.0000485549711043
 46
6.658842651360698
 79
     2
 49
4.499063197150475
 49
-2772.552403711932
 53
173.253
 43
2062.292429029734
 44
7607.054320547871
 45
-0.0000485549711043
 46
6.658842651360698
 79
     2
 49
4.499063197150475
 49
-2772.552403711932
 53
173.253
 43
2084.713704979793
 44
7607.054320547871
 45
-0.0000485549711043
 46
6.658842651360698
 79
     2
 49
4.499063197150475
 49
-2772.552403711932
 53
173.253
 43
2107.134980929859
 44
7607.054320547871
 45
-0.0000485549711043
 46
6.658842651360698
 79
     2
 49
4.499063197150475
 49
-2772.552403711932
 53
173.253
 43
2129.556256879911
 44
7607.054320547871
 45
-0.0000485549711043
 46
6.658842651360698
 79
     2
 49
4.499063197150475
 49
-2772.552403711932
 53
173.253
 43
2151.977532829969
 44
7607.054320547871
 45
-0.0000485549711043
 46
6.658842651360698
 79
     2
 49
4.499063197150475
 49
-2772.552403711932
 53
173.253
 43
2174.398808780035
 44
7607.054320547871
 45
-0.0000485549711043
 46
6.658842651360698
 79
     2
 49
4.499063197150475
 49
-2772.552403711932
 53
173.253
 43
2196.820084730094
 44
7607.054320547871
 45
-0.0000485549711043
 46
6.658842651360698
 79
     2
 49
4.499063197150475
 49
-2772.552403711932
 53
173.253
 43
2219.241360680153
 44
7607.054320547871
 45
-0.0000485549711043
 46
6.658842651360698
 79
     2
 49
4.499063197150475
 49
-2772.552403711932
 53
173.253
 43
2241.662636630212
 44
7607.054320547871
 45
-0.0000485549711043
 46
6.658842651360698
 79
     2
 49
4.499063197150475
 49
-2772.552403711932
 53
173.253
 43
2264.083912580263
 44
7607.054320547871
 45
-0.0000485549711043
 46
6.658842651360698
 79
     2
 49
4.499063197150475
 49
-2772.552403711932
 53
173.253
 43
2286.505188530329
 44
7607.054320547871
 45
-0.0000485549711043
 46
6.658842651360698
 79
     2
 49
4.499063197150475
 49
-2772.552403711932
 53
173.253
 43
2308.926464480388
 44
7607.054320547871
 45
-0.0000485549711043
 46
6.658842651360698
 79
     2
 49
4.499063197150475
 49
-2772.552403711932
 53
173.253
 43
2331.347740430439
 44
7607.054320547871
 45
-0.0000485549711043
 46
6.658842651360698
 79
     2
 49
4.499063197150475
 49
-2772.552403711932
 53
173.253
 43
2353.769016380506
 44
7607.054320547871
 45
-0.0000485549711043
 46
6.658842651360698
 79
     2
 49
4.499063197150475
 49
-2772.552403711932
 53
173.253
 43
2376.190292330564
 44
7607.054320547871
 45
-0.0000485549711043
 46
6.658842651360698
 79
     2
 49
4.499063197150475
 49
-2772.552403711932
 53
173.253
 43
2398.611568280623
 44
7607.054320547871
 45
-0.0000485549711043
 46
6.658842651360698
 79
     2
 49
4.499063197150475
 49
-2772.552403711932
 53
173.253
 43
2421.032844230682
 44
7607.054320547871
 45
-0.0000485549711043
 46
6.658842651360698
 79
     2
 49
4.499063197150475
 49
-2772.552403711932
 53
173.253
 43
2443.454120180748
 44
7607.054320547871
 45
-0.0000485549711043
 46
6.658842651360698
 79
     2
 49
4.499063197150475
 49
-2772.552403711932
 53
173.253
 43
2465.8753961308
 44
7607.054320547871
 45
-0.0000485549711043
 46
6.658842651360698
 79
     2
 49
4.499063197150475
 49
-2772.552403711932
 53
164.891
 43
-267.3851664053273
 44
7606.079423539537
 45
0.0000018505729219
 46
6.658832203888029
 79
     2
 49
2.21249165070574
 49
-253.2524971607662
 53
164.891
 43
-244.9638904552612
 44
7606.079423539537
 45
0.0000018505729219
 46
6.658832203888029
 79
     2
 49
2.21249165070574
 49
-253.2524971607662
 53
164.891
 43
-222.5426145052024
 44
7606.079423539537
 45
0.0000018505729219
 46
6.658832203888029
 79
     2
 49
2.21249165070574
 49
-253.2524971607662
 53
164.891
 43
-200.1213385551364
 44
7606.079423539537
 45
0.0000018505729219
 46
6.658832203888029
 79
     2
 49
2.21249165070574
 49
-253.2524971607662
 53
164.891
 43
-177.7000626050776
 44
7606.079423539537
 45
0.0000018505729219
 46
6.658832203888029
 79
     2
 49
2.21249165070574
 49
-253.2524971607662
 53
164.891
 43
-155.2787866550261
 44
7606.079423539537
 45
0.0000018505729219
 46
6.658832203888029
 79
     2
 49
2.21249165070574
 49
-253.2524971607662
 53
164.891
 43
-132.8575107049601
 44
7606.079423539537
 45
0.0000018505729219
 46
6.658832203888029
 79
     2
 49
2.21249165070574
 49
-253.2524971607662
 53
164.891
 43
-110.4362347549013
 44
7606.079423539537
 45
0.0000018505729219
 46
6.658832203888029
 79
     2
 49
2.21249165070574
 49
-253.2524971607662
 53
164.891
 43
-88.01555670553899
 44
7606.079423539537
 45
0.0000018505729219
 46
6.658832203888029
 79
     2
 49
2.21249165070574
 49
-253.2524971607662
 53
164.891
 43
-65.59428075547294
 44
7606.079423539537
 45
0.0000018505729219
 46
6.658832203888029
 79
     2
 49
2.21249165070574
 49
-253.2524971607662
 53
164.891
 43
-43.17300480541962
 44
7606.079423539537
 45
0.0000018505729219
 46
6.658832203888029
 79
     2
 49
2.21249165070574
 49
-253.2524971607662
 53
157.062
 43
-273.9891589186791
 44
7607.583921050824
 45
-0.000049262359214
 46
6.658841673965036
 79
     2
 49
5.098976821481786
 49
-968.7608133197091
 53
157.062
 43
-251.5679028986469
 44
7607.583921050824
 45
-0.000049262359214
 46
6.658841673965036
 79
     2
 49
5.098976821481786
 49
-968.7608133197091
 53
157.062
 43
-229.1466269485882
 44
7607.583921050824
 45
-0.000049262359214
 46
6.658841673965036
 79
     2
 49
5.098976821481786
 49
-968.7608133197091
 53
157.062
 43
-206.7253509985294
 44
7607.583921050824
 45
-0.000049262359214
 46
6.658841673965036
 79
     2
 49
5.098976821481786
 49
-968.7608133197091
 53
157.062
 43
-184.3040750484633
 44
7607.583921050824
 45
-0.000049262359214
 46
6.658841673965036
 79
     2
 49
5.098976821481786
 49
-968.7608133197091
 53
157.062
 43
-161.8827990984045
 44
7607.583921050824
 45
-0.000049262359214
 46
6.658841673965036
 79
     2
 49
5.098976821481786
 49
-968.7608133197091
 53
157.062
 43
-139.4615231483458
 44
7607.583921050824
 45
-0.000049262359214
 46
6.658841673965036
 79
     2
 49
5.098976821481786
 49
-968.7608133197091
 53
157.062
 43
-117.0402471982943
 44
7607.583921050824
 45
-0.000049262359214
 46
6.658841673965036
 79
     2
 49
5.098976821481786
 49
-968.7608133197091
 53
157.062
 43
-94.61897124822826
 44
7607.583921050824
 45
-0.000049262359214
 46
6.658841673965036
 79
     2
 49
5.098976821481786
 49
-968.7608133197091
 53
157.062
 43
-72.19709739747305
 44
7607.583921050824
 45
-0.000049262359214
 46
6.658841673965036
 79
     2
 49
5.098976821481786
 49
-968.7608133197091
 53
157.062
 43
-49.77582144741427
 44
7607.583921050824
 45
-0.000049262359214
 46
6.658841673965036
 79
     2
 49
5.098976821481786
 49
-968.7608133197091
 53
157.062
 43
-27.35454549736096
 44
7607.583921050824
 45
-0.000049262359214
 46
6.658841673965036
 79
     2
 49
5.098976821481786
 49
-968.7608133197091
 53
157.062
 43
-4.933269547294912
 44
7607.583921050824
 45
-0.000049262359214
 46
6.658841673965036
 79
     2
 49
5.098976821481786
 49
-968.7608133197091
 53
157.062
 43
17.4880064027493
 44
7607.583921050824
 45
-0.000049262359214
 46
6.658841673965036
 79
     2
 49
5.098976821481786
 49
-968.7608133197091
 53
157.062
 43
39.90928235282991
 44
7607.583921050824
 45
-0.000049262359214
 46
6.658841673965036
 79
     2
 49
5.098976821481786
 49
-968.7608133197091
 53
157.062
 43
62.33055830287412
 44
7607.583921050824
 45
-0.000049262359214
 46
6.658841673965036
 79
     2
 49
5.098976821481786
 49
-968.7608133197091
 53
157.062
 43
84.75183425294018
 44
7607.583921050824
 45
-0.000049262359214
 46
6.658841673965036
 79
     2
 49
5.098976821481786
 49
-968.7608133197091
 53
157.062
 43
107.1731102029989
 44
7607.583921050824
 45
-0.000049262359214
 46
6.658841673965036
 79
     2
 49
5.098976821481786
 49
-968.7608133197091
 53
157.062
 43
129.594386153065
 44
7607.583921050824
 45
-0.000049262359214
 46
6.658841673965036
 79
     2
 49
5.098976821481786
 49
-968.7608133197091
 53
157.062
 43
152.0156621031165
 44
7607.583921050824
 45
-0.000049262359214
 46
6.658841673965036
 79
     2
 49
5.098976821481786
 49
-968.7608133197091
 53
157.062
 43
174.4369380531752
 44
7607.583921050824
 45
-0.000049262359214
 46
6.658841673965036
 79
     2
 49
5.098976821481786
 49
-968.7608133197091
 53
157.062
 43
196.858214003234
 44
7607.583921050824
 45
-0.000049262359214
 46
6.658841673965036
 79
     2
 49
5.098976821481786
 49
-968.7608133197091
 53
157.062
 43
219.2794899533001
 44
7607.583921050824
 45
-0.000049262359214
 46
6.658841673965036
 79
     2
 49
5.098976821481786
 49
-968.7608133197091
 53
157.062
 43
241.7007659033588
 44
7607.583921050824
 45
-0.000049262359214
 46
6.658841673965036
 79
     2
 49
5.098976821481786
 49
-968.7608133197091
 53
157.062
 43
264.1220418534103
 44
7607.583921050824
 45
-0.000049262359214
 46
6.658841673965036
 79
     2
 49
5.098976821481786
 49
-968.7608133197091
 53
157.062
 43
286.5433178034764
 44
7607.583921050824
 45
-0.000049262359214
 46
6.658841673965036
 79
     2
 49
5.098976821481786
 49
-968.7608133197091
 53
157.062
 43
308.9645937535351
 44
7607.583921050824
 45
-0.000049262359214
 46
6.658841673965036
 79
     2
 49
5.098976821481786
 49
-968.7608133197091
 53
157.062
 43
331.3858697035866
 44
7607.583921050824
 45
-0.000049262359214
 46
6.658841673965036
 79
     2
 49
5.098976821481786
 49
-968.7608133197091
 53
157.062
 43
353.8071456536527
 44
7607.583921050824
 45
-0.000049262359214
 46
6.658841673965036
 79
     2
 49
5.098976821481786
 49
-968.7608133197091
 53
157.062
 43
376.2284216037115
 44
7607.583921050824
 45
-0.000049262359214
 46
6.658841673965036
 79
     2
 49
5.098976821481786
 49
-968.7608133197091
 53
157.062
 43
398.6496975537702
 44
7607.583921050824
 45
-0.000049262359214
 46
6.658841673965036
 79
     2
 49
5.098976821481786
 49
-968.7608133197091
 53
157.062
 43
421.070973503829
 44
7607.583921050824
 45
-0.000049262359214
 46
6.658841673965036
 79
     2
 49
5.098976821481786
 49
-968.7608133197091
 53
157.062
 43
443.492249453895
 44
7607.583921050824
 45
-0.000049262359214
 46
6.658841673965036
 79
     2
 49
5.098976821481786
 49
-968.7608133197091
 53
157.062
 43
465.9135254039465
 44
7607.583921050824
 45
-0.000049262359214
 46
6.658841673965036
 79
     2
 49
5.098976821481786
 49
-968.7608133197091
 53
157.062
 43
488.3348013540053
 44
7607.583921050824
 45
-0.000049262359214
 46
6.658841673965036
 79
     2
 49
5.098976821481786
 49
-968.7608133197091
 53
157.062
 43
510.7560773040713
 44
7607.583921050824
 45
-0.000049262359214
 46
6.658841673965036
 79
     2
 49
5.098976821481786
 49
-968.7608133197091
 53
157.062
 43
533.1773532541301
 44
7607.583921050824
 45
-0.000049262359214
 46
6.658841673965036
 79
     2
 49
5.098976821481786
 49
-968.7608133197091
 53
157.062
 43
555.5986292041816
 44
7607.583921050824
 45
-0.000049262359214
 46
6.658841673965036
 79
     2
 49
5.098976821481786
 49
-968.7608133197091
 53
157.062
 43
578.0199051542403
 44
7607.583921050824
 45
-0.000049262359214
 46
6.658841673965036
 79
     2
 49
5.098976821481786
 49
-968.7608133197091
 53
157.062
 43
600.4411811043064
 44
7607.583921050824
 45
-0.000049262359214
 46
6.658841673965036
 79
     2
 49
5.098976821481786
 49
-968.7608133197091
 53
142.435
 43
-283.5577025031725
 44
7603.614724422429
 45
0.0000333619258157
 46
6.658835289119042
 79
     2
 49
2.738006498929002
 49
-1100.412526831495
 53
142.435
 43
-261.1365062732057
 44
7603.614724422429
 45
0.0000333619258157
 46
6.658835289119042
 79
     2
 49
2.738006498929002
 49
-1100.412526831495
 53
142.435
 43
-238.7152303231469
 44
7603.614724422429
 45
0.0000333619258157
 46
6.658835289119042
 79
     2
 49
2.738006498929002
 49
-1100.412526831495
 53
142.435
 43
-216.2939543730954
 44
7603.614724422429
 45
0.0000333619258157
 46
6.658835289119042
 79
     2
 49
2.738006498929002
 49
-1100.412526831495
 53
142.435
 43
-193.8726784230366
 44
7603.614724422429
 45
0.0000333619258157
 46
6.658835289119042
 79
     2
 49
2.738006498929002
 49
-1100.412526831495
 53
142.435
 43
-171.4514024729706
 44
7603.614724422429
 45
0.0000333619258157
 46
6.658835289119042
 79
     2
 49
2.738006498929002
 49
-1100.412526831495
 53
142.435
 43
-149.0301265229263
 44
7603.614724422429
 45
0.0000333619258157
 46
6.658835289119042
 79
     2
 49
2.738006498929002
 49
-1100.412526831495
 53
142.435
 43
-126.608850572853
 44
7603.614724422429
 45
0.0000333619258157
 46
6.658835289119042
 79
     2
 49
2.738006498929002
 49
-1100.412526831495
 53
142.435
 43
-104.1875746228015
 44
7603.614724422429
 45
0.0000333619258157
 46
6.658835289119042
 79
     2
 49
2.738006498929002
 49
-1100.412526831495
 53
142.435
 43
-81.76550147180932
 44
7603.614724422429
 45
0.0000333619258157
 46
6.658835289119042
 79
     2
 49
2.738006498929002
 49
-1100.412526831495
 53
142.435
 43
-59.34422552175056
 44
7603.614724422429
 45
0.0000333619258157
 46
6.658835289119042
 79
     2
 49
2.738006498929002
 49
-1100.412526831495
 53
142.435
 43
-36.92294957168997
 44
7603.614724422429
 45
0.0000333619258157
 46
6.658835289119042
 79
     2
 49
2.738006498929002
 49
-1100.412526831495
 53
142.435
 43
-14.5016736216312
 44
7603.614724422429
 45
0.0000333619258157
 46
6.658835289119042
 79
     2
 49
2.738006498929002
 49
-1100.412526831495
 53
142.435
 43
7.919602328434848
 44
7603.614724422429
 45
0.0000333619258157
 46
6.658835289119042
 79
     2
 49
2.738006498929002
 49
-1100.412526831495
 53
142.435
 43
30.34087827849362
 44
7603.614724422429
 45
0.0000333619258157
 46
6.658835289119042
 79
     2
 49
2.738006498929002
 49
-1100.412526831495
 53
142.435
 43
52.76215422854511
 44
7603.614724422429
 45
0.0000333619258157
 46
6.658835289119042
 79
     2
 49
2.738006498929002
 49
-1100.412526831495
 53
142.435
 43
75.18343017861116
 44
7603.614724422429
 45
0.0000333619258157
 46
6.658835289119042
 79
     2
 49
2.738006498929002
 49
-1100.412526831495
 53
142.435
 43
97.60470612866265
 44
7603.614724422429
 45
0.0000333619258157
 46
6.658835289119042
 79
     2
 49
2.738006498929002
 49
-1100.412526831495
 53
142.435
 43
120.025982078736
 44
7603.614724422429
 45
0.0000333619258157
 46
6.658835289119042
 79
     2
 49
2.738006498929002
 49
-1100.412526831495
 53
142.435
 43
142.4472580287875
 44
7603.614724422429
 45
0.0000333619258157
 46
6.658835289119042
 79
     2
 49
2.738006498929002
 49
-1100.412526831495
 53
142.435
 43
164.8685339788462
 44
7603.614724422429
 45
0.0000333619258157
 46
6.658835289119042
 79
     2
 49
2.738006498929002
 49
-1100.412526831495
 53
142.435
 43
187.289809928905
 44
7603.614724422429
 45
0.0000333619258157
 46
6.658835289119042
 79
     2
 49
2.738006498929002
 49
-1100.412526831495
 53
142.435
 43
209.7110858789711
 44
7603.614724422429
 45
0.0000333619258157
 46
6.658835289119042
 79
     2
 49
2.738006498929002
 49
-1100.412526831495
 53
142.435
 43
232.1323618290298
 44
7603.614724422429
 45
0.0000333619258157
 46
6.658835289119042
 79
     2
 49
2.738006498929002
 49
-1100.412526831495
 53
142.435
 43
254.5536377790813
 44
7603.614724422429
 45
0.0000333619258157
 46
6.658835289119042
 79
     2
 49
2.738006498929002
 49
-1100.412526831495
 53
142.435
 43
276.9749137291401
 44
7603.614724422429
 45
0.0000333619258157
 46
6.658835289119042
 79
     2
 49
2.738006498929002
 49
-1100.412526831495
 53
142.435
 43
299.3961896792061
 44
7603.614724422429
 45
0.0000333619258157
 46
6.658835289119042
 79
     2
 49
2.738006498929002
 49
-1100.412526831495
 53
142.435
 43
321.8174656292577
 44
7603.614724422429
 45
0.0000333619258157
 46
6.658835289119042
 79
     2
 49
2.738006498929002
 49
-1100.412526831495
 53
142.435
 43
344.2387415793164
 44
7603.614724422429
 45
0.0000333619258157
 46
6.658835289119042
 79
     2
 49
2.738006498929002
 49
-1100.412526831495
 53
142.435
 43
366.6600175293752
 44
7603.614724422429
 45
0.0000333619258157
 46
6.658835289119042
 79
     2
 49
2.738006498929002
 49
-1100.412526831495
 53
142.435
 43
389.0812934794412
 44
7603.614724422429
 45
0.0000333619258157
 46
6.658835289119042
 79
     2
 49
2.738006498929002
 49
-1100.412526831495
 53
142.435
 43
411.5025694295
 44
7603.614724422429
 45
0.0000333619258157
 46
6.658835289119042
 79
     2
 49
2.738006498929002
 49
-1100.412526831495
 53
142.435
 43
433.9238453795514
 44
7603.614724422429
 45
0.0000333619258157
 46
6.658835289119042
 79
     2
 49
2.738006498929002
 49
-1100.412526831495
 53
142.435
 43
456.3451213296175
 44
7603.614724422429
 45
0.0000333619258157
 46
6.658835289119042
 79
     2
 49
2.738006498929002
 49
-1100.412526831495
 53
142.435
 43
478.7663972796763
 44
7603.614724422429
 45
0.0000333619258157
 46
6.658835289119042
 79
     2
 49
2.738006498929002
 49
-1100.412526831495
 53
142.435
 43
501.1876732297423
 44
7603.614724422429
 45
0.0000333619258157
 46
6.658835289119042
 79
     2
 49
2.738006498929002
 49
-1100.412526831495
 53
142.435
 43
523.608949179801
 44
7603.614724422429
 45
0.0000333619258157
 46
6.658835289119042
 79
     2
 49
2.738006498929002
 49
-1100.412526831495
 53
142.435
 43
546.0302251298599
 44
7603.614724422429
 45
0.0000333619258157
 46
6.658835289119042
 79
     2
 49
2.738006498929002
 49
-1100.412526831495
 53
142.435
 43
568.4515010799113
 44
7603.614724422429
 45
0.0000333619258157
 46
6.658835289119042
 79
     2
 49
2.738006498929002
 49
-1100.412526831495
 53
115.046
 43
-266.1919559243088
 44
7603.525610313794
 45
-0.000053614328815
 46
6.658838208780605
 79
     2
 49
2.818862602510648
 49
-1797.918053154254
 53
115.046
 43
-243.7706799742573
 44
7603.525610313794
 45
-0.000053614328815
 46
6.658838208780605
 79
     2
 49
2.818862602510648
 49
-1797.918053154254
 53
115.046
 43
-221.3494040241985
 44
7603.525610313794
 45
-0.000053614328815
 46
6.658838208780605
 79
     2
 49
2.818862602510648
 49
-1797.918053154254
 53
115.046
 43
-198.9281280741397
 44
7603.525610313794
 45
-0.000053614328815
 46
6.658838208780605
 79
     2
 49
2.818862602510648
 49
-1797.918053154254
 53
115.046
 43
-176.5068521240737
 44
7603.525610313794
 45
-0.000053614328815
 46
6.658838208780605
 79
     2
 49
2.818862602510648
 49
-1797.918053154254
 53
115.046
 43
-154.0855761740149
 44
7603.525610313794
 45
-0.000053614328815
 46
6.658838208780605
 79
     2
 49
2.818862602510648
 49
-1797.918053154254
 53
115.046
 43
-131.6643002239561
 44
7603.525610313794
 45
-0.000053614328815
 46
6.658838208780605
 79
     2
 49
2.818862602510648
 49
-1797.918053154254
 53
115.046
 43
-109.2430242739046
 44
7603.525610313794
 45
-0.000053614328815
 46
6.658838208780605
 79
     2
 49
2.818862602510648
 49
-1797.918053154254
 53
115.046
 43
-86.82174832383134
 44
7603.525610313794
 45
-0.000053614328815
 46
6.658838208780605
 79
     2
 49
2.818862602510648
 49
-1797.918053154254
 53
115.046
 43
-64.40047237377985
 44
7603.525610313794
 45
-0.000053614328815
 46
6.658838208780605
 79
     2
 49
2.818862602510648
 49
-1797.918053154254
 53
115.046
 43
-41.97919642371198
 44
7603.525610313794
 45
-0.000053614328815
 46
6.658838208780605
 79
     2
 49
2.818862602510648
 49
-1797.918053154254
 53
115.046
 43
-19.55792047366049
 44
7603.525610313794
 45
-0.000053614328815
 46
6.658838208780605
 79
     2
 49
2.818862602510648
 49
-1797.918053154254
 53
115.046
 43
2.863355476398282
 44
7603.525610313794
 45
-0.000053614328815
 46
6.658838208780605
 79
     2
 49
2.818862602510648
 49
-1797.918053154254
 53
115.046
 43
25.28463142645705
 44
7603.525610313794
 45
-0.000053614328815
 46
6.658838208780605
 79
     2
 49
2.818862602510648
 49
-1797.918053154254
 53
115.046
 43
47.7059073765231
 44
7603.525610313794
 45
-0.000053614328815
 46
6.658838208780605
 79
     2
 49
2.818862602510648
 49
-1797.918053154254
 53
115.046
 43
70.12718332658187
 44
7603.525610313794
 45
-0.000053614328815
 46
6.658838208780605
 79
     2
 49
2.818862602510648
 49
-1797.918053154254
 53
115.046
 43
92.54845927664792
 44
7603.525610313794
 45
-0.000053614328815
 46
6.658838208780605
 79
     2
 49
2.818862602510648
 49
-1797.918053154254
 53
115.046
 43
114.9697352266994
 44
7603.525610313794
 45
-0.000053614328815
 46
6.658838208780605
 79
     2
 49
2.818862602510648
 49
-1797.918053154254
 53
115.046
 43
137.3910111767582
 44
7603.525610313794
 45
-0.000053614328815
 46
6.658838208780605
 79
     2
 49
2.818862602510648
 49
-1797.918053154254
 53
115.046
 43
159.8122871268242
 44
7603.525610313794
 45
-0.000053614328815
 46
6.658838208780605
 79
     2
 49
2.818862602510648
 49
-1797.918053154254
 53
115.046
 43
182.2335630768684
 44
7603.525610313794
 45
-0.000053614328815
 46
6.658838208780605
 79
     2
 49
2.818862602510648
 49
-1797.918053154254
 53
115.046
 43
204.6548390269418
 44
7603.525610313794
 45
-0.000053614328815
 46
6.658838208780605
 79
     2
 49
2.818862602510648
 49
-1797.918053154254
 53
115.046
 43
227.0761149769933
 44
7603.525610313794
 45
-0.000053614328815
 46
6.658838208780605
 79
     2
 49
2.818862602510648
 49
-1797.918053154254
 53
115.046
 43
249.4973909270593
 44
7603.525610313794
 45
-0.000053614328815
 46
6.658838208780605
 79
     2
 49
2.818862602510648
 49
-1797.918053154254
 53
115.046
 43
271.9186668771108
 44
7603.525610313794
 45
-0.000053614328815
 46
6.658838208780605
 79
     2
 49
2.818862602510648
 49
-1797.918053154254
 53
115.046
 43
294.3399428271841
 44
7603.525610313794
 45
-0.000053614328815
 46
6.658838208780605
 79
     2
 49
2.818862602510648
 49
-1797.918053154254
 53
115.046
 43
316.7612187772284
 44
7603.525610313794
 45
-0.000053614328815
 46
6.658838208780605
 79
     2
 49
2.818862602510648
 49
-1797.918053154254
 53
115.046
 43
339.1824947272944
 44
7603.525610313794
 45
-0.000053614328815
 46
6.658838208780605
 79
     2
 49
2.818862602510648
 49
-1797.918053154254
 53
115.046
 43
361.6037706773532
 44
7603.525610313794
 45
-0.000053614328815
 46
6.658838208780605
 79
     2
 49
2.818862602510648
 49
-1797.918053154254
 53
115.046
 43
384.0250466274192
 44
7603.525610313794
 45
-0.000053614328815
 46
6.658838208780605
 79
     2
 49
2.818862602510648
 49
-1797.918053154254
 53
115.046
 43
406.4463225774634
 44
7603.525610313794
 45
-0.000053614328815
 46
6.658838208780605
 79
     2
 49
2.818862602510648
 49
-1797.918053154254
 53
115.046
 43
428.8675985275367
 44
7603.525610313794
 45
-0.000053614328815
 46
6.658838208780605
 79
     2
 49
2.818862602510648
 49
-1797.918053154254
 53
115.046
 43
451.2888744775882
 44
7603.525610313794
 45
-0.000053614328815
 46
6.658838208780605
 79
     2
 49
2.818862602510648
 49
-1797.918053154254
 53
115.046
 43
473.7101504276543
 44
7603.525610313794
 45
-0.000053614328815
 46
6.658838208780605
 79
     2
 49
2.818862602510648
 49
-1797.918053154254
 53
104.0759999999998
 43
-285.7280022950563
 44
7605.283992402913
 45
0.0000489474577988
 46
6.658832178583098
 79
     2
 49
1.619673114586161
 49
-643.6882857354819
 53
104.0759999999998
 43
-263.3066864849443
 44
7605.283992402913
 45
0.0000489474577988
 46
6.658832178583098
 79
     2
 49
1.619673114586161
 49
-643.6882857354819
 53
104.0759999999998
 43
-240.8854105348855
 44
7605.283992402913
 45
0.0000489474577988
 46
6.658832178583098
 79
     2
 49
1.619673114586161
 49
-643.6882857354819
 53
104.0759999999998
 43
-218.4641345848195
 44
7605.283992402913
 45
0.0000489474577988
 46
6.658832178583098
 79
     2
 49
1.619673114586161
 49
-643.6882857354819
 53
104.0759999999998
 43
-196.0428586347752
 44
7605.283992402913
 45
0.0000489474577988
 46
6.658832178583098
 79
     2
 49
1.619673114586161
 49
-643.6882857354819
 53
104.0759999999998
 43
-173.6215826846946
 44
7605.283992402913
 45
0.0000489474577988
 46
6.658832178583098
 79
     2
 49
1.619673114586161
 49
-643.6882857354819
 53
104.0759999999998
 43
-151.2003067346504
 44
7605.283992402913
 45
0.0000489474577988
 46
6.658832178583098
 79
     2
 49
1.619673114586161
 49
-643.6882857354819
 98
        1
 10
421.2936856937922
 20
1234.564204565427
  0
LWPOLYLINE
  5
9182
330
67
100
AcDbEntity
  8
F_01 sichtbar
370
    13
100
AcDbPolyline
 90
        8
 70
     1
 43
0.0
 10
507.1371804852788
 20
415.6101747346138
 10
509.1371804852788
 20
415.6101747346138
 10
510.1371804852788
 20
414.6101747346137
 10
510.1371804852788
 20
396.6101747346138
 10
509.1371804852788
 20
395.6101747346138
 10
507.1371804852788
 20
395.6101747346138
 10
506.1371804852788
 20
396.6101747346138
 10
506.1371804852788
 20
414.6101747346137
  0
HATCH
  5
9183
330
67
100
AcDbEntity
  8
F_11 Schraffur
370
    13
100
AcDbHatch
 10
0.0
 20
0.0
 30
0.0
210
0.0
220
0.0
230
1.0
  2
SOLID
 70
     1
 71
     0
 91
        1
 92
        7
 72
     0
 73
     1
 93
        4
 10
507.1371870691836
 20
327.1101747346138
 10
504.637187069191
 20
327.1101747346138
 10
504.637187069191
 20
302.1101747346138
 10
507.1371870691909
 20
302.1101747346138
 97
        0
 75
     0
 76
     1
 47
0.1231602943269245
 98
        1
 10
506.1990449054538
 20
318.7809548819523
450
        0
451
        0
460
0.0
461
0.0
452
        1
462
1.0
453
        2
463
0.0
 63
     5
421
      255
463
1.0
 63
     7
421
 16777215
470
LINEAR
1001
ACAD
1010
0.0
1020
0.0
1030
0.0
  0
LINE
  5
9184
330
67
100
AcDbEntity
  8
F_01 sichtbar
370
    13
100
AcDbLine
 10
527.7162814390648
 20
404.0903645430689
 30
0.0
 11
537.9458499977517
 21
425.0501681386804
 31
0.0
  0
SOLID
  5
9185
330
67
100
AcDbEntity
  8
F_01 sichtbar
370
    13
100
AcDbTrace
 10
529.962979740474
 20
402.9938488147554
 30
0.0
 11
525.4695831376557
 21
405.1868802713824
 31
0.0
 12
521.1371870691764
 22
390.6101747346138
 32
0.0
 13
521.1371870691764
 23
390.6101747346138
 33
0.0
  0
MTEXT
  5
9186
330
67
100
AcDbEntity
  8
F_01 sichtbar
370
    13
100
AcDbMText
 10
364.1935345889178
 20
715.610173105254
 30
0.0
 40
30.0
 41
187.1747820159653
 71
     1
 72
     5
  1
\A1;{\fArial Narrow|b1|i0|c0|p34;B}
 73
     1
 44
1.0
  0
MTEXT
  5
9187
330
67
100
AcDbEntity
  8
F_01 sichtbar
370
    13
100
AcDbMText
 10
540.539908817318
 20
438.5121534759227
 30
0.0
 40
15.0
 41
187.1747820159653
 71
     1
 72
     5
  1
\A1;{\fArial Narrow|b0|i0|c0|p34;Eiche\P\PBrandschutz-\Plaminat}
 73
     1
 44
1.0
  0
ENDSEC
  0
SECTION
  2
OBJECTS
  0
DICTIONARY
  5
C
330
0
100
AcDbDictionary
281
     1
  3
ACAD_2007HEADERVARS_RT
350
9198
  3
ACAD_COLOR
350
5E
  3
ACAD_GROUP
350
D
  3
ACAD_LAYOUT
350
5D
  3
ACAD_MATERIAL
350
10
  3
ACAD_MLEADERSTYLE
350
61
  3
ACAD_MLINESTYLE
350
5A
  3
ACAD_PLOTSETTINGS
350
5C
  3
ACAD_PLOTSTYLENAME
350
E
  3
ACAD_SCALELIST
350
3D
  3
ACAD_TABLESTYLE
350
5F
  3
ACAD_VISUALSTYLE
350
29
  3
ACDB_RECOMPOSE_DATA
350
9197
  3
AcDbVariableDictionary
350
918C
  3
AEC_PROPERTY_SET_DEFS
350
9122
  0
DICTIONARY
  5
90B7
330
2
100
AcDbDictionary
280
     1
281
     1
  3
ACAD_LAYERSTATES
360
90B8
  0
DICTIONARY
  5
90AC
330
90AB
100
AcDbDictionary
280
     1
281
     1
  0
DICTIONARY
  5
909F
330
909E
100
AcDbDictionary
280
     1
281
     1
  3
ACAD_SORTENTS
360
90A0
  0
DICTIONARY
  5
9198
102
{ACAD_REACTORS
330
C
102
}
330
C
100
AcDbDictionary
281
     1
  3
DIMJOGANG
350
9199
  0
DICTIONARY
  5
5E
102
{ACAD_REACTORS
330
C
102
}
330
C
100
AcDbDictionary
281
     1
  0
DICTIONARY
  5
D
102
{ACAD_REACTORS
330
C
102
}
330
C
100
AcDbDictionary
281
     1
  0
DICTIONARY
  5
5D
102
{ACAD_REACTORS
330
C
102
}
330
C
100
AcDbDictionary
281
     1
  3
Layout1
350
66
  3
Layout2
350
6E
  3
Model
350
6A
  0
DICTIONARY
  5
10
102
{ACAD_REACTORS
330
C
102
}
330
C
100
AcDbDictionary
281
     1
  3
ByBlock
350
19
  3
ByLayer
350
11
  3
Global
350
21
  0
DICTIONARY
  5
61
102
{ACAD_REACTORS
330
C
102
}
330
C
100
AcDbDictionary
281
     1
  3
Standard
350
62
  0
DICTIONARY
  5
5A
102
{ACAD_REACTORS
330
C
102
}
330
C
100
AcDbDictionary
281
     1
  3
Standard
350
5B
  0
DICTIONARY
  5
5C
102
{ACAD_REACTORS
330
C
102
}
330
C
100
AcDbDictionary
281
     1
  0
ACDBDICTIONARYWDFLT
  5
E
102
{ACAD_REACTORS
330
C
102
}
330
C
100
AcDbDictionary
281
     1
  3
Normal
350
F
100
AcDbDictionaryWithDefault
340
F
  0
DICTIONARY
  5
3D
102
{ACAD_REACTORS
330
C
102
}
330
C
100
AcDbDictionary
281
     1
  3
A0
350
3E
  3
A1
350
3F
  3
A2
350
40
  3
A3
350
41
  3
A4
350
42
  3
A5
350
43
  3
A6
350
44
  3
A7
350
45
  3
A8
350
46
  3
A9
350
47
  3
B0
350
48
  3
B1
350
49
  3
B2
350
4A
  3
B3
350
4B
  3
B4
350
4C
  3
B5
350
4D
  3
B6
350
4E
  0
DICTIONARY
  5
5F
102
{ACAD_REACTORS
330
C
102
}
330
C
100
AcDbDictionary
281
     1
  3
Standard
350
60
  0
DICTIONARY
  5
29
102
{ACAD_REACTORS
330
C
102
}
330
C
100
AcDbDictionary
281
     1
  3
2dWireframe
350
2F
  3
3D Hidden
350
31
  3
3dWireframe
350
30
  3
Basic
350
2E
  3
Brighten
350
35
  3
ColorChange
350
39
  3
Conceptual
350
32
  3
Dim
350
34
  3
EdgeColorOff
350
3C
  3
Facepattern
350
38
  3
Flat
350
2A
  3
FlatWithEdges
350
2B
  3
Gouraud
350
2C
  3
GouraudWithEdges
350
2D
  3
JitterOff
350
3A
  3
Linepattern
350
37
  3
OverhangOff
350
3B
  3
Realistic
350
33
  3
Thicken
350
36
  0
XRECORD
  5
9197
102
{ACAD_REACTORS
330
C
102
}
330
C
100
AcDbXrecord
280
     1
 90
        1
330
60
  0
DICTIONARY
  5
918C
102
{ACAD_REACTORS
330
C
102
}
330
C
100
AcDbDictionary
281
     1
  3
CANNOSCALE
350
9190
  3
CMLEADERSTYLE
350
918E
  3
CTABLESTYLE
350
918D
  3
LAYEREVAL
350
9192
  3
LAYERNOTIFY
350
9193
  3
LIGHTINGUNITS
350
9191
  3
MSLTSCALE
350
918F
  3
XCLIPFRAME
350
9194
  0
DICTIONARY
  5
9122
102
{ACAD_REACTORS
330
C
102
}
330
C
100
AcDbDictionary
281
     1
  0
DICTIONARY
  5
90B8
102
{ACAD_REACTORS
330
90B7
102
}
330
90B7
100
AcDbDictionary
281
     1
  0
SORTENTSTABLE
  5
90A0
102
{ACAD_REACTORS
330
909F
102
}
330
909F
100
AcDbSortentsTable
330
909E
  0
XRECORD
  5
9199
102
{ACAD_REACTORS
330
9198
102
}
330
9198
100
AcDbXrecord
280
     1
 40
1.570796326794896
  0
LAYOUT
  5
66
102
{ACAD_REACTORS
330
5D
102
}
330
5D
100
AcDbPlotSettings
  1

  2
HP Deskjet 1280 series
  4

  6

 40
0.0
 41
0.0
 42
0.0
 43
0.0
 44
0.0
 45
0.0
 46
0.0
 47
0.0
 48
0.0
 49
0.0
140
0.0
141
0.0
142
1.0
143
1.0
 70
   688
 72
     0
 73
     0
 74
     5
  7

 75
    16
147
1.0
 76
     0
 77
     2
 78
   300
148
0.0
149
0.0
100
AcDbLayout
  1
Layout1
 70
     1
 71
     1
 10
0.0
 20
0.0
 11
420.0
 21
297.0
 12
0.0
 22
0.0
 32
0.0
 14
1.000000000000000E+20
 24
1.000000000000000E+20
 34
1.000000000000000E+20
 15
-1.000000000000000E+20
 25
-1.000000000000000E+20
 35
-1.000000000000000E+20
146
0.0
 13
0.0
 23
0.0
 33
0.0
 16
1.0
 26
0.0
 36
0.0
 17
0.0
 27
1.0
 37
0.0
 76
     0
330
63
  0
LAYOUT
  5
6E
102
{ACAD_REACTORS
330
5D
102
}
330
5D
100
AcDbPlotSettings
  1

  2
HP Deskjet 1280 series
  4

  6

 40
0.0
 41
0.0
 42
0.0
 43
0.0
 44
0.0
 45
0.0
 46
0.0
 47
0.0
 48
0.0
 49
0.0
140
0.0
141
0.0
142
1.0
143
1.0
 70
   688
 72
     0
 73
     0
 74
     5
  7

 75
    16
147
1.0
 76
     0
 77
     2
 78
   300
148
0.0
149
0.0
100
AcDbLayout
  1
Layout2
 70
     1
 71
     2
 10
0.0
 20
0.0
 11
12.0
 21
9.0
 12
0.0
 22
0.0
 32
0.0
 14
0.0
 24
0.0
 34
0.0
 15
0.0
 25
0.0
 35
0.0
146
0.0
 13
0.0
 23
0.0
 33
0.0
 16
1.0
 26
0.0
 36
0.0
 17
0.0
 27
1.0
 37
0.0
 76
     0
330
6B
  0
LAYOUT
  5
6A
102
{ACAD_REACTORS
330
5D
102
}
330
5D
100
AcDbPlotSettings
  1

  2
HP Deskjet 1280 series
  4

  6

 40
0.0
 41
0.0
 42
0.0
 43
0.0
 44
0.0
 45
0.0
 46
0.0
 47
0.0
 48
0.0
 49
0.0
140
0.0
141
0.0
142
1.0
143
1.0
 70
  1712
 72
     0
 73
     0
 74
     0
  7

 75
     0
147
1.0
 76
     0
 77
     2
 78
   300
148
0.0
149
0.0
100
AcDbLayout
  1
Model
 70
     1
 71
     0
 10
0.0
 20
0.0
 11
12.0
 21
9.0
 12
0.0
 22
0.0
 32
0.0
 14
0.0
 24
0.0
 34
0.0
 15
0.0
 25
0.0
 35
0.0
146
0.0
 13
0.0
 23
0.0
 33
0.0
 16
1.0
 26
0.0
 36
0.0
 17
0.0
 27
1.0
 37
0.0
 76
     0
330
67
331
52
  0
MATERIAL
  5
19
102
{ACAD_XDICTIONARY
360
1A
102
}
102
{ACAD_REACTORS
330
10
102
}
330
10
100
AcDbMaterial
  1
ByBlock
 72
     0
 43
0.0208333333333333
 43
0.0
 43
0.0
 43
0.0
 43
0.0
 43
0.0208333333333333
 43
0.0
 43
0.0
 43
0.0
 43
0.0
 43
1.0
 43
0.0
 43
0.0
 43
0.0
 43
0.0
 43
1.0
 77
     0
 47
0.0208333333333333
 47
0.0
 47
0.0
 47
0.0
 47
0.0
 47
0.0208333333333333
 47
0.0
 47
0.0
 47
0.0
 47
0.0
 47
1.0
 47
0.0
 47
0.0
 47
0.0
 47
0.0
 47
1.0
171
     0
 49
0.0208333333333333
 49
0.0
 49
0.0
 49
0.0
 49
0.0
 49
0.0208333333333333
 49
0.0
 49
0.0
 49
0.0
 49
0.0
 49
1.0
 49
0.0
 49
0.0
 49
0.0
 49
0.0
 49
1.0
175
     0
142
0.0208333333333333
142
0.0
142
0.0
142
0.0
142
0.0
142
0.0208333333333333
142
0.0
142
0.0
142
0.0
142
0.0
142
1.0
142
0.0
142
0.0
142
0.0
142
0.0
142
1.0
179
     0
144
0.0208333333333333
144
0.0
144
0.0
144
0.0
144
0.0
144
0.0208333333333333
144
0.0
144
0.0
144
0.0
144
0.0
144
1.0
144
0.0
144
0.0
144
0.0
144
0.0
144
1.0
147
0.0208333333333333
147
0.0
147
0.0
147
0.0
147
0.0
147
0.0208333333333333
147
0.0
147
0.0
147
0.0
147
0.0
147
1.0
147
0.0
147
0.0
147
0.0
147
0.0
147
1.0
  0
MATERIAL
  5
11
102
{ACAD_XDICTIONARY
360
12
102
}
102
{ACAD_REACTORS
330
10
102
}
330
10
100
AcDbMaterial
  1
ByLayer
 72
     0
 43
0.0208333333333333
 43
0.0
 43
0.0
 43
0.0
 43
0.0
 43
0.0208333333333333
 43
0.0
 43
0.0
 43
0.0
 43
0.0
 43
1.0
 43
0.0
 43
0.0
 43
0.0
 43
0.0
 43
1.0
 77
     0
 47
0.0208333333333333
 47
0.0
 47
0.0
 47
0.0
 47
0.0
 47
0.0208333333333333
 47
0.0
 47
0.0
 47
0.0
 47
0.0
 47
1.0
 47
0.0
 47
0.0
 47
0.0
 47
0.0
 47
1.0
171
     0
 49
0.0208333333333333
 49
0.0
 49
0.0
 49
0.0
 49
0.0
 49
0.0208333333333333
 49
0.0
 49
0.0
 49
0.0
 49
0.0
 49
1.0
 49
0.0
 49
0.0
 49
0.0
 49
0.0
 49
1.0
175
     0
142
0.0208333333333333
142
0.0
142
0.0
142
0.0
142
0.0
142
0.0208333333333333
142
0.0
142
0.0
142
0.0
142
0.0
142
1.0
142
0.0
142
0.0
142
0.0
142
0.0
142
1.0
179
     0
144
0.0208333333333333
144
0.0
144
0.0
144
0.0
144
0.0
144
0.0208333333333333
144
0.0
144
0.0
144
0.0
144
0.0
144
1.0
144
0.0
144
0.0
144
0.0
144
0.0
144
1.0
147
0.0208333333333333
147
0.0
147
0.0
147
0.0
147
0.0
147
0.0208333333333333
147
0.0
147
0.0
147
0.0
147
0.0
147
1.0
147
0.0
147
0.0
147
0.0
147
0.0
147
1.0
  0
MATERIAL
  5
21
102
{ACAD_XDICTIONARY
360
22
102
}
102
{ACAD_REACTORS
330
10
102
}
330
10
100
AcDbMaterial
  1
Global
 72
     0
 43
0.0208333333333333
 43
0.0
 43
0.0
 43
0.0
 43
0.0
 43
0.0208333333333333
 43
0.0
 43
0.0
 43
0.0
 43
0.0
 43
1.0
 43
0.0
 43
0.0
 43
0.0
 43
0.0
 43
1.0
 77
     0
 47
0.0208333333333333
 47
0.0
 47
0.0
 47
0.0
 47
0.0
 47
0.0208333333333333
 47
0.0
 47
0.0
 47
0.0
 47
0.0
 47
1.0
 47
0.0
 47
0.0
 47
0.0
 47
0.0
 47
1.0
171
     0
 49
0.0208333333333333
 49
0.0
 49
0.0
 49
0.0
 49
0.0
 49
0.0208333333333333
 49
0.0
 49
0.0
 49
0.0
 49
0.0
 49
1.0
 49
0.0
 49
0.0
 49
0.0
 49
0.0
 49
1.0
175
     0
142
0.0208333333333333
142
0.0
142
0.0
142
0.0
142
0.0
142
0.0208333333333333
142
0.0
142
0.0
142
0.0
142
0.0
142
1.0
142
0.0
142
0.0
142
0.0
142
0.0
142
1.0
179
     0
144
0.0208333333333333
144
0.0
144
0.0
144
0.0
144
0.0
144
0.0208333333333333
144
0.0
144
0.0
144
0.0
144
0.0
144
1.0
144
0.0
144
0.0
144
0.0
144
0.0
144
1.0
147
0.0208333333333333
147
0.0
147
0.0
147
0.0
147
0.0
147
0.0208333333333333
147
0.0
147
0.0
147
0.0
147
0.0
147
1.0
147
0.0
147
0.0
147
0.0
147
0.0
147
1.0
  0
MLEADERSTYLE
  5
62
102
{ACAD_REACTORS
330
61
102
}
330
61
100
AcDbMLeaderStyle
170
     2
171
     1
172
     0
 90
        2
 40
0.0
 41
0.0
173
     1
 91
-1056964608
340
56
 92
       -2
290
     1
 42
0.09
291
     1
 43
0.36
  3
Standard
 44
0.18
300

342
50
174
     1
178
     6
175
     1
176
     0
 93
-1056964608
 45
0.18
292
     0
297
     0
 46
0.18
 94
-1056964608
 47
1.0
 49
1.0
140
1.0
293
     1
141
0.0
294
     1
177
     0
142
1.0
295
     0
296
     0
143
0.125
1001
ACAD_MLEADERVER
1070
     2
  0
MLINESTYLE
  5
5B
102
{ACAD_REACTORS
330
5A
102
}
330
5A
100
AcDbMlineStyle
  2
STANDARD
 70
     0
  3

 62
   256
 51
90.0
 52
90.0
 71
     2
 49
0.5
 62
   256
  6
BYLAYER
 49
-0.5
 62
   256
  6
BYLAYER
  0
ACDBPLACEHOLDER
  5
F
102
{ACAD_REACTORS
330
E
102
}
330
E
  0
SCALE
  5
3E
102
{ACAD_REACTORS
330
3D
102
}
330
3D
100
AcDbScale
 70
     0
300
1:1
140
1.0
141
1.0
290
     1
  0
SCALE
  5
3F
102
{ACAD_REACTORS
330
3D
102
}
330
3D
100
AcDbScale
 70
     0
300
1:2
140
1.0
141
2.0
290
     0
  0
SCALE
  5
40
102
{ACAD_REACTORS
330
3D
102
}
330
3D
100
AcDbScale
 70
     0
300
1:4
140
1.0
141
4.0
290
     0
  0
SCALE
  5
41
102
{ACAD_REACTORS
330
3D
102
}
330
3D
100
AcDbScale
 70
     0
300
1:5
140
1.0
141
5.0
290
     0
  0
SCALE
  5
42
102
{ACAD_REACTORS
330
3D
102
}
330
3D
100
AcDbScale
 70
     0
300
1:8
140
1.0
141
8.0
290
     0
  0
SCALE
  5
43
102
{ACAD_REACTORS
330
3D
102
}
330
3D
100
AcDbScale
 70
     0
300
1:10
140
1.0
141
10.0
290
     0
  0
SCALE
  5
44
102
{ACAD_REACTORS
330
3D
102
}
330
3D
100
AcDbScale
 70
     0
300
1:16
140
1.0
141
16.0
290
     0
  0
SCALE
  5
45
102
{ACAD_REACTORS
330
3D
102
}
330
3D
100
AcDbScale
 70
     0
300
1:20
140
1.0
141
20.0
290
     0
  0
SCALE
  5
46
102
{ACAD_REACTORS
330
3D
102
}
330
3D
100
AcDbScale
 70
     0
300
1:30
140
1.0
141
30.0
290
     0
  0
SCALE
  5
47
102
{ACAD_REACTORS
330
3D
102
}
330
3D
100
AcDbScale
 70
     0
300
1:40
140
1.0
141
40.0
290
     0
  0
SCALE
  5
48
102
{ACAD_REACTORS
330
3D
102
}
330
3D
100
AcDbScale
 70
     0
300
1:50
140
1.0
141
50.0
290
     0
  0
SCALE
  5
49
102
{ACAD_REACTORS
330
3D
102
}
330
3D
100
AcDbScale
 70
     0
300
1:100
140
1.0
141
100.0
290
     0
  0
SCALE
  5
4A
102
{ACAD_REACTORS
330
3D
102
}
330
3D
100
AcDbScale
 70
     0
300
2:1
140
2.0
141
1.0
290
     0
  0
SCALE
  5
4B
102
{ACAD_REACTORS
330
3D
102
}
330
3D
100
AcDbScale
 70
     0
300
4:1
140
4.0
141
1.0
290
     0
  0
SCALE
  5
4C
102
{ACAD_REACTORS
330
3D
102
}
330
3D
100
AcDbScale
 70
     0
300
8:1
140
8.0
141
1.0
290
     0
  0
SCALE
  5
4D
102
{ACAD_REACTORS
330
3D
102
}
330
3D
100
AcDbScale
 70
     0
300
10:1
140
10.0
141
1.0
290
     0
  0
SCALE
  5
4E
102
{ACAD_REACTORS
330
3D
102
}
330
3D
100
AcDbScale
 70
     0
300
100:1
140
100.0
141
1.0
290
     0
  0
TABLESTYLE
  5
60
102
{ACAD_XDICTIONARY
360
9195
102
}
102
{ACAD_REACTORS
330
5F
102
}
330
5F
100
AcDbTableStyle
  3
Standard
 70
     0
 71
     0
 40
1.5
 41
1.5
280
     0
281
     0
  7
Standard
140
4.5
170
     2
 62
     0
 63
     7
283
     0
274
    -2
284
     1
 64
     0
275
    -2
285
     1
 65
     0
276
    -2
286
     1
 66
     0
277
    -2
287
     1
 67
     0
278
    -2
288
     1
 68
     0
279
    -2
289
     1
 69
     0
  7
Standard
140
6.0
170
     5
 62
     0
 63
     7
283
     0
274
    -2
284
     1
 64
     0
275
    -2
285
     1
 65
     0
276
    -2
286
     1
 66
     0
277
    -2
287
     1
 67
     0
278
    -2
288
     1
 68
     0
279
    -2
289
     1
 69
     0
  7
Standard
140
4.5
170
     5
 62
     0
 63
     7
283
     0
274
    -2
284
     1
 64
     0
275
    -2
285
     1
 65
     0
276
    -2
286
     1
 66
     0
277
    -2
287
     1
 67
     0
278
    -2
288
     1
 68
     0
279
    -2
289
     1
 69
     0
  0
VISUALSTYLE
  5
2F
102
{ACAD_XDICTIONARY
360
91A7
102
}
102
{ACAD_REACTORS
330
29
102
}
330
29
100
AcDbVisualStyle
  2
2dWireframe
 70
     4
 71
     0
 72
     2
 73
     0
 90
        0
 40
-0.6
 41
-30.0
 62
     5
 63
     7
421
 16777215
 74
     1
 91
        4
 64
     7
 65
   257
 75
     1
175
     1
 42
1.0
 92
        0
 66
   257
 43
1.0
 76
     1
 77
     6
 78
     2
 67
     7
 79
     5
170
     0
171
     0
290
     0
174
     0
 93
        1
 44
0.0
173
     0
291
     0
 45
0.0
1001
ACAD
1000
AcDbSavedByObjectVersion
1070
     0
  0
VISUALSTYLE
  5
31
102
{ACAD_XDICTIONARY
360
91AB
102
}
102
{ACAD_REACTORS
330
29
102
}
330
29
100
AcDbVisualStyle
  2
3D Hidden
 70
     6
 71
     1
 72
     2
 73
     2
 90
        0
 40
-0.6
 41
-30.0
 62
     5
 63
     7
421
 16777215
 74
     2
 91
        2
 64
     7
 65
   257
 75
     2
175
     1
 42
179.0
 92
        0
 66
   257
 43
1.0
 76
     1
 77
     6
 78
     2
 67
     7
 79
     3
170
     0
171
     0
290
     0
174
     0
 93
        1
 44
0.0
173
     0
291
     0
 45
0.0
1001
ACAD
1000
AcDbSavedByObjectVersion
1070
     0
  0
VISUALSTYLE
  5
30
102
{ACAD_XDICTIONARY
360
91A9
102
}
102
{ACAD_REACTORS
330
29
102
}
330
29
100
AcDbVisualStyle
  2
3dWireframe
 70
     5
 71
     0
 72
     2
 73
     0
 90
        0
 40
-0.6
 41
-30.0
 62
     5
 63
     7
421
 16777215
 74
     1
 91
        4
 64
     7
 65
   257
 75
     1
175
     1
 42
1.0
 92
        0
 66
   257
 43
1.0
 76
     1
 77
     6
 78
     2
 67
     7
 79
     5
170
     0
171
     0
290
     0
174
     0
 93
        1
 44
0.0
173
     0
291
     0
 45
0.0
1001
ACAD
1000
AcDbSavedByObjectVersion
1070
     0
  0
VISUALSTYLE
  5
2E
102
{ACAD_XDICTIONARY
360
91A5
102
}
102
{ACAD_REACTORS
330
29
102
}
330
29
100
AcDbVisualStyle
  2
Basic
 70
     7
 71
     1
 72
     0
 73
     1
 90
        0
 40
-0.6
 41
-30.0
 62
     5
 63
     7
421
 16777215
 74
     0
 91
        4
 64
     7
 65
   257
 75
     1
175
     1
 42
1.0
 92
        8
 66
     7
 43
1.0
 76
     1
 77
     6
 78
     2
 67
     7
 79
     5
170
     0
171
     0
290
     0
174
     0
 93
        1
 44
0.0
173
     0
291
     1
 45
0.0
1001
ACAD
1000
AcDbSavedByObjectVersion
1070
     0
  0
VISUALSTYLE
  5
35
102
{ACAD_XDICTIONARY
360
91B3
102
}
102
{ACAD_REACTORS
330
29
102
}
330
29
100
AcDbVisualStyle
  2
Brighten
 70
    12
 71
     2
 72
     2
 73
     0
 90
        0
 40
-0.6
 41
-30.0
 62
     5
 63
     7
421
 16777215
 74
     1
 91
        4
 64
     7
 65
   257
 75
     1
175
     1
 42
1.0
 92
        8
 66
     7
 43
1.0
 76
     1
 77
     6
 78
     2
 67
     7
 79
     5
170
     0
171
     0
290
     0
174
     0
 93
        1
 44
50.0
173
     0
291
     1
 45
0.0
1001
ACAD
1000
AcDbSavedByObjectVersion
1070
     0
  0
VISUALSTYLE
  5
39
102
{ACAD_XDICTIONARY
360
91BB
102
}
102
{ACAD_REACTORS
330
29
102
}
330
29
100
AcDbVisualStyle
  2
ColorChange
 70
    16
 71
     2
 72
     2
 73
     3
 90
        0
 40
-0.6
 41
-30.0
 62
     5
 63
     8
421
  8421504
 74
     1
 91
        4
 64
     7
 65
   257
 75
     1
175
     1
 42
1.0
 92
        8
 66
     8
424
  8421504
 43
1.0
 76
     1
 77
     6
 78
     2
 67
     7
 79
     5
170
     0
171
     0
290
     0
174
     0
 93
        1
 44
0.0
173
     0
291
     1
 45
0.0
1001
ACAD
1000
AcDbSavedByObjectVersion
1070
     0
  0
VISUALSTYLE
  5
32
102
{ACAD_XDICTIONARY
360
91AD
102
}
102
{ACAD_REACTORS
330
29
102
}
330
29
100
AcDbVisualStyle
  2
Conceptual
 70
     9
 71
     3
 72
     2
 73
     0
 90
        0
 40
-0.6
 41
-30.0
 62
     5
 63
     7
421
 16777215
 74
     2
 91
        2
 64
     7
 65
   257
 75
     1
175
     1
 42
179.0
 92
        8
 66
     7
 43
1.0
 76
     1
 77
     6
 78
     2
 67
     7
 79
     3
170
     0
171
     0
290
     0
174
     0
 93
        1
 44
0.0
173
     0
291
     0
 45
0.0
1001
ACAD
1000
AcDbSavedByObjectVersion
1070
     0
  0
VISUALSTYLE
  5
34
102
{ACAD_XDICTIONARY
360
91B1
102
}
102
{ACAD_REACTORS
330
29
102
}
330
29
100
AcDbVisualStyle
  2
Dim
 70
    11
 71
     2
 72
     2
 73
     0
 90
        0
 40
-0.6
 41
-30.0
 62
     5
 63
     7
421
 16777215
 74
     1
 91
        4
 64
     7
 65
   257
 75
     1
175
     1
 42
1.0
 92
        8
 66
     7
 43
1.0
 76
     1
 77
     6
 78
     2
 67
     7
 79
     5
170
     0
171
     0
290
     0
174
     0
 93
        1
 44
-50.0
173
     0
291
     1
 45
0.0
1001
ACAD
1000
AcDbSavedByObjectVersion
1070
     0
  0
VISUALSTYLE
  5
3C
102
{ACAD_XDICTIONARY
360
91C1
102
}
102
{ACAD_REACTORS
330
29
102
}
330
29
100
AcDbVisualStyle
  2
EdgeColorOff
 70
    22
 71
     2
 72
     2
 73
     0
 90
        0
 40
-0.6
 41
-30.0
 62
     5
 63
     7
421
 16777215
 74
     1
 91
        4
 64
     7
 65
   257
 75
     1
175
     1
 42
1.0
 92
        8
 66
     7
 43
1.0
 76
     1
 77
     6
 78
     2
 67
     7
 79
     5
170
     0
171
     0
290
     0
174
     0
 93
        1
 44
0.0
173
     0
291
     1
 45
0.0
1001
ACAD
1000
AcDbSavedByObjectVersion
1070
     0
  0
VISUALSTYLE
  5
38
102
{ACAD_XDICTIONARY
360
91B9
102
}
102
{ACAD_REACTORS
330
29
102
}
330
29
100
AcDbVisualStyle
  2
Facepattern
 70
    15
 71
     2
 72
     2
 73
     0
 90
        0
 40
-0.6
 41
-30.0
 62
     5
 63
     7
421
 16777215
 74
     1
 91
        4
 64
     7
 65
   257
 75
     1
175
     1
 42
1.0
 92
        8
 66
     7
 43
1.0
 76
     1
 77
     6
 78
     2
 67
     7
 79
     5
170
     0
171
     0
290
     0
174
     0
 93
        1
 44
0.0
173
     0
291
     1
 45
0.0
1001
ACAD
1000
AcDbSavedByObjectVersion
1070
     0
  0
VISUALSTYLE
  5
2A
102
{ACAD_XDICTIONARY
360
919D
102
}
102
{ACAD_REACTORS
330
29
102
}
330
29
100
AcDbVisualStyle
  2
Flat
 70
     0
 71
     2
 72
     1
 73
     1
 90
        2
 40
-0.6
 41
30.0
 62
     5
 63
     7
421
 16777215
 74
     0
 91
        4
 64
     7
 65
   257
 75
     1
175
     1
 42
1.0
 92
        8
 66
     7
 43
1.0
 76
     1
 77
     6
 78
     2
 67
     7
 79
     5
170
     0
171
     0
290
     0
174
     0
 93
       13
 44
0.0
173
     0
291
     1
 45
0.0
1001
ACAD
1000
AcDbSavedByObjectVersion
1070
     0
  0
VISUALSTYLE
  5
2B
102
{ACAD_XDICTIONARY
360
919F
102
}
102
{ACAD_REACTORS
330
29
102
}
330
29
100
AcDbVisualStyle
  2
FlatWithEdges
 70
     1
 71
     2
 72
     1
 73
     1
 90
        2
 40
-0.6
 41
30.0
 62
     5
 63
     7
421
 16777215
 74
     1
 91
        4
 64
     7
 65
   257
 75
     1
175
     1
 42
1.0
 92
        0
 66
   257
 43
1.0
 76
     1
 77
     6
 78
     2
 67
     7
 79
     5
170
     0
171
     0
290
     0
174
     0
 93
       13
 44
0.0
173
     0
291
     1
 45
0.0
1001
ACAD
1000
AcDbSavedByObjectVersion
1070
     0
  0
VISUALSTYLE
  5
2C
102
{ACAD_XDICTIONARY
360
91A1
102
}
102
{ACAD_REACTORS
330
29
102
}
330
29
100
AcDbVisualStyle
  2
Gouraud
 70
     2
 71
     2
 72
     2
 73
     1
 90
        2
 40
-0.6
 41
30.0
 62
     5
 63
     7
421
 16777215
 74
     0
 91
        4
 64
     7
 65
   257
 75
     1
175
     1
 42
1.0
 92
        0
 66
     7
 43
1.0
 76
     1
 77
     6
 78
     2
 67
     7
 79
     5
170
     0
171
     0
290
     0
174
     0
 93
       13
 44
0.0
173
     0
291
     1
 45
0.0
1001
ACAD
1000
AcDbSavedByObjectVersion
1070
     0
  0
VISUALSTYLE
  5
2D
102
{ACAD_XDICTIONARY
360
91A3
102
}
102
{ACAD_REACTORS
330
29
102
}
330
29
100
AcDbVisualStyle
  2
GouraudWithEdges
 70
     3
 71
     2
 72
     2
 73
     1
 90
        2
 40
-0.6
 41
30.0
 62
     5
 63
     7
421
 16777215
 74
     1
 91
        4
 64
     7
 65
   257
 75
     1
175
     1
 42
1.0
 92
        0
 66
   257
 43
1.0
 76
     1
 77
     6
 78
     2
 67
     7
 79
     5
170
     0
171
     0
290
     0
174
     0
 93
       13
 44
0.0
173
     0
291
     1
 45
0.0
1001
ACAD
1000
AcDbSavedByObjectVersion
1070
     0
  0
VISUALSTYLE
  5
3A
102
{ACAD_XDICTIONARY
360
91BD
102
}
102
{ACAD_REACTORS
330
29
102
}
330
29
100
AcDbVisualStyle
  2
JitterOff
 70
    20
 71
     2
 72
     2
 73
     0
 90
        0
 40
-0.6
 41
-30.0
 62
     5
 63
     7
421
 16777215
 74
     1
 91
        4
 64
     7
 65
   257
 75
     1
175
     1
 42
1.0
 92
       10
 66
     7
 43
1.0
 76
     1
 77
     6
 78
     2
 67
     7
 79
     5
170
     0
171
     0
290
     0
174
     0
 93
        1
 44
0.0
173
     0
291
     1
 45
0.0
1001
ACAD
1000
AcDbSavedByObjectVersion
1070
     0
  0
VISUALSTYLE
  5
37
102
{ACAD_XDICTIONARY
360
91B7
102
}
102
{ACAD_REACTORS
330
29
102
}
330
29
100
AcDbVisualStyle
  2
Linepattern
 70
    14
 71
     2
 72
     2
 73
     0
 90
        0
 40
-0.6
 41
-30.0
 62
     5
 63
     7
421
 16777215
 74
     1
 91
        4
 64
     7
 65
   257
 75
     7
175
     7
 42
1.0
 92
        8
 66
     7
 43
1.0
 76
     1
 77
     6
 78
     2
 67
     7
 79
     5
170
     0
171
     0
290
     0
174
     0
 93
        1
 44
0.0
173
     0
291
     1
 45
0.0
1001
ACAD
1000
AcDbSavedByObjectVersion
1070
     0
  0
VISUALSTYLE
  5
3B
102
{ACAD_XDICTIONARY
360
91BF
102
}
102
{ACAD_REACTORS
330
29
102
}
330
29
100
AcDbVisualStyle
  2
OverhangOff
 70
    21
 71
     2
 72
     2
 73
     0
 90
        0
 40
-0.6
 41
-30.0
 62
     5
 63
     7
421
 16777215
 74
     1
 91
        4
 64
     7
 65
   257
 75
     1
175
     1
 42
1.0
 92
        9
 66
     7
 43
1.0
 76
     1
 77
     6
 78
     2
 67
     7
 79
     5
170
     0
171
     0
290
     0
174
     0
 93
        1
 44
0.0
173
     0
291
     1
 45
0.0
1001
ACAD
1000
AcDbSavedByObjectVersion
1070
     0
  0
VISUALSTYLE
  5
33
102
{ACAD_XDICTIONARY
360
91AF
102
}
102
{ACAD_REACTORS
330
29
102
}
330
29
100
AcDbVisualStyle
  2
Realistic
 70
     8
 71
     2
 72
     2
 73
     0
 90
        0
 40
-0.6
 41
-30.0
 62
     5
 63
     7
421
 16777215
 74
     1
 91
        0
 64
     7
 65
   257
 75
     1
175
     1
 42
1.0
 92
        8
 66
     8
424
  7895160
 43
1.0
 76
     1
 77
     6
 78
     2
 67
     7
 79
     5
170
     0
171
     0
290
     0
174
     0
 93
       13
 44
0.0
173
     0
291
     0
 45
0.0
1001
ACAD
1000
AcDbSavedByObjectVersion
1070
     0
  0
VISUALSTYLE
  5
36
102
{ACAD_XDICTIONARY
360
91B5
102
}
102
{ACAD_REACTORS
330
29
102
}
330
29
100
AcDbVisualStyle
  2
Thicken
 70
    13
 71
     2
 72
     2
 73
     0
 90
        0
 40
-0.6
 41
-30.0
 62
     5
 63
     7
421
 16777215
 74
     1
 91
        4
 64
     7
 65
   257
 75
     1
175
     1
 42
1.0
 92
       12
 66
     7
 43
1.0
 76
     1
 77
     6
 78
     2
 67
     7
 79
     5
170
     0
171
     0
290
     0
174
     0
 93
        1
 44
0.0
173
     0
291
     1
 45
0.0
1001
ACAD
1000
AcDbSavedByObjectVersion
1070
     0
  0
DICTIONARYVAR
  5
9190
102
{ACAD_REACTORS
330
918C
102
}
330
918C
100
DictionaryVariables
280
     0
  1
1:1
  0
DICTIONARYVAR
  5
918E
102
{ACAD_REACTORS
330
918C
102
}
330
918C
100
DictionaryVariables
280
     0
  1
STANDARD
  0
DICTIONARYVAR
  5
918D
102
{ACAD_REACTORS
330
918C
102
}
330
918C
100
DictionaryVariables
280
     0
  1
STANDARD
  0
DICTIONARYVAR
  5
9192
102
{ACAD_REACTORS
330
918C
102
}
330
918C
100
DictionaryVariables
280
     0
  1
0
  0
DICTIONARYVAR
  5
9193
102
{ACAD_REACTORS
330
918C
102
}
330
918C
100
DictionaryVariables
280
     0
  1
0
  0
DICTIONARYVAR
  5
9191
102
{ACAD_REACTORS
330
918C
102
}
330
918C
100
DictionaryVariables
280
     0
  1
2
  0
DICTIONARYVAR
  5
918F
102
{ACAD_REACTORS
330
918C
102
}
330
918C
100
DictionaryVariables
280
     0
  1
1
  0
DICTIONARYVAR
  5
9194
102
{ACAD_REACTORS
330
918C
102
}
330
918C
100
DictionaryVariables
280
     0
  1
2
  0
DICTIONARY
  5
1A
330
19
100
AcDbDictionary
280
     1
281
     1
  3
ACAD_XREC_ROUNDTRIP
360
919B
  3
BUMPTILE
360
1C
  3
DIFFUSETILE
360
1B
  3
OPACITYTILE
360
1F
  3
REFLECTIONTILE
360
1E
  3
REFRACTIONTILE
360
20
  3
SPECULARTILE
360
1D
  0
DICTIONARY
  5
12
330
11
100
AcDbDictionary
280
     1
281
     1
  3
ACAD_XREC_ROUNDTRIP
360
919A
  3
BUMPTILE
360
14
  3
DIFFUSETILE
360
13
  3
OPACITYTILE
360
17
  3
REFLECTIONTILE
360
16
  3
REFRACTIONTILE
360
18
  3
SPECULARTILE
360
15
  0
DICTIONARY
  5
22
330
21
100
AcDbDictionary
280
     1
281
     1
  3
ACAD_XREC_ROUNDTRIP
360
919C
  3
BUMPTILE
360
24
  3
DIFFUSETILE
360
23
  3
OPACITYTILE
360
27
  3
REFLECTIONTILE
360
26
  3
REFRACTIONTILE
360
28
  3
SPECULARTILE
360
25
  0
DICTIONARY
  5
9195
330
60
100
AcDbDictionary
280
     1
281
     1
  3
ACAD_ROUNDTRIP_2008_TABLESTYLE_CELLSTYLEMAP
360
9196
  3
ACAD_XREC_ROUNDTRIP
360
91C4
  0
DICTIONARY
  5
91A7
330
2F
100
AcDbDictionary
280
     1
281
     1
  3
ACAD_XREC_ROUNDTRIP
360
91A8
  0
DICTIONARY
  5
91AB
330
31
100
AcDbDictionary
280
     1
281
     1
  3
ACAD_XREC_ROUNDTRIP
360
91AC
  0
DICTIONARY
  5
91A9
330
30
100
AcDbDictionary
280
     1
281
     1
  3
ACAD_XREC_ROUNDTRIP
360
91AA
  0
DICTIONARY
  5
91A5
330
2E
100
AcDbDictionary
280
     1
281
     1
  3
ACAD_XREC_ROUNDTRIP
360
91A6
  0
DICTIONARY
  5
91B3
330
35
100
AcDbDictionary
280
     1
281
     1
  3
ACAD_XREC_ROUNDTRIP
360
91B4
  0
DICTIONARY
  5
91BB
330
39
100
AcDbDictionary
280
     1
281
     1
  3
ACAD_XREC_ROUNDTRIP
360
91BC
  0
DICTIONARY
  5
91AD
330
32
100
AcDbDictionary
280
     1
281
     1
  3
ACAD_XREC_ROUNDTRIP
360
91AE
  0
DICTIONARY
  5
91B1
330
34
100
AcDbDictionary
280
     1
281
     1
  3
ACAD_XREC_ROUNDTRIP
360
91B2
  0
DICTIONARY
  5
91C1
330
3C
100
AcDbDictionary
280
     1
281
     1
  3
ACAD_XREC_ROUNDTRIP
360
91C2
  0
DICTIONARY
  5
91B9
330
38
100
AcDbDictionary
280
     1
281
     1
  3
ACAD_XREC_ROUNDTRIP
360
91BA
  0
DICTIONARY
  5
919D
330
2A
100
AcDbDictionary
280
     1
281
     1
  3
ACAD_XREC_ROUNDTRIP
360
919E
  0
DICTIONARY
  5
919F
330
2B
100
AcDbDictionary
280
     1
281
     1
  3
ACAD_XREC_ROUNDTRIP
360
91A0
  0
DICTIONARY
  5
91A1
330
2C
100
AcDbDictionary
280
     1
281
     1
  3
ACAD_XREC_ROUNDTRIP
360
91A2
  0
DICTIONARY
  5
91A3
330
2D
100
AcDbDictionary
280
     1
281
     1
  3
ACAD_XREC_ROUNDTRIP
360
91A4
  0
DICTIONARY
  5
91BD
330
3A
100
AcDbDictionary
280
     1
281
     1
  3
ACAD_XREC_ROUNDTRIP
360
91BE
  0
DICTIONARY
  5
91B7
330
37
100
AcDbDictionary
280
     1
281
     1
  3
ACAD_XREC_ROUNDTRIP
360
91B8
  0
DICTIONARY
  5
91BF
330
3B
100
AcDbDictionary
280
     1
281
     1
  3
ACAD_XREC_ROUNDTRIP
360
91C0
  0
DICTIONARY
  5
91AF
330
33
100
AcDbDictionary
280
     1
281
     1
  3
ACAD_XREC_ROUNDTRIP
360
91B0
  0
DICTIONARY
  5
91B5
330
36
100
AcDbDictionary
280
     1
281
     1
  3
ACAD_XREC_ROUNDTRIP
360
91B6
  0
XRECORD
  5
919B
102
{ACAD_REACTORS
330
1A
102
}
330
1A
100
AcDbXrecord
280
     1
102
MATERIAL
148
0.0
149
0.0
149
0.0
 93
        0
 94
      127
282
     0
 72
     0
 77
     0
171
     0
175
     0
179
     0
273
     0
  0
XRECORD
  5
1C
102
{ACAD_REACTORS
330
1A
102
}
330
1A
100
AcDbXrecord
280
     1
270
     1
271
     1
  0
XRECORD
  5
1B
102
{ACAD_REACTORS
330
1A
102
}
330
1A
100
AcDbXrecord
280
     1
270
     1
271
     1
  0
XRECORD
  5
1F
102
{ACAD_REACTORS
330
1A
102
}
330
1A
100
AcDbXrecord
280
     1
270
     1
271
     1
  0
XRECORD
  5
1E
102
{ACAD_REACTORS
330
1A
102
}
330
1A
100
AcDbXrecord
280
     1
270
     1
271
     1
  0
XRECORD
  5
20
102
{ACAD_REACTORS
330
1A
102
}
330
1A
100
AcDbXrecord
280
     1
270
     1
271
     1
  0
XRECORD
  5
1D
102
{ACAD_REACTORS
330
1A
102
}
330
1A
100
AcDbXrecord
280
     1
270
     1
271
     1
  0
XRECORD
  5
919A
102
{ACAD_REACTORS
330
12
102
}
330
12
100
AcDbXrecord
280
     1
102
MATERIAL
148
0.0
149
0.0
149
0.0
 93
        0
 94
      127
282
     0
 72
     0
 77
     0
171
     0
175
     0
179
     0
273
     0
  0
XRECORD
  5
14
102
{ACAD_REACTORS
330
12
102
}
330
12
100
AcDbXrecord
280
     1
270
     1
271
     1
  0
XRECORD
  5
13
102
{ACAD_REACTORS
330
12
102
}
330
12
100
AcDbXrecord
280
     1
270
     1
271
     1
  0
XRECORD
  5
17
102
{ACAD_REACTORS
330
12
102
}
330
12
100
AcDbXrecord
280
     1
270
     1
271
     1
  0
XRECORD
  5
16
102
{ACAD_REACTORS
330
12
102
}
330
12
100
AcDbXrecord
280
     1
270
     1
271
     1
  0
XRECORD
  5
18
102
{ACAD_REACTORS
330
12
102
}
330
12
100
AcDbXrecord
280
     1
270
     1
271
     1
  0
XRECORD
  5
15
102
{ACAD_REACTORS
330
12
102
}
330
12
100
AcDbXrecord
280
     1
270
     1
271
     1
  0
XRECORD
  5
919C
102
{ACAD_REACTORS
330
22
102
}
330
22
100
AcDbXrecord
280
     1
102
MATERIAL
148
0.0
149
0.0
149
0.0
 93
        0
 94
      127
282
     0
 72
     0
 77
     0
171
     0
175
     0
179
     0
273
     0
  0
XRECORD
  5
24
102
{ACAD_REACTORS
330
22
102
}
330
22
100
AcDbXrecord
280
     1
270
     1
271
     1
  0
XRECORD
  5
23
102
{ACAD_REACTORS
330
22
102
}
330
22
100
AcDbXrecord
280
     1
270
     1
271
     1
  0
XRECORD
  5
27
102
{ACAD_REACTORS
330
22
102
}
330
22
100
AcDbXrecord
280
     1
270
     1
271
     1
  0
XRECORD
  5
26
102
{ACAD_REACTORS
330
22
102
}
330
22
100
AcDbXrecord
280
     1
270
     1
271
     1
  0
XRECORD
  5
28
102
{ACAD_REACTORS
330
22
102
}
330
22
100
AcDbXrecord
280
     1
270
     1
271
     1
  0
XRECORD
  5
25
102
{ACAD_REACTORS
330
22
102
}
330
22
100
AcDbXrecord
280
     1
270
     1
271
     1
  0
CELLSTYLEMAP
  5
9196
102
{ACAD_REACTORS
330
9195
102
}
330
9195
100
AcDbCellStyleMap
 90
        3
300
CELLSTYLE
  1
TABLEFORMAT_BEGIN
 90
        5
170
     1
 91
        0
 92
    32768
 62
   257
 93
        1
300
CONTENTFORMAT
  1
CONTENTFORMAT_BEGIN
 90
        0
 91
        0
 92
      512
 93
        0
300

 40
0.0
140
1.0
 94
        5
 62
     0
340
50
144
6.0
309
CONTENTFORMAT_END
171
     1
301
MARGIN
  1
CELLMARGIN_BEGIN
 40
1.5
 40
1.5
 40
1.5
 40
1.5
 40
4.5
 40
4.5
309
CELLMARGIN_END
 94
        6
 95
        1
302
GRIDFORMAT
  1
GRIDFORMAT_BEGIN
 90
        0
 91
        1
 62
     0
 92
       -2
340
0
 93
        0
 40
1.125
309
GRIDFORMAT_END
 95
        2
302
GRIDFORMAT
  1
GRIDFORMAT_BEGIN
 90
        0
 91
        1
 62
     0
 92
       -2
340
0
 93
        0
 40
1.125
309
GRIDFORMAT_END
 95
        4
302
GRIDFORMAT
  1
GRIDFORMAT_BEGIN
 90
        0
 91
        1
 62
     0
 92
       -2
340
0
 93
        0
 40
1.125
309
GRIDFORMAT_END
 95
        8
302
GRIDFORMAT
  1
GRIDFORMAT_BEGIN
 90
        0
 91
        1
 62
     0
 92
       -2
340
0
 93
        0
 40
1.125
309
GRIDFORMAT_END
 95
       16
302
GRIDFORMAT
  1
GRIDFORMAT_BEGIN
 90
        0
 91
        1
 62
     0
 92
       -2
340
0
 93
        0
 40
1.125
309
GRIDFORMAT_END
 95
       32
302
GRIDFORMAT
  1
GRIDFORMAT_BEGIN
 90
        0
 91
        1
 62
     0
 92
       -2
340
0
 93
        0
 40
1.125
309
GRIDFORMAT_END
309
TABLEFORMAT_END
  1
CELLSTYLE_BEGIN
 90
        1
 91
        1
300
_TITLE
309
CELLSTYLE_END
300
CELLSTYLE
  1
TABLEFORMAT_BEGIN
 90
        5
170
     1
 91
        0
 92
        0
 62
   257
 93
        1
300
CONTENTFORMAT
  1
CONTENTFORMAT_BEGIN
 90
        0
 91
        0
 92
      512
 93
        0
300

 40
0.0
140
1.0
 94
        5
 62
     0
340
50
144
4.5
309
CONTENTFORMAT_END
171
     1
301
MARGIN
  1
CELLMARGIN_BEGIN
 40
1.5
 40
1.5
 40
1.5
 40
1.5
 40
4.5
 40
4.5
309
CELLMARGIN_END
 94
        6
 95
        1
302
GRIDFORMAT
  1
GRIDFORMAT_BEGIN
 90
        0
 91
        1
 62
     0
 92
       -2
340
0
 93
        0
 40
1.125
309
GRIDFORMAT_END
 95
        2
302
GRIDFORMAT
  1
GRIDFORMAT_BEGIN
 90
        0
 91
        1
 62
     0
 92
       -2
340
0
 93
        0
 40
1.125
309
GRIDFORMAT_END
 95
        4
302
GRIDFORMAT
  1
GRIDFORMAT_BEGIN
 90
        0
 91
        1
 62
     0
 92
       -2
340
0
 93
        0
 40
1.125
309
GRIDFORMAT_END
 95
        8
302
GRIDFORMAT
  1
GRIDFORMAT_BEGIN
 90
        0
 91
        1
 62
     0
 92
       -2
340
0
 93
        0
 40
1.125
309
GRIDFORMAT_END
 95
       16
302
GRIDFORMAT
  1
GRIDFORMAT_BEGIN
 90
        0
 91
        1
 62
     0
 92
       -2
340
0
 93
        0
 40
1.125
309
GRIDFORMAT_END
 95
       32
302
GRIDFORMAT
  1
GRIDFORMAT_BEGIN
 90
        0
 91
        1
 62
     0
 92
       -2
340
0
 93
        0
 40
1.125
309
GRIDFORMAT_END
309
TABLEFORMAT_END
  1
CELLSTYLE_BEGIN
 90
        2
 91
        1
300
_HEADER
309
CELLSTYLE_END
300
CELLSTYLE
  1
TABLEFORMAT_BEGIN
 90
        5
170
     1
 91
        0
 92
        0
 62
   257
 93
        1
300
CONTENTFORMAT
  1
CONTENTFORMAT_BEGIN
 90
        0
 91
        0
 92
      512
 93
        0
300

 40
0.0
140
1.0
 94
        2
 62
     0
340
50
144
4.5
309
CONTENTFORMAT_END
171
     1
301
MARGIN
  1
CELLMARGIN_BEGIN
 40
1.5
 40
1.5
 40
1.5
 40
1.5
 40
4.5
 40
4.5
309
CELLMARGIN_END
 94
        6
 95
        1
302
GRIDFORMAT
  1
GRIDFORMAT_BEGIN
 90
        0
 91
        1
 62
     0
 92
       -2
340
0
 93
        0
 40
1.125
309
GRIDFORMAT_END
 95
        2
302
GRIDFORMAT
  1
GRIDFORMAT_BEGIN
 90
        0
 91
        1
 62
     0
 92
       -2
340
0
 93
        0
 40
1.125
309
GRIDFORMAT_END
 95
        4
302
GRIDFORMAT
  1
GRIDFORMAT_BEGIN
 90
        0
 91
        1
 62
     0
 92
       -2
340
0
 93
        0
 40
1.125
309
GRIDFORMAT_END
 95
        8
302
GRIDFORMAT
  1
GRIDFORMAT_BEGIN
 90
        0
 91
        1
 62
     0
 92
       -2
340
0
 93
        0
 40
1.125
309
GRIDFORMAT_END
 95
       16
302
GRIDFORMAT
  1
GRIDFORMAT_BEGIN
 90
        0
 91
        1
 62
     0
 92
       -2
340
0
 93
        0
 40
1.125
309
GRIDFORMAT_END
 95
       32
302
GRIDFORMAT
  1
GRIDFORMAT_BEGIN
 90
        0
 91
        1
 62
     0
 92
       -2
340
0
 93
        0
 40
1.125
309
GRIDFORMAT_END
309
TABLEFORMAT_END
  1
CELLSTYLE_BEGIN
 90
        3
 91
        2
300
_DATA
309
CELLSTYLE_END
  0
XRECORD
  5
91C4
102
{ACAD_REACTORS
330
9195
102
}
330
9195
100
AcDbXrecord
280
     1
102
ACAD_ROUNDTRIP_PRE2007_TABLESTYLE
 90
      512
 91
        0
  1

 92
      512
 93
        0
  2

 94
      512
 95
        0
  3

  0
XRECORD
  5
91A8
102
{ACAD_REACTORS
330
91A7
102
}
330
91A7
100
AcDbXrecord
280
     1
102
RTVSPropertyOp0
 70
     1
102
RTVSPropertyOp1
 70
     1
102
RTVSPropertyOp2
 70
     1
102
RTVSPropertyOp3
 70
     1
102
RTVSPropertyOp4
 70
     1
102
RTVSPropertyOp5
 70
     1
102
RTVSPropertyOp6
 70
     1
102
RTVSPropertyOp7
 70
     1
102
RTVSPropertyOp8
 70
     1
102
RTVSPropertyOp9
 70
     1
102
RTVSPropertyOp10
 70
     1
102
RTVSPropertyOp11
 70
     1
102
RTVSPropertyOp12
 70
     1
102
RTVSPropertyOp13
 70
     1
102
RTVSPropertyOp14
 70
     1
102
RTVSPropertyOp15
 70
     1
102
RTVSPropertyOp16
 70
     1
102
RTVSPropertyOp17
 70
     1
102
RTVSPropertyOp18
 70
     1
102
RTVSPropertyOp19
 70
     1
102
RTVSPropertyOp20
 70
     1
102
RTVSPropertyOp21
 70
     1
102
RTVSPropertyOp22
 70
     1
102
RTVSPropertyOp23
 70
     1
102
RTVSPropertyOp24
 70
     1
102
RTVSPropertyOp25
 70
     1
102
RTVSPropertyOp26
 70
     1
102
RTVSPropertyOp27
 70
     1
  0
XRECORD
  5
91AC
102
{ACAD_REACTORS
330
91AB
102
}
330
91AB
100
AcDbXrecord
280
     1
102
RTVSPropertyOp0
 70
     1
102
RTVSPropertyOp1
 70
     1
102
RTVSPropertyOp2
 70
     1
102
RTVSPropertyOp3
 70
     1
102
RTVSPropertyOp4
 70
     1
102
RTVSPropertyOp5
 70
     1
102
RTVSPropertyOp6
 70
     1
102
RTVSPropertyOp7
 70
     1
102
RTVSPropertyOp8
 70
     1
102
RTVSPropertyOp9
 70
     1
102
RTVSPropertyOp10
 70
     1
102
RTVSPropertyOp11
 70
     1
102
RTVSPropertyOp12
 70
     1
102
RTVSPropertyOp13
 70
     1
102
RTVSPropertyOp14
 70
     1
102
RTVSPropertyOp15
 70
     1
102
RTVSPropertyOp16
 70
     1
102
RTVSPropertyOp17
 70
     1
102
RTVSPropertyOp18
 70
     1
102
RTVSPropertyOp19
 70
     1
102
RTVSPropertyOp20
 70
     1
102
RTVSPropertyOp21
 70
     1
102
RTVSPropertyOp22
 70
     1
102
RTVSPropertyOp23
 70
     1
102
RTVSPropertyOp24
 70
     1
102
RTVSPropertyOp25
 70
     1
102
RTVSPropertyOp26
 70
     1
102
RTVSPropertyOp27
 70
     1
  0
XRECORD
  5
91AA
102
{ACAD_REACTORS
330
91A9
102
}
330
91A9
100
AcDbXrecord
280
     1
102
RTVSPropertyOp0
 70
     1
102
RTVSPropertyOp1
 70
     1
102
RTVSPropertyOp2
 70
     1
102
RTVSPropertyOp3
 70
     1
102
RTVSPropertyOp4
 70
     1
102
RTVSPropertyOp5
 70
     1
102
RTVSPropertyOp6
 70
     1
102
RTVSPropertyOp7
 70
     1
102
RTVSPropertyOp8
 70
     1
102
RTVSPropertyOp9
 70
     1
102
RTVSPropertyOp10
 70
     1
102
RTVSPropertyOp11
 70
     1
102
RTVSPropertyOp12
 70
     1
102
RTVSPropertyOp13
 70
     1
102
RTVSPropertyOp14
 70
     1
102
RTVSPropertyOp15
 70
     1
102
RTVSPropertyOp16
 70
     1
102
RTVSPropertyOp17
 70
     1
102
RTVSPropertyOp18
 70
     1
102
RTVSPropertyOp19
 70
     1
102
RTVSPropertyOp20
 70
     1
102
RTVSPropertyOp21
 70
     1
102
RTVSPropertyOp22
 70
     1
102
RTVSPropertyOp23
 70
     1
102
RTVSPropertyOp24
 70
     1
102
RTVSPropertyOp25
 70
     1
102
RTVSPropertyOp26
 70
     1
102
RTVSPropertyOp27
 70
     1
  0
XRECORD
  5
91A6
102
{ACAD_REACTORS
330
91A5
102
}
330
91A5
100
AcDbXrecord
280
     1
102
RTVSPropertyOp0
 70
     1
102
RTVSPropertyOp1
 70
     1
102
RTVSPropertyOp2
 70
     1
102
RTVSPropertyOp3
 70
     1
102
RTVSPropertyOp4
 70
     1
102
RTVSPropertyOp5
 70
     1
102
RTVSPropertyOp6
 70
     1
102
RTVSPropertyOp7
 70
     1
102
RTVSPropertyOp8
 70
     1
102
RTVSPropertyOp9
 70
     1
102
RTVSPropertyOp10
 70
     1
102
RTVSPropertyOp11
 70
     1
102
RTVSPropertyOp12
 70
     1
102
RTVSPropertyOp13
 70
     1
102
RTVSPropertyOp14
 70
     1
102
RTVSPropertyOp15
 70
     1
102
RTVSPropertyOp16
 70
     1
102
RTVSPropertyOp17
 70
     1
102
RTVSPropertyOp18
 70
     1
102
RTVSPropertyOp19
 70
     1
102
RTVSPropertyOp20
 70
     1
102
RTVSPropertyOp21
 70
     1
102
RTVSPropertyOp22
 70
     1
102
RTVSPropertyOp23
 70
     1
102
RTVSPropertyOp24
 70
     1
102
RTVSPropertyOp25
 70
     1
102
RTVSPropertyOp26
 70
     1
102
RTVSPropertyOp27
 70
     1
  0
XRECORD
  5
91B4
102
{ACAD_REACTORS
330
91B3
102
}
330
91B3
100
AcDbXrecord
280
     1
102
RTVSPropertyOp0
 70
     1
102
RTVSPropertyOp1
 70
     1
102
RTVSPropertyOp2
 70
     1
102
RTVSPropertyOp3
 70
     1
102
RTVSPropertyOp4
 70
     1
102
RTVSPropertyOp5
 70
     1
102
RTVSPropertyOp6
 70
     1
102
RTVSPropertyOp7
 70
     1
102
RTVSPropertyOp8
 70
     1
102
RTVSPropertyOp9
 70
     1
102
RTVSPropertyOp10
 70
     1
102
RTVSPropertyOp11
 70
     1
102
RTVSPropertyOp12
 70
     1
102
RTVSPropertyOp13
 70
     1
102
RTVSPropertyOp14
 70
     1
102
RTVSPropertyOp15
 70
     1
102
RTVSPropertyOp16
 70
     1
102
RTVSPropertyOp17
 70
     1
102
RTVSPropertyOp18
 70
     1
102
RTVSPropertyOp19
 70
     1
102
RTVSPropertyOp20
 70
     1
102
RTVSPropertyOp21
 70
     1
102
RTVSPropertyOp22
 70
     1
102
RTVSPropertyOp23
 70
     1
102
RTVSPropertyOp24
 70
     1
102
RTVSPropertyOp25
 70
     1
102
RTVSPropertyOp26
 70
     1
102
RTVSPropertyOp27
 70
     1
  0
XRECORD
  5
91BC
102
{ACAD_REACTORS
330
91BB
102
}
330
91BB
100
AcDbXrecord
280
     1
102
RTVSPropertyOp0
 70
     1
102
RTVSPropertyOp1
 70
     1
102
RTVSPropertyOp2
 70
     1
102
RTVSPropertyOp3
 70
     1
102
RTVSPropertyOp4
 70
     1
102
RTVSPropertyOp5
 70
     1
102
RTVSPropertyOp6
 70
     1
102
RTVSPropertyOp7
 70
     1
102
RTVSPropertyOp8
 70
     1
102
RTVSPropertyOp9
 70
     1
102
RTVSPropertyOp10
 70
     1
102
RTVSPropertyOp11
 70
     1
102
RTVSPropertyOp12
 70
     1
102
RTVSPropertyOp13
 70
     1
102
RTVSPropertyOp14
 70
     1
102
RTVSPropertyOp15
 70
     1
102
RTVSPropertyOp16
 70
     1
102
RTVSPropertyOp17
 70
     1
102
RTVSPropertyOp18
 70
     1
102
RTVSPropertyOp19
 70
     1
102
RTVSPropertyOp20
 70
     1
102
RTVSPropertyOp21
 70
     1
102
RTVSPropertyOp22
 70
     1
102
RTVSPropertyOp23
 70
     1
102
RTVSPropertyOp24
 70
     1
102
RTVSPropertyOp25
 70
     1
102
RTVSPropertyOp26
 70
     1
102
RTVSPropertyOp27
 70
     1
  0
XRECORD
  5
91AE
102
{ACAD_REACTORS
330
91AD
102
}
330
91AD
100
AcDbXrecord
280
     1
102
RTVSPropertyOp0
 70
     1
102
RTVSPropertyOp1
 70
     1
102
RTVSPropertyOp2
 70
     1
102
RTVSPropertyOp3
 70
     1
102
RTVSPropertyOp4
 70
     1
102
RTVSPropertyOp5
 70
     1
102
RTVSPropertyOp6
 70
     1
102
RTVSPropertyOp7
 70
     1
102
RTVSPropertyOp8
 70
     1
102
RTVSPropertyOp9
 70
     1
102
RTVSPropertyOp10
 70
     1
102
RTVSPropertyOp11
 70
     1
102
RTVSPropertyOp12
 70
     1
102
RTVSPropertyOp13
 70
     1
102
RTVSPropertyOp14
 70
     1
102
RTVSPropertyOp15
 70
     1
102
RTVSPropertyOp16
 70
     1
102
RTVSPropertyOp17
 70
     1
102
RTVSPropertyOp18
 70
     1
102
RTVSPropertyOp19
 70
     1
102
RTVSPropertyOp20
 70
     1
102
RTVSPropertyOp21
 70
     1
102
RTVSPropertyOp22
 70
     1
102
RTVSPropertyOp23
 70
     1
102
RTVSPropertyOp24
 70
     1
102
RTVSPropertyOp25
 70
     1
102
RTVSPropertyOp26
 70
     1
102
RTVSPropertyOp27
 70
     1
  0
XRECORD
  5
91B2
102
{ACAD_REACTORS
330
91B1
102
}
330
91B1
100
AcDbXrecord
280
     1
102
RTVSPropertyOp0
 70
     1
102
RTVSPropertyOp1
 70
     1
102
RTVSPropertyOp2
 70
     1
102
RTVSPropertyOp3
 70
     1
102
RTVSPropertyOp4
 70
     1
102
RTVSPropertyOp5
 70
     1
102
RTVSPropertyOp6
 70
     1
102
RTVSPropertyOp7
 70
     1
102
RTVSPropertyOp8
 70
     1
102
RTVSPropertyOp9
 70
     1
102
RTVSPropertyOp10
 70
     1
102
RTVSPropertyOp11
 70
     1
102
RTVSPropertyOp12
 70
     1
102
RTVSPropertyOp13
 70
     1
102
RTVSPropertyOp14
 70
     1
102
RTVSPropertyOp15
 70
     1
102
RTVSPropertyOp16
 70
     1
102
RTVSPropertyOp17
 70
     1
102
RTVSPropertyOp18
 70
     1
102
RTVSPropertyOp19
 70
     1
102
RTVSPropertyOp20
 70
     1
102
RTVSPropertyOp21
 70
     1
102
RTVSPropertyOp22
 70
     1
102
RTVSPropertyOp23
 70
     1
102
RTVSPropertyOp24
 70
     1
102
RTVSPropertyOp25
 70
     1
102
RTVSPropertyOp26
 70
     1
102
RTVSPropertyOp27
 70
     1
  0
XRECORD
  5
91C2
102
{ACAD_REACTORS
330
91C1
102
}
330
91C1
100
AcDbXrecord
280
     1
102
RTVSPropertyOp0
 70
     0
102
RTVSPropertyOp1
 70
     0
102
RTVSPropertyOp2
 70
     0
102
RTVSPropertyOp3
 70
     0
102
RTVSPropertyOp4
 70
     0
102
RTVSPropertyOp5
 70
     0
102
RTVSPropertyOp6
 70
     0
102
RTVSPropertyOp7
 70
     0
102
RTVSPropertyOp8
 70
     0
102
RTVSPropertyOp9
 70
     0
102
RTVSPropertyOp10
 70
     0
102
RTVSPropertyOp11
 70
     0
102
RTVSPropertyOp12
 70
     0
102
RTVSPropertyOp13
 70
     0
102
RTVSPropertyOp14
 70
     2
102
RTVSPropertyOp15
 70
     0
102
RTVSPropertyOp16
 70
     0
102
RTVSPropertyOp17
 70
     0
102
RTVSPropertyOp18
 70
     0
102
RTVSPropertyOp19
 70
     0
102
RTVSPropertyOp20
 70
     0
102
RTVSPropertyOp21
 70
     0
102
RTVSPropertyOp22
 70
     0
102
RTVSPropertyOp23
 70
     0
102
RTVSPropertyOp24
 70
     0
102
RTVSPropertyOp25
 70
     0
102
RTVSPropertyOp26
 70
     0
102
RTVSPropertyOp27
 70
     0
  0
XRECORD
  5
91BA
102
{ACAD_REACTORS
330
91B9
102
}
330
91B9
100
AcDbXrecord
280
     1
102
RTVSPropertyOp0
 70
     1
102
RTVSPropertyOp1
 70
     1
102
RTVSPropertyOp2
 70
     1
102
RTVSPropertyOp3
 70
     1
102
RTVSPropertyOp4
 70
     1
102
RTVSPropertyOp5
 70
     1
102
RTVSPropertyOp6
 70
     1
102
RTVSPropertyOp7
 70
     1
102
RTVSPropertyOp8
 70
     1
102
RTVSPropertyOp9
 70
     1
102
RTVSPropertyOp10
 70
     1
102
RTVSPropertyOp11
 70
     1
102
RTVSPropertyOp12
 70
     1
102
RTVSPropertyOp13
 70
     1
102
RTVSPropertyOp14
 70
     1
102
RTVSPropertyOp15
 70
     1
102
RTVSPropertyOp16
 70
     1
102
RTVSPropertyOp17
 70
     1
102
RTVSPropertyOp18
 70
     1
102
RTVSPropertyOp19
 70
     1
102
RTVSPropertyOp20
 70
     1
102
RTVSPropertyOp21
 70
     1
102
RTVSPropertyOp22
 70
     1
102
RTVSPropertyOp23
 70
     1
102
RTVSPropertyOp24
 70
     1
102
RTVSPropertyOp25
 70
     1
102
RTVSPropertyOp26
 70
     1
102
RTVSPropertyOp27
 70
     1
  0
XRECORD
  5
919E
102
{ACAD_REACTORS
330
919D
102
}
330
919D
100
AcDbXrecord
280
     1
102
RTVSPropertyOp0
 70
     1
102
RTVSPropertyOp1
 70
     1
102
RTVSPropertyOp2
 70
     1
102
RTVSPropertyOp3
 70
     1
102
RTVSPropertyOp4
 70
     1
102
RTVSPropertyOp5
 70
     1
102
RTVSPropertyOp6
 70
     1
102
RTVSPropertyOp7
 70
     1
102
RTVSPropertyOp8
 70
     1
102
RTVSPropertyOp9
 70
     1
102
RTVSPropertyOp10
 70
     1
102
RTVSPropertyOp11
 70
     1
102
RTVSPropertyOp12
 70
     1
102
RTVSPropertyOp13
 70
     1
102
RTVSPropertyOp14
 70
     1
102
RTVSPropertyOp15
 70
     1
102
RTVSPropertyOp16
 70
     1
102
RTVSPropertyOp17
 70
     1
102
RTVSPropertyOp18
 70
     1
102
RTVSPropertyOp19
 70
     1
102
RTVSPropertyOp20
 70
     1
102
RTVSPropertyOp21
 70
     1
102
RTVSPropertyOp22
 70
     1
102
RTVSPropertyOp23
 70
     1
102
RTVSPropertyOp24
 70
     1
102
RTVSPropertyOp25
 70
     1
102
RTVSPropertyOp26
 70
     1
102
RTVSPropertyOp27
 70
     1
  0
XRECORD
  5
91A0
102
{ACAD_REACTORS
330
919F
102
}
330
919F
100
AcDbXrecord
280
     1
102
RTVSPropertyOp0
 70
     1
102
RTVSPropertyOp1
 70
     1
102
RTVSPropertyOp2
 70
     1
102
RTVSPropertyOp3
 70
     1
102
RTVSPropertyOp4
 70
     1
102
RTVSPropertyOp5
 70
     1
102
RTVSPropertyOp6
 70
     1
102
RTVSPropertyOp7
 70
     1
102
RTVSPropertyOp8
 70
     1
102
RTVSPropertyOp9
 70
     1
102
RTVSPropertyOp10
 70
     1
102
RTVSPropertyOp11
 70
     1
102
RTVSPropertyOp12
 70
     1
102
RTVSPropertyOp13
 70
     1
102
RTVSPropertyOp14
 70
     1
102
RTVSPropertyOp15
 70
     1
102
RTVSPropertyOp16
 70
     1
102
RTVSPropertyOp17
 70
     1
102
RTVSPropertyOp18
 70
     1
102
RTVSPropertyOp19
 70
     1
102
RTVSPropertyOp20
 70
     1
102
RTVSPropertyOp21
 70
     1
102
RTVSPropertyOp22
 70
     1
102
RTVSPropertyOp23
 70
     1
102
RTVSPropertyOp24
 70
     1
102
RTVSPropertyOp25
 70
     1
102
RTVSPropertyOp26
 70
     1
102
RTVSPropertyOp27
 70
     1
  0
XRECORD
  5
91A2
102
{ACAD_REACTORS
330
91A1
102
}
330
91A1
100
AcDbXrecord
280
     1
102
RTVSPropertyOp0
 70
     1
102
RTVSPropertyOp1
 70
     1
102
RTVSPropertyOp2
 70
     1
102
RTVSPropertyOp3
 70
     1
102
RTVSPropertyOp4
 70
     1
102
RTVSPropertyOp5
 70
     1
102
RTVSPropertyOp6
 70
     1
102
RTVSPropertyOp7
 70
     1
102
RTVSPropertyOp8
 70
     1
102
RTVSPropertyOp9
 70
     1
102
RTVSPropertyOp10
 70
     1
102
RTVSPropertyOp11
 70
     1
102
RTVSPropertyOp12
 70
     1
102
RTVSPropertyOp13
 70
     1
102
RTVSPropertyOp14
 70
     1
102
RTVSPropertyOp15
 70
     1
102
RTVSPropertyOp16
 70
     1
102
RTVSPropertyOp17
 70
     1
102
RTVSPropertyOp18
 70
     1
102
RTVSPropertyOp19
 70
     1
102
RTVSPropertyOp20
 70
     1
102
RTVSPropertyOp21
 70
     1
102
RTVSPropertyOp22
 70
     1
102
RTVSPropertyOp23
 70
     1
102
RTVSPropertyOp24
 70
     1
102
RTVSPropertyOp25
 70
     1
102
RTVSPropertyOp26
 70
     1
102
RTVSPropertyOp27
 70
     1
  0
XRECORD
  5
91A4
102
{ACAD_REACTORS
330
91A3
102
}
330
91A3
100
AcDbXrecord
280
     1
102
RTVSPropertyOp0
 70
     1
102
RTVSPropertyOp1
 70
     1
102
RTVSPropertyOp2
 70
     1
102
RTVSPropertyOp3
 70
     1
102
RTVSPropertyOp4
 70
     1
102
RTVSPropertyOp5
 70
     1
102
RTVSPropertyOp6
 70
     1
102
RTVSPropertyOp7
 70
     1
102
RTVSPropertyOp8
 70
     1
102
RTVSPropertyOp9
 70
     1
102
RTVSPropertyOp10
 70
     1
102
RTVSPropertyOp11
 70
     1
102
RTVSPropertyOp12
 70
     1
102
RTVSPropertyOp13
 70
     1
102
RTVSPropertyOp14
 70
     1
102
RTVSPropertyOp15
 70
     1
102
RTVSPropertyOp16
 70
     1
102
RTVSPropertyOp17
 70
     1
102
RTVSPropertyOp18
 70
     1
102
RTVSPropertyOp19
 70
     1
102
RTVSPropertyOp20
 70
     1
102
RTVSPropertyOp21
 70
     1
102
RTVSPropertyOp22
 70
     1
102
RTVSPropertyOp23
 70
     1
102
RTVSPropertyOp24
 70
     1
102
RTVSPropertyOp25
 70
     1
102
RTVSPropertyOp26
 70
     1
102
RTVSPropertyOp27
 70
     1
  0
XRECORD
  5
91BE
102
{ACAD_REACTORS
330
91BD
102
}
330
91BD
100
AcDbXrecord
280
     1
102
RTVSPropertyOp0
 70
     0
102
RTVSPropertyOp1
 70
     0
102
RTVSPropertyOp2
 70
     0
102
RTVSPropertyOp3
 70
     0
102
RTVSPropertyOp4
 70
     0
102
RTVSPropertyOp5
 70
     0
102
RTVSPropertyOp6
 70
     0
102
RTVSPropertyOp7
 70
     0
102
RTVSPropertyOp8
 70
     0
102
RTVSPropertyOp9
 70
     0
102
RTVSPropertyOp10
 70
     0
102
RTVSPropertyOp11
 70
     0
102
RTVSPropertyOp12
 70
     0
102
RTVSPropertyOp13
 70
     0
102
RTVSPropertyOp14
 70
     2
102
RTVSPropertyOp15
 70
     0
102
RTVSPropertyOp16
 70
     0
102
RTVSPropertyOp17
 70
     0
102
RTVSPropertyOp18
 70
     0
102
RTVSPropertyOp19
 70
     0
102
RTVSPropertyOp20
 70
     0
102
RTVSPropertyOp21
 70
     0
102
RTVSPropertyOp22
 70
     0
102
RTVSPropertyOp23
 70
     0
102
RTVSPropertyOp24
 70
     0
102
RTVSPropertyOp25
 70
     0
102
RTVSPropertyOp26
 70
     0
102
RTVSPropertyOp27
 70
     0
  0
XRECORD
  5
91B8
102
{ACAD_REACTORS
330
91B7
102
}
330
91B7
100
AcDbXrecord
280
     1
102
RTVSPropertyOp0
 70
     1
102
RTVSPropertyOp1
 70
     1
102
RTVSPropertyOp2
 70
     1
102
RTVSPropertyOp3
 70
     1
102
RTVSPropertyOp4
 70
     1
102
RTVSPropertyOp5
 70
     1
102
RTVSPropertyOp6
 70
     1
102
RTVSPropertyOp7
 70
     1
102
RTVSPropertyOp8
 70
     1
102
RTVSPropertyOp9
 70
     1
102
RTVSPropertyOp10
 70
     1
102
RTVSPropertyOp11
 70
     1
102
RTVSPropertyOp12
 70
     1
102
RTVSPropertyOp13
 70
     1
102
RTVSPropertyOp14
 70
     1
102
RTVSPropertyOp15
 70
     1
102
RTVSPropertyOp16
 70
     1
102
RTVSPropertyOp17
 70
     1
102
RTVSPropertyOp18
 70
     1
102
RTVSPropertyOp19
 70
     1
102
RTVSPropertyOp20
 70
     1
102
RTVSPropertyOp21
 70
     1
102
RTVSPropertyOp22
 70
     1
102
RTVSPropertyOp23
 70
     1
102
RTVSPropertyOp24
 70
     1
102
RTVSPropertyOp25
 70
     1
102
RTVSPropertyOp26
 70
     1
102
RTVSPropertyOp27
 70
     1
  0
XRECORD
  5
91C0
102
{ACAD_REACTORS
330
91BF
102
}
330
91BF
100
AcDbXrecord
280
     1
102
RTVSPropertyOp0
 70
     0
102
RTVSPropertyOp1
 70
     0
102
RTVSPropertyOp2
 70
     0
102
RTVSPropertyOp3
 70
     0
102
RTVSPropertyOp4
 70
     0
102
RTVSPropertyOp5
 70
     0
102
RTVSPropertyOp6
 70
     0
102
RTVSPropertyOp7
 70
     0
102
RTVSPropertyOp8
 70
     0
102
RTVSPropertyOp9
 70
     0
102
RTVSPropertyOp10
 70
     0
102
RTVSPropertyOp11
 70
     0
102
RTVSPropertyOp12
 70
     0
102
RTVSPropertyOp13
 70
     0
102
RTVSPropertyOp14
 70
     2
102
RTVSPropertyOp15
 70
     0
102
RTVSPropertyOp16
 70
     0
102
RTVSPropertyOp17
 70
     0
102
RTVSPropertyOp18
 70
     0
102
RTVSPropertyOp19
 70
     0
102
RTVSPropertyOp20
 70
     0
102
RTVSPropertyOp21
 70
     0
102
RTVSPropertyOp22
 70
     0
102
RTVSPropertyOp23
 70
     0
102
RTVSPropertyOp24
 70
     0
102
RTVSPropertyOp25
 70
     0
102
RTVSPropertyOp26
 70
     0
102
RTVSPropertyOp27
 70
     0
  0
XRECORD
  5
91B0
102
{ACAD_REACTORS
330
91AF
102
}
330
91AF
100
AcDbXrecord
280
     1
102
RTVSPropertyOp0
 70
     1
102
RTVSPropertyOp1
 70
     1
102
RTVSPropertyOp2
 70
     1
102
RTVSPropertyOp3
 70
     1
102
RTVSPropertyOp4
 70
     1
102
RTVSPropertyOp5
 70
     1
102
RTVSPropertyOp6
 70
     1
102
RTVSPropertyOp7
 70
     1
102
RTVSPropertyOp8
 70
     1
102
RTVSPropertyOp9
 70
     1
102
RTVSPropertyOp10
 70
     1
102
RTVSPropertyOp11
 70
     1
102
RTVSPropertyOp12
 70
     1
102
RTVSPropertyOp13
 70
     1
102
RTVSPropertyOp14
 70
     1
102
RTVSPropertyOp15
 70
     1
102
RTVSPropertyOp16
 70
     1
102
RTVSPropertyOp17
 70
     1
102
RTVSPropertyOp18
 70
     1
102
RTVSPropertyOp19
 70
     1
102
RTVSPropertyOp20
 70
     1
102
RTVSPropertyOp21
 70
     1
102
RTVSPropertyOp22
 70
     1
102
RTVSPropertyOp23
 70
     1
102
RTVSPropertyOp24
 70
     1
102
RTVSPropertyOp25
 70
     1
102
RTVSPropertyOp26
 70
     1
102
RTVSPropertyOp27
 70
     1
  0
XRECORD
  5
91B6
102
{ACAD_REACTORS
330
91B5
102
}
330
91B5
100
AcDbXrecord
280
     1
102
RTVSPropertyOp0
 70
     1
102
RTVSPropertyOp1
 70
     1
102
RTVSPropertyOp2
 70
     1
102
RTVSPropertyOp3
 70
     1
102
RTVSPropertyOp4
 70
     1
102
RTVSPropertyOp5
 70
     1
102
RTVSPropertyOp6
 70
     1
102
RTVSPropertyOp7
 70
     1
102
RTVSPropertyOp8
 70
     1
102
RTVSPropertyOp9
 70
     1
102
RTVSPropertyOp10
 70
     1
102
RTVSPropertyOp11
 70
     1
102
RTVSPropertyOp12
 70
     1
102
RTVSPropertyOp13
 70
     1
102
RTVSPropertyOp14
 70
     1
102
RTVSPropertyOp15
 70
     1
102
RTVSPropertyOp16
 70
     1
102
RTVSPropertyOp17
 70
     1
102
RTVSPropertyOp18
 70
     1
102
RTVSPropertyOp19
 70
     1
102
RTVSPropertyOp20
 70
     1
102
RTVSPropertyOp21
 70
     1
102
RTVSPropertyOp22
 70
     1
102
RTVSPropertyOp23
 70
     1
102
RTVSPropertyOp24
 70
     1
102
RTVSPropertyOp25
 70
     1
102
RTVSPropertyOp26
 70
     1
102
RTVSPropertyOp27
 70
     1
  0
ENDSEC
  0
EOF
