  0
SECTION
  2
HEADER
  9
$ACADVER
  1
AC1018
  9
$ACADMAINTVER
 70
   104
  9
$DWGCODEPAGE
  3
ANSI_1252
  9
$LASTSAVEDBY
  1
admin
  9
$INSBASE
 10
0.0
 20
0.0
 30
0.0
  9
$EXTMIN
 10
267.1600325622514
 20
108.5675899829514
 30
-0.0015258207003583
  9
$EXTMAX
 10
665.5117089740015
 20
739.8022777752853
 30
0.0000000349246037
  9
$LIMMIN
 10
0.0
 20
0.0
  9
$LIMMAX
 10
420.0
 20
297.0
  9
$ORTHOMODE
 70
     0
  9
$REGENMODE
 70
     1
  9
$FILLMODE
 70
     1
  9
$QTEXTMODE
 70
     0
  9
$MIRRTEXT
 70
     0
  9
$LTSCALE
 40
1.0
  9
$ATTMODE
 70
     1
  9
$TEXTSIZE
 40
2.5
  9
$TRACEWID
 40
1.0
  9
$TEXTSTYLE
  7
Standard
  9
$CLAYER
  8
0
  9
$CELTYPE
  6
ByLayer
  9
$CECOLOR
 62
   256
  9
$CELTSCALE
 40
1.0
  9
$DISPSILH
 70
     0
  9
$DIMSCALE
 40
1.0
  9
$DIMASZ
 40
2.5
  9
$DIMEXO
 40
0.625
  9
$DIMDLI
 40
3.75
  9
$DIMRND
 40
0.0
  9
$DIMDLE
 40
0.0
  9
$DIMEXE
 40
1.25
  9
$DIMTP
 40
0.0
  9
$DIMTM
 40
0.0
  9
$DIMTXT
 40
2.5
  9
$DIMCEN
 40
2.5
  9
$DIMTSZ
 40
0.0
  9
$DIMTOL
 70
     0
  9
$DIMLIM
 70
     0
  9
$DIMTIH
 70
     0
  9
$DIMTOH
 70
     0
  9
$DIMSE1
 70
     0
  9
$DIMSE2
 70
     0
  9
$DIMTAD
 70
     1
  9
$DIMZIN
 70
     8
  9
$DIMBLK
  1

  9
$DIMASO
 70
     1
  9
$DIMSHO
 70
     1
  9
$DIMPOST
  1

  9
$DIMAPOST
  1

  9
$DIMALT
 70
     0
  9
$DIMALTD
 70
     3
  9
$DIMALTF
 40
0.03937007874016
  9
$DIMLFAC
 40
1.0
  9
$DIMTOFL
 70
     1
  9
$DIMTVP
 40
0.0
  9
$DIMTIX
 70
     0
  9
$DIMSOXD
 70
     0
  9
$DIMSAH
 70
     0
  9
$DIMBLK1
  1

  9
$DIMBLK2
  1

  9
$DIMSTYLE
  2
ISO-25
  9
$DIMCLRD
 70
     0
  9
$DIMCLRE
 70
     0
  9
$DIMCLRT
 70
     0
  9
$DIMTFAC
 40
1.0
  9
$DIMGAP
 40
0.625
  9
$DIMJUST
 70
     0
  9
$DIMSD1
 70
     0
  9
$DIMSD2
 70
     0
  9
$DIMTOLJ
 70
     0
  9
$DIMTZIN
 70
     8
  9
$DIMALTZ
 70
     0
  9
$DIMALTTZ
 70
     0
  9
$DIMUPT
 70
     0
  9
$DIMDEC
 70
     2
  9
$DIMTDEC
 70
     2
  9
$DIMALTU
 70
     2
  9
$DIMALTTD
 70
     3
  9
$DIMTXSTY
  7
Standard
  9
$DIMAUNIT
 70
     0
  9
$DIMADEC
 70
     0
  9
$DIMALTRND
 40
0.0
  9
$DIMAZIN
 70
     0
  9
$DIMDSEP
 70
    44
  9
$DIMATFIT
 70
     3
  9
$DIMFRAC
 70
     0
  9
$DIMLDRBLK
  1

  9
$DIMLUNIT
 70
     2
  9
$DIMLWD
 70
    -2
  9
$DIMLWE
 70
    -2
  9
$DIMTMOVE
 70
     0
  9
$LUNITS
 70
     2
  9
$LUPREC
 70
     4
  9
$SKETCHINC
 40
1.0
  9
$FILLETRAD
 40
0.0
  9
$AUNITS
 70
     0
  9
$AUPREC
 70
     0
  9
$MENU
  1
.
  9
$ELEVATION
 40
0.0
  9
$PELEVATION
 40
0.0
  9
$THICKNESS
 40
0.0
  9
$LIMCHECK
 70
     0
  9
$CHAMFERA
 40
0.0
  9
$CHAMFERB
 40
0.0
  9
$CHAMFERC
 40
0.0
  9
$CHAMFERD
 40
0.0
  9
$SKPOLY
 70
     0
  9
$TDCREATE
 40
2457869.280614120
  9
$TDUCREATE
 40
2457869.197280787
  9
$TDUPDATE
 40
2457869.347771146
  9
$TDUUPDATE
 40
2457869.264437813
  9
$TDINDWG
 40
0.0671573958
  9
$TDUSRTIMER
 40
0.0671572106
  9
$USRTIMER
 70
     1
  9
$ANGBASE
 50
0.0
  9
$ANGDIR
 70
     0
  9
$PDMODE
 70
     0
  9
$PDSIZE
 40
0.0
  9
$PLINEWID
 40
0.0
  9
$SPLFRAME
 70
     0
  9
$SPLINETYPE
 70
     6
  9
$SPLINESEGS
 70
     8
  9
$HANDSEED
  5
7918
  9
$SURFTAB1
 70
     6
  9
$SURFTAB2
 70
     6
  9
$SURFTYPE
 70
     6
  9
$SURFU
 70
     6
  9
$SURFV
 70
     6
  9
$UCSBASE
  2

  9
$UCSNAME
  2

  9
$UCSORG
 10
0.0
 20
0.0
 30
0.0
  9
$UCSXDIR
 10
1.0
 20
0.0
 30
0.0
  9
$UCSYDIR
 10
0.0
 20
1.0
 30
0.0
  9
$UCSORTHOREF
  2

  9
$UCSORTHOVIEW
 70
     0
  9
$UCSORGTOP
 10
0.0
 20
0.0
 30
0.0
  9
$UCSORGBOTTOM
 10
0.0
 20
0.0
 30
0.0
  9
$UCSORGLEFT
 10
0.0
 20
0.0
 30
0.0
  9
$UCSORGRIGHT
 10
0.0
 20
0.0
 30
0.0
  9
$UCSORGFRONT
 10
0.0
 20
0.0
 30
0.0
  9
$UCSORGBACK
 10
0.0
 20
0.0
 30
0.0
  9
$PUCSBASE
  2

  9
$PUCSNAME
  2

  9
$PUCSORG
 10
0.0
 20
0.0
 30
0.0
  9
$PUCSXDIR
 10
1.0
 20
0.0
 30
0.0
  9
$PUCSYDIR
 10
0.0
 20
1.0
 30
0.0
  9
$PUCSORTHOREF
  2

  9
$PUCSORTHOVIEW
 70
     0
  9
$PUCSORGTOP
 10
0.0
 20
0.0
 30
0.0
  9
$PUCSORGBOTTOM
 10
0.0
 20
0.0
 30
0.0
  9
$PUCSORGLEFT
 10
0.0
 20
0.0
 30
0.0
  9
$PUCSORGRIGHT
 10
0.0
 20
0.0
 30
0.0
  9
$PUCSORGFRONT
 10
0.0
 20
0.0
 30
0.0
  9
$PUCSORGBACK
 10
0.0
 20
0.0
 30
0.0
  9
$USERI1
 70
     0
  9
$USERI2
 70
     0
  9
$USERI3
 70
     0
  9
$USERI4
 70
     0
  9
$USERI5
 70
     0
  9
$USERR1
 40
0.0
  9
$USERR2
 40
0.0
  9
$USERR3
 40
0.0
  9
$USERR4
 40
0.0
  9
$USERR5
 40
0.0
  9
$WORLDVIEW
 70
     1
  9
$SHADEDGE
 70
     3
  9
$SHADEDIF
 70
    70
  9
$TILEMODE
 70
     1
  9
$MAXACTVP
 70
    64
  9
$PINSBASE
 10
0.0
 20
0.0
 30
0.0
  9
$PLIMCHECK
 70
     0
  9
$PEXTMIN
 10
1.000000000000000E+20
 20
1.000000000000000E+20
 30
1.000000000000000E+20
  9
$PEXTMAX
 10
-1.000000000000000E+20
 20
-1.000000000000000E+20
 30
-1.000000000000000E+20
  9
$PLIMMIN
 10
0.0
 20
0.0
  9
$PLIMMAX
 10
420.0
 20
297.0
  9
$UNITMODE
 70
     0
  9
$VISRETAIN
 70
     1
  9
$PLINEGEN
 70
     0
  9
$PSLTSCALE
 70
     1
  9
$TREEDEPTH
 70
  3020
  9
$CMLSTYLE
  2
Standard
  9
$CMLJUST
 70
     0
  9
$CMLSCALE
 40
20.0
  9
$PROXYGRAPHICS
 70
     1
  9
$MEASUREMENT
 70
     1
  9
$CELWEIGHT
370
    -1
  9
$ENDCAPS
280
     0
  9
$JOINSTYLE
280
     0
  9
$LWDISPLAY
290
     0
  9
$INSUNITS
 70
     4
  9
$HYPERLINKBASE
  1

  9
$STYLESHEET
  1

  9
$XEDIT
290
     1
  9
$CEPSNTYPE
380
     0
  9
$PSTYLEMODE
290
     1
  9
$FINGERPRINTGUID
  2
{9DFB5F12-FE38-410F-B4C1-738DA96BFA2A}
  9
$VERSIONGUID
  2
{8E46AEFF-2809-4F3F-9CC5-ABA2520BB8B3}
  9
$EXTNAMES
290
     1
  9
$PSVPSCALE
 40
0.0
  9
$OLESTARTUP
290
     0
  9
$SORTENTS
280
   127
  9
$INDEXCTL
280
     0
  9
$HIDETEXT
280
     1
  9
$XCLIPFRAME
290
     0
  9
$HALOGAP
280
     0
  9
$OBSCOLOR
 70
   257
  9
$OBSLTYPE
280
     0
  9
$INTERSECTIONDISPLAY
280
     0
  9
$INTERSECTIONCOLOR
 70
   257
  9
$DIMASSOC
280
     2
  9
$PROJECTNAME
  1

  0
ENDSEC
  0
SECTION
  2
CLASSES
  0
CLASS
  1
ACDBDICTIONARYWDFLT
  2
AcDbDictionaryWithDefault
  3
ObjectDBX Classes
 90
        0
 91
        1
280
     0
281
     0
  0
CLASS
  1
MATERIAL
  2
AcDbMaterial
  3
ObjectDBX Classes
 90
     1153
 91
        3
280
     0
281
     0
  0
CLASS
  1
VISUALSTYLE
  2
AcDbVisualStyle
  3
ObjectDBX Classes
 90
     4095
 91
       19
280
     0
281
     0
  0
CLASS
  1
SCALE
  2
AcDbScale
  3
ObjectDBX Classes
 90
     1153
 91
       17
280
     0
281
     0
  0
CLASS
  1
TABLESTYLE
  2
AcDbTableStyle
  3
ObjectDBX Classes
 90
     4095
 91
        1
280
     0
281
     0
  0
CLASS
  1
MLEADERSTYLE
  2
AcDbMLeaderStyle
  3
ACDB_MLEADERSTYLE_CLASS
 90
     4095
 91
        1
280
     0
281
     0
  0
CLASS
  1
SORTENTSTABLE
  2
AcDbSortentsTable
  3
ObjectDBX Classes
 90
        0
 91
      123
280
     0
281
     0
  0
CLASS
  1
AEC_REFEDIT_STATUS_TRACKER
  2
AecDbRefEditStatusTracker
  3
AecArchBase60|Product Desc: Autodesk Architectural Desktop 2007 |Company: Autodesk,Inc. |WEB Address: www.autodesk.com
 90
      129
 91
        1
280
     0
281
     0
  0
CLASS
  1
NPOCOLLECTION
  2
AcDbImpNonPersistentObjectsCollection
  3
ObjectDBX Classes
 90
     1153
 91
        1
280
     0
281
     0
  0
CLASS
  1
DICTIONARYVAR
  2
AcDbDictionaryVar
  3
ObjectDBX Classes
 90
        0
 91
      147
280
     0
281
     0
  0
CLASS
  1
CELLSTYLEMAP
  2
AcDbCellStyleMap
  3
ObjectDBX Classes
 90
     1152
 91
       17
280
     0
281
     0
  0
CLASS
  1
DIMASSOC
  2
AcDbDimAssoc
  3
"AcDbDimAssoc|Product Desc:     AcDim ARX App For Dimension|Company:          Autodesk, Inc.|WEB Address:      www.autodesk.com"
 90
        0
 91
        2
280
     0
281
     0
  0
ENDSEC
  0
SECTION
  2
TABLES
  0
TABLE
  2
VPORT
  5
8
330
0
100
AcDbSymbolTable
 70
     1
  0
VPORT
  5
52
330
8
100
AcDbSymbolTableRecord
100
AcDbViewportTableRecord
  2
*Active
 70
     0
 10
0.0
 20
0.0
 11
1.0
 21
1.0
 12
466.3358707681265
 22
424.1849338791183
 13
0.0
 23
0.0
 14
10.0
 24
10.0
 15
10.0
 25
10.0
 16
0.0
 26
0.0
 36
1.0
 17
0.0
 27
0.0
 37
0.0
 40
635.338055210269
 41
1.888286334056399
 42
50.0
 43
0.0
 44
0.0
 50
0.0
 51
0.0
 71
     0
 72
  1000
 73
     1
 74
     3
 75
     0
 76
     0
 77
     0
 78
     0
281
     0
 65
     1
110
0.0
120
0.0
130
0.0
111
1.0
121
0.0
131
0.0
112
0.0
122
1.0
132
0.0
 79
     0
146
0.0
  0
ENDTAB
  0
TABLE
  2
LTYPE
  5
5
330
0
100
AcDbSymbolTable
 70
     2
  0
LTYPE
  5
56
330
5
100
AcDbSymbolTableRecord
100
AcDbLinetypeTableRecord
  2
ByBlock
 70
     0
  3

 72
    65
 73
     0
 40
0.0
  0
LTYPE
  5
57
330
5
100
AcDbSymbolTableRecord
100
AcDbLinetypeTableRecord
  2
ByLayer
 70
     0
  3

 72
    65
 73
     0
 40
0.0
  0
LTYPE
  5
58
330
5
100
AcDbSymbolTableRecord
100
AcDbLinetypeTableRecord
  2
Continuous
 70
     0
  3
Solid line
 72
    65
 73
     0
 40
0.0
  0
LTYPE
  5
77FC
330
5
100
AcDbSymbolTableRecord
100
AcDbLinetypeTableRecord
  2
JIS_02_0.7
 70
     0
  3
HIDDEN0.75 _ _ _ _ _ _ _ _ _ _ _ _ _ _ _ _ _
 72
    65
 73
     2
 40
1.35
 49
0.75
 74
     0
 49
-0.6
 74
     0
  0
ENDTAB
  0
TABLE
  2
LAYER
  5
2
102
{ACAD_XDICTIONARY
360
780D
102
}
330
0
100
AcDbSymbolTable
 70
     7
  0
LAYER
  5
4F
330
2
100
AcDbSymbolTableRecord
100
AcDbLayerTableRecord
  2
0
 70
     0
 62
     7
  6
Continuous
370
    -3
390
F
  0
LAYER
  5
77FD
330
2
100
AcDbSymbolTableRecord
100
AcDbLayerTableRecord
  2
F_01 sichtbar
 70
     0
 62
     7
  6
Continuous
370
    -3
390
F
1001
AcAecLayerStandard
1000

1000

  0
LAYER
  5
77FE
330
2
100
AcDbSymbolTableRecord
100
AcDbLayerTableRecord
  2
F_31 Ansichtsfenster
 70
     0
 62
    12
  6
Continuous
290
     0
370
    40
390
F
1001
AcAecLayerStandard
1000

1000

  0
LAYER
  5
77FF
330
2
100
AcDbSymbolTableRecord
100
AcDbLayerTableRecord
  2
F_02 unsichtbar
 70
     0
 62
     8
  6
JIS_02_0.7
370
    -3
390
F
1001
AcAecLayerStandard
1000

1000

  0
LAYER
  5
7800
330
2
100
AcDbSymbolTableRecord
100
AcDbLayerTableRecord
  2
F_15 Schr-Mauer hell
 70
     0
 62
   254
  6
Continuous
370
    -3
390
F
1001
AcAecLayerStandard
1000

1000

  0
LAYER
  5
7801
330
2
100
AcDbSymbolTableRecord
100
AcDbLayerTableRecord
  2
F_18 Schr-Holz hell
 70
     0
 62
    41
  6
Continuous
370
    -3
390
F
1001
AcAecLayerStandard
1000

1000

  0
LAYER
  5
7802
330
2
100
AcDbSymbolTableRecord
100
AcDbLayerTableRecord
  2
F_29 Bemassung M
 70
     0
 62
   160
  6
Continuous
370
    -3
390
F
1001
AcAecLayerStandard
1000

1000

  0
ENDTAB
  0
TABLE
  2
STYLE
  5
3
330
0
100
AcDbSymbolTable
 70
     3
  0
STYLE
  5
50
330
3
100
AcDbSymbolTableRecord
100
AcDbTextStyleTableRecord
  2
Standard
 70
     0
 40
0.0
 41
1.0
 50
0.0
 71
     0
 42
2.5
  3
txt
  4

  0
STYLE
  5
55
330
3
100
AcDbSymbolTableRecord
100
AcDbTextStyleTableRecord
  2
Annotative
 70
     0
 40
0.0
 41
1.0
 50
0.0
 71
     0
 42
0.2
  3
txt
  4

1001
AcadAnnotative
1000
AnnotativeData
1002
{
1070
     1
1070
     1
1002
}
  0
STYLE
  5
7803
330
3
100
AcDbSymbolTableRecord
100
AcDbTextStyleTableRecord
  2
Arial
 70
     0
 40
0.0
 41
1.0
 50
0.0
 71
     0
 42
3.0
  3
ARIALN.TTF
  4

1001
AcadAnnotative
1000
AnnotativeData
1002
{
1070
     1
1070
     1
1002
}
1001
ACAD
1000
Arial Narrow
1071
       34
  0
ENDTAB
  0
TABLE
  2
VIEW
  5
6
330
0
100
AcDbSymbolTable
 70
     0
  0
ENDTAB
  0
TABLE
  2
UCS
  5
7
330
0
100
AcDbSymbolTable
 70
     0
  0
ENDTAB
  0
TABLE
  2
APPID
  5
9
330
0
100
AcDbSymbolTable
 70
     8
  0
APPID
  5
51
330
9
100
AcDbSymbolTableRecord
100
AcDbRegAppTableRecord
  2
ACAD
 70
     0
  0
APPID
  5
59
330
9
100
AcDbSymbolTableRecord
100
AcDbRegAppTableRecord
  2
AcadAnnotative
 70
     0
  0
APPID
  5
7809
330
9
100
AcDbSymbolTableRecord
100
AcDbRegAppTableRecord
  2
AcAecLayerStandard
 70
     0
  0
APPID
  5
780A
330
9
100
AcDbSymbolTableRecord
100
AcDbRegAppTableRecord
  2
ACAD_PSEXT
 70
     0
  0
APPID
  5
780B
330
9
100
AcDbSymbolTableRecord
100
AcDbRegAppTableRecord
  2
ACAD_DSTYLE_DIMJAG
 70
     0
  0
APPID
  5
780C
330
9
100
AcDbSymbolTableRecord
100
AcDbRegAppTableRecord
  2
ACAD_DSTYLE_DIMTALN
 70
     0
  0
APPID
  5
7915
330
9
100
AcDbSymbolTableRecord
100
AcDbRegAppTableRecord
  2
ACAD_DSTYLE_DIMJOGGED_JOGANGLE_SYMBOL
 70
     0
  0
APPID
  5
7917
330
9
100
AcDbSymbolTableRecord
100
AcDbRegAppTableRecord
  2
ACAD_MLEADERVER
 70
     0
  0
ENDTAB
  0
TABLE
  2
DIMSTYLE
  5
A
330
0
100
AcDbSymbolTable
 70
     7
100
AcDbDimStyleTable
 71
     0
  0
DIMSTYLE
105
53
330
A
100
AcDbSymbolTableRecord
100
AcDbDimStyleTableRecord
  2
ISO-25
 70
     0
 41
2.5
 42
0.625
 43
3.75
 44
1.25
 73
     0
 74
     0
 77
     1
 78
     8
140
2.5
141
2.5
143
0.03937007874016
147
0.625
171
     3
172
     1
271
     2
272
     2
274
     3
278
    44
283
     0
284
     8
340
50
1001
ACAD_DSTYLE_DIMJOGGED_JOGANGLE_SYMBOL
1070
   384
1040
1.570796326794896
  0
DIMSTYLE
105
54
330
A
100
AcDbSymbolTableRecord
100
AcDbDimStyleTableRecord
  2
Annotative
 70
     0
340
50
1001
AcadAnnotative
1000
AnnotativeData
1002
{
1070
     1
1070
     1
1002
}
  0
DIMSTYLE
105
7804
330
A
100
AcDbSymbolTableRecord
100
AcDbDimStyleTableRecord
  2
MST 1-1
 70
     0
 41
2.0
 42
2.0
 43
2.0
 44
1.0
 46
2.0
 73
     0
 74
     0
 77
     3
 78
     8
 79
     2
140
3.0
141
2.5
143
0.03937007874016
147
1.0
171
     3
176
   256
177
   256
178
     3
179
     1
271
     1
272
     1
274
     3
279
     2
284
     8
340
7803
342
77F6
1001
ACAD_DSTYLE_DIMJAG
1070
   388
1040
1.5
1001
ACAD_DSTYLE_DIMTALN
1070
   392
1070
     0
  0
DIMSTYLE
105
7805
330
A
100
AcDbSymbolTableRecord
100
AcDbDimStyleTableRecord
  2
MST 1-2
 70
     0
 40
2.0
 41
2.0
 42
2.0
 43
2.0
 44
1.0
 46
2.0
 73
     0
 74
     0
 77
     3
 78
     8
 79
     2
140
3.0
141
1.0
143
0.03937007874016
147
1.0
171
     3
176
   256
177
   256
178
     3
179
     1
271
     1
272
     1
274
     3
279
     2
284
     8
340
7803
342
77F6
  0
DIMSTYLE
105
7806
330
A
100
AcDbSymbolTableRecord
100
AcDbDimStyleTableRecord
  2
MST 1-5
 70
     0
 40
5.0
 41
1.5
 42
2.0
 43
2.0
 44
1.0
 46
2.0
 73
     0
 74
     0
 77
     3
 78
     8
 79
     2
140
3.0
141
1.0
143
0.03937007874016
147
1.0
171
     3
176
   256
177
   256
178
     3
179
     1
271
     1
272
     1
274
     3
279
     2
284
     8
340
7803
342
77F6
  0
DIMSTYLE
105
7807
330
A
100
AcDbSymbolTableRecord
100
AcDbDimStyleTableRecord
  2
MST 1-10
 70
     0
 40
10.0
 41
2.0
 42
2.0
 43
2.0
 44
2.0
 46
2.0
 73
     0
 74
     0
 77
     3
 78
     8
 79
     2
140
3.0
141
1.0
143
0.03937007874016
147
1.0
171
     3
176
   256
177
   256
178
     3
179
     1
271
     1
272
     1
274
     3
279
     2
284
     8
340
7803
342
77F6
1001
ACAD_DSTYLE_DIMJAG
1070
   388
1040
1.5
1001
ACAD_DSTYLE_DIMTALN
1070
   392
1070
     0
  0
DIMSTYLE
105
7808
330
A
100
AcDbSymbolTableRecord
100
AcDbDimStyleTableRecord
  2
MST 1-20
 70
     0
 40
20.0
 41
2.0
 42
2.0
 43
2.0
 44
1.0
 46
2.0
 73
     0
 74
     0
 77
     3
 78
     8
 79
     2
140
3.0
141
1.0
143
0.03937007874016
147
1.0
171
     3
176
   256
177
   256
178
     3
179
     1
271
     1
272
     1
274
     3
279
     2
284
     8
340
7803
342
77F6
  0
ENDTAB
  0
TABLE
  2
BLOCK_RECORD
  5
1
330
0
100
AcDbSymbolTable
 70
     3
  0
BLOCK_RECORD
  5
67
330
1
100
AcDbSymbolTableRecord
100
AcDbBlockTableRecord
  2
*Model_Space
340
6A
  0
BLOCK_RECORD
  5
63
330
1
100
AcDbSymbolTableRecord
100
AcDbBlockTableRecord
  2
*Paper_Space
340
66
  0
BLOCK_RECORD
  5
6B
330
1
100
AcDbSymbolTableRecord
100
AcDbBlockTableRecord
  2
*Paper_Space0
340
6E
  0
BLOCK_RECORD
  5
77F6
102
{ACAD_XDICTIONARY
360
77F7
102
}
330
1
100
AcDbSymbolTableRecord
100
AcDbBlockTableRecord
  2
_ArchTick
340
0
310
2800000020000000200000000100080000000000000400000000000000000000000000000000000000000000000080000080000000808000800000008000800080800000C0C0C000C0DCC000F0CAA6000020400000206000002080000020A0000020C0000020E00000400000004020000040400000406000004080000040A0
310
000040C0000040E00000600000006020000060400000606000006080000060A0000060C0000060E00000800000008020000080400000806000008080000080A0000080C0000080E00000A0000000A0200000A0400000A0600000A0800000A0A00000A0C00000A0E00000C0000000C0200000C0400000C0600000C0800000C0
310
A00000C0C00000C0E00000E0000000E0200000E0400000E0600000E0800000E0A00000E0C00000E0E00040000000400020004000400040006000400080004000A0004000C0004000E00040200000402020004020400040206000402080004020A0004020C0004020E000404000004040200040404000404060004040800040
310
40A0004040C0004040E00040600000406020004060400040606000406080004060A0004060C0004060E00040800000408020004080400040806000408080004080A0004080C0004080E00040A0000040A0200040A0400040A0600040A0800040A0A00040A0C00040A0E00040C0000040C0200040C0400040C0600040C08000
310
40C0A00040C0C00040C0E00040E0000040E0200040E0400040E0600040E0800040E0A00040E0C00040E0E00080000000800020008000400080006000800080008000A0008000C0008000E00080200000802020008020400080206000802080008020A0008020C0008020E00080400000804020008040400080406000804080
310
008040A0008040C0008040E00080600000806020008060400080606000806080008060A0008060C0008060E00080800000808020008080400080806000808080008080A0008080C0008080E00080A0000080A0200080A0400080A0600080A0800080A0A00080A0C00080A0E00080C0000080C0200080C0400080C0600080C0
310
800080C0A00080C0C00080C0E00080E0000080E0200080E0400080E0600080E0800080E0A00080E0C00080E0E000C0000000C0002000C0004000C0006000C0008000C000A000C000C000C000E000C0200000C0202000C0204000C0206000C0208000C020A000C020C000C020E000C0400000C0402000C0404000C0406000C0
310
408000C040A000C040C000C040E000C0600000C0602000C0604000C0606000C0608000C060A000C060C000C060E000C0800000C0802000C0804000C0806000C0808000C080A000C080C000C080E000C0A00000C0A02000C0A04000C0A06000C0A08000C0A0A000C0A0C000C0A0E000C0C00000C0C02000C0C04000C0C06000
310
C0C08000C0C0A000F0FBFF00A4A0A000808080000000FF0000FF000000FFFF00FF000000FF00FF00FFFF0000FFFFFF00FFFFFF00FFFFFFFFFFFFFFFFFFFFFFFFFFFFFFFFFFFFFFFFFFFFFFFFFFFFFFFFFFFF00FF00FFFFFFFFFFFFFFFFFFFFFFFFFFFFFFFFFFFFFFFFFFFFFFFFFFFFFFFF00FFFFFF00FFFFFFFFFFFFFFFFFF
310
FFFFFFFFFFFFFFFFFFFFFFFFFFFFFFFFFF00FFFFFFFFFF00FFFFFFFFFFFFFFFFFFFFFFFFFFFFFFFFFFFFFFFFFFFFFFFFFFFF00FFFFFFFFFF00FFFFFFFFFFFFFFFFFFFFFFFFFFFFFFFFFFFFFFFFFFFFFFFFFFFF00FFFFFFFFFF00FFFFFFFFFFFFFFFFFFFFFFFFFFFFFFFFFFFFFFFFFFFFFFFFFFFF00FFFFFFFFFF00FFFFFFFF
310
FFFFFFFFFFFFFFFFFFFFFFFFFFFFFFFFFFFFFFFFFFFF00FFFFFFFFFF00FFFFFFFFFFFFFFFFFFFFFFFFFFFFFFFFFFFFFFFFFFFFFFFFFFFF00FFFFFFFFFF00FFFFFFFFFFFFFFFFFFFFFFFFFFFFFFFFFFFFFFFFFFFFFFFFFFFF00FFFFFFFFFF00FFFFFFFFFFFFFFFFFFFFFFFFFFFFFFFFFFFFFFFFFFFFFFFFFFFF00FFFFFFFFFF
310
00FFFFFFFFFFFFFFFFFFFFFFFFFFFFFFFFFFFFFFFFFFFFFFFFFFFF00FFFFFFFFFF00FFFFFFFFFFFFFFFFFFFFFFFFFFFFFFFFFFFFFFFFFFFFFFFFFFFF00FFFFFFFFFF00FFFFFFFFFFFFFFFFFFFFFFFFFFFFFFFFFFFFFFFFFFFFFFFFFFFF00FFFFFFFFFF00FFFFFFFFFFFFFFFFFFFFFFFFFFFFFFFFFFFFFFFFFFFFFFFFFFFF00
310
FFFFFFFFFF00FFFFFFFFFFFFFFFFFFFFFFFFFFFFFFFFFFFFFFFFFFFFFFFFFFFF00FFFFFFFFFF00FFFFFFFFFFFFFFFFFFFFFFFFFFFFFFFFFFFFFFFFFFFFFFFFFFFF00FFFFFFFFFF00FFFFFFFFFFFFFFFFFFFFFFFFFFFFFFFFFFFFFFFFFFFFFFFFFFFF00FFFFFFFFFF00FFFFFFFFFFFFFFFFFFFFFFFFFFFFFFFFFFFFFFFFFFFF
310
FFFFFFFF00FFFFFFFFFF00FFFFFFFFFFFFFFFFFFFFFFFFFFFFFFFFFFFFFFFFFFFFFFFFFFFF00FFFFFFFFFF00FFFFFFFFFFFFFFFFFFFFFFFFFFFFFFFFFFFFFFFFFFFFFFFFFFFF00FFFFFFFFFF00FFFFFFFFFFFFFFFFFFFFFFFFFFFFFFFFFFFFFFFFFFFFFFFFFFFF00FFFFFFFFFF00FFFFFFFFFFFFFFFFFFFFFFFFFFFFFFFFFF
310
FFFFFFFFFFFFFFFFFF00FFFFFFFFFF00FFFFFFFFFFFFFFFFFFFFFFFFFFFFFFFFFFFFFFFFFFFFFFFFFFFF00FFFFFFFFFF00FFFFFFFFFFFFFFFFFFFFFFFFFFFFFFFFFFFFFFFFFFFFFFFFFFFF00FFFFFFFFFF00FFFFFFFFFFFFFFFFFFFFFFFFFFFFFFFFFFFFFFFFFFFFFFFFFFFF00FFFFFFFFFF00FFFFFFFFFFFFFFFFFFFFFFFF
310
FFFFFFFFFFFFFFFFFFFFFFFFFFFF00FFFFFFFFFF00FFFFFFFFFFFFFFFFFFFFFFFFFFFFFFFFFFFFFFFFFFFFFFFFFFFF00FFFFFFFFFF00FFFFFFFFFFFFFFFFFFFFFFFFFFFFFFFFFFFFFFFFFFFFFFFFFFFF00FFFFFFFFFF00FFFFFFFFFFFFFFFFFFFFFFFFFFFFFFFFFFFFFFFFFFFFFFFFFFFF00FFFFFF00FFFFFFFFFFFFFFFFFF
310
FFFFFFFFFFFFFFFFFFFFFFFFFFFFFFFFFFFFFF00FF00FFFFFFFFFFFFFFFFFFFFFFFFFFFFFFFFFFFFFFFFFFFFFFFFFFFFFFFFFFFF00FFFFFF
  0
ENDTAB
  0
ENDSEC
  0
SECTION
  2
BLOCKS
  0
BLOCK
  5
68
330
67
100
AcDbEntity
  8
0
100
AcDbBlockBegin
  2
*Model_Space
 70
     0
 10
0.0
 20
0.0
 30
0.0
  3
*Model_Space
  1

  0
ENDBLK
  5
69
330
67
100
AcDbEntity
  8
0
100
AcDbBlockEnd
  0
BLOCK
  5
64
330
63
100
AcDbEntity
 67
     1
  8
0
100
AcDbBlockBegin
  2
*Paper_Space
 70
     0
 10
0.0
 20
0.0
 30
0.0
  3
*Paper_Space
  1

  0
ENDBLK
  5
65
330
63
100
AcDbEntity
 67
     1
  8
0
100
AcDbBlockEnd
  0
BLOCK
  5
6C
330
6B
100
AcDbEntity
 67
     1
  8
0
100
AcDbBlockBegin
  2
*Paper_Space0
 70
     0
 10
0.0
 20
0.0
 30
0.0
  3
*Paper_Space0
  1

  0
ENDBLK
  5
6D
330
6B
100
AcDbEntity
 67
     1
  8
0
100
AcDbBlockEnd
  0
BLOCK
  5
77F9
330
77F6
100
AcDbEntity
  8
0
100
AcDbBlockBegin
  2
_ArchTick
 70
     0
 10
0.0
 20
0.0
 30
0.0
  3
_ArchTick
  1

  0
LWPOLYLINE
  5
77FA
330
77F6
100
AcDbEntity
  8
0
  6
ByBlock
 62
     7
100
AcDbPolyline
 90
        2
 70
     0
 43
0.15
 10
-0.5
 20
-0.5
 10
0.5
 20
0.5
  0
ENDBLK
  5
77FB
330
77F6
100
AcDbEntity
  8
0
100
AcDbBlockEnd
  0
ENDSEC
  0
SECTION
  2
ENTITIES
  0
HATCH
  5
7878
330
67
100
AcDbEntity
  8
F_18 Schr-Holz hell
370
    13
100
AcDbHatch
 10
0.0
 20
0.0
 30
0.0
210
0.0
220
0.0
230
1.0
  2
SOLID
 70
     1
 71
     0
 91
        1
 92
        1
 93
       10
 72
     1
 10
446.1210659443977
 20
339.6600354041447
 11
446.1210670572409
 21
358.1600367237434
 72
     1
 10
446.1210670572409
 20
358.1600367237452
 11
451.1210670572409
 21
358.1600372493531
 72
     1
 10
451.1210670572409
 20
358.1600372493531
 11
451.1210662162711
 21
366.1600372493531
 72
     1
 10
451.1210662162711
 20
366.1600372493531
 11
455.1210662162711
 21
366.160037669838
 72
     1
 10
455.1210662162711
 20
366.160037669838
 11
455.1210670572409
 21
358.1600376698379
 72
     1
 10
455.1210670572409
 20
358.1600376698379
 11
459.1210670572409
 21
358.1600380903228
 72
     1
 10
459.1210670572409
 20
358.1600380903228
 11
459.1220840010582
 21
630.6600360412913
 72
     1
 10
459.1220840010582
 20
630.6600360412894
 11
434.1210398295961
 21
630.6600360412894
 72
     1
 10
434.1210398295961
 20
630.6600360412894
 11
434.1210685035484
 21
339.6600358835849
 72
     1
 10
434.1210685035484
 20
339.6600358835867
 11
446.1210659443977
 21
339.6600354041466
 97
        0
 75
     0
 76
     1
 98
        1
 10
-35206.92857622306
 20
-14093.38835819366
450
        0
451
        0
460
0.0
461
0.0
452
        1
462
1.0
453
        2
463
0.0
 63
     5
421
      255
463
1.0
 63
     7
421
 16777215
470
LINEAR
1001
ACAD
1010
0.0
1020
0.0
1030
0.0
  0
HATCH
  5
7879
330
67
100
AcDbEntity
  8
F_18 Schr-Holz hell
370
    13
100
AcDbHatch
 10
0.0
 20
0.0
 30
0.0
210
0.0
220
0.0
230
1.0
  2
SOLID
 70
     1
 71
     0
 91
        1
 92
        1
 93
        7
 72
     1
 10
665.479174199886
 20
359.6598238242013
 11
467.6210722481273
 21
359.6598236761029
 72
     1
 10
467.6210722481273
 20
359.6598236761029
 11
467.6053187860389
 21
354.1600717283045
 72
     1
 10
467.6053187860389
 20
354.1600717283045
 11
450.2053187860301
 21
354.1600717283045
 72
     1
 10
450.2053187860301
 20
354.1600717283045
 11
448.6053187860388
 21
322.6600717283045
 72
     1
 10
448.6053187860388
 20
322.6600717283045
 11
448.6053187860388
 21
317.6600717283045
 72
     1
 10
448.6053187860388
 20
317.6600717283045
 11
665.479174199886
 21
317.6600718860091
 72
     1
 10
665.479174199886
 20
317.6600718860072
 11
665.479174199886
 21
359.6598238241995
 97
        0
 75
     0
 76
     1
 98
        1
 10
-31274.68409203436
 20
-14159.38071314692
450
        0
451
        0
460
0.0
461
0.0
452
        1
462
1.0
453
        2
463
0.0
 63
     5
421
      255
463
1.0
 63
     7
421
 16777215
470
LINEAR
1001
ACAD
1010
0.0
1020
0.0
1030
0.0
  0
HATCH
  5
787A
330
67
100
AcDbEntity
  8
F_18 Schr-Holz hell
370
    13
100
AcDbHatch
 10
0.0
 20
0.0
 30
0.0
210
0.0
220
0.0
230
1.0
  2
SOLID
 70
     1
 71
     0
 91
        1
 92
        7
 72
     1
 73
     1
 93
       69
 10
454.2210749069136
 20
363.9100377329096
 42
-0.4142135623721549
 10
454.4710748806328
 20
364.1600377591903
 42
0.0
 10
455.12106642651
 20
364.1600378275152
 42
0.0
 10
455.1210663424144
 20
364.9600378275145
 42
0.0
 10
454.4710747965373
 20
364.9600377591896
 42
-0.4142135623679066
 10
454.2210747702565
 20
365.2100377329052
 42
0.0
 10
454.221074749229
 20
365.4100377329132
 42
0.4142135623680808
 10
453.9710747229483
 20
365.6600377066288
 42
0.0
 10
453.1210747229497
 20
365.6600376172765
 42
0.0
 10
452.2710747229512
 20
365.660037527924
 42
0.4142135623674541
 10
452.021074749232
 20
365.4100375016469
 42
0.0
 10
452.0210747702521
 20
365.2100375016353
 42
-0.4142135623676283
 10
451.7710747965329
 20
364.9600374753618
 42
0.0
 10
451.1210663424144
 20
364.9600374070333
 42
0.0
 10
451.1210664265099
 20
364.1600374070304
 42
0.0
 10
451.7710748806284
 20
364.1600374753625
 42
-0.4142135623738472
 10
452.0210749069092
 20
363.9100375016469
 42
0.0
 10
452.021075085614
 20
362.2100375016426
 42
-0.4142135623732694
 10
451.7710751118947
 20
361.9600374753618
 42
0.0
 10
451.1210666577835
 20
361.9600374070333
 42
0.0
 10
451.121066741879
 20
361.1600374070304
 42
0.0
 10
451.7710751959903
 20
361.1600374753625
 42
-0.4142135623737132
 10
452.021075222271
 20
360.9100375016433
 42
0.0
 10
452.0210754436202
 20
358.8043750689403
 42
-0.2679491924300823
 10
451.8960754663794
 20
358.5878687048544
 42
0.0
 10
451.2130628059467
 20
358.1935310657582
 42
-0.0981118173532839
 10
451.121067057008
 20
358.1622255436569
 42
0.0
 10
451.1210670572409
 20
358.1600372493531
 42
0.0
 10
447.6210755113579
 20
358.1600368814261
 42
0.0
 10
447.6210756164737
 20
357.160037039107
 42
0.0
 10
450.6210415579999
 20
354.1600717283045
 42
0.0
 10
451.8109668881525
 20
354.1600717283045
 42
0.3381944148685465
 10
451.3534991126662
 20
354.5589850586048
 42
0.0
 10
449.1792232065427
 20
356.733260507609
 42
-0.6681786379188936
 10
449.3559998569699
 20
357.1600372214862
 42
0.0
 10
452.4835734022281
 20
357.1600375502612
 42
-0.3394542588692284
 10
452.5801659926446
 20
357.0859194649247
 42
0.0
 10
452.6208309986623
 20
356.9341556601839
 42
0.3394542588769969
 10
452.7174235890861
 20
356.8600375748438
 42
0.0
 10
452.7639581914927
 20
356.8600375797369
 42
0.3394542588442736
 10
452.8605507663241
 20
356.9341556853733
 42
0.0
 10
452.901215740444
 20
357.0859194986815
 42
-0.3394542588510432
 10
452.9978083152754
 20
357.1600376043179
 42
0.0
 10
453.1210756164809
 20
357.1600376172764
 42
0.0
 10
453.2443429176864
 20
357.1600376302349
 42
-0.3394542588693947
 10
453.340935508103
 20
357.0859195448984
 42
0.0
 10
453.3816005141207
 20
356.9341557401576
 42
0.3394542588652627
 10
453.4781931045444
 20
356.8600376548175
 42
0.0
 10
453.5247277069438
 20
356.8600376597069
 42
0.3394542588560069
 10
453.6213202817825
 20
356.9341557653434
 42
0.0
 10
453.6619852559024
 20
357.0859195786552
 42
-0.3394542588528795
 10
453.7585778307338
 20
357.1600376842916
 42
0.0
 10
456.8861513759848
 20
357.1600380130667
 42
-0.668178637919139
 10
457.0629281161464
 20
356.7332613363515
 42
0.0
 10
454.489739049096
 20
354.1600717283045
 42
0.0
 10
455.621109780056
 20
354.1600717283045
 42
0.0
 10
458.6210756164737
 20
357.1600381954422
 42
0.0
 10
458.621075511358
 20
358.1600380377613
 42
0.0
 10
455.1210670572409
 20
358.1600376698379
 42
0.0
 10
455.121067057008
 20
358.1622282166145
 42
-0.0980945955796488
 10
455.029088209726
 20
358.1935314669035
 42
0.0
 10
454.3460754663838
 20
358.5878689624014
 42
-0.2679491924307703
 10
454.2210754436246
 20
358.8043753002066
 42
0.0
 10
454.2210752222754
 20
360.9100377329096
 42
-0.4142135623735426
 10
454.4710751959947
 20
361.1600377591904
 42
0.0
 10
455.121066741879
 20
361.1600378275152
 42
0.0
 10
455.1210666577835
 20
361.9600378275145
 42
0.0
 10
454.4710751118919
 20
361.9600377591896
 42
-0.4142135623741744
 10
454.2210750856111
 20
362.2100377329088
 42
0.0
 97
        0
 75
     0
 76
     1
 47
0.0230466387105751
 98
        1
 10
453.0965195130638
 20
362.7598214440741
450
        0
451
        0
460
0.0
461
0.0
452
        1
462
1.0
453
        2
463
0.0
 63
     5
421
      255
463
1.0
 63
     7
421
 16777215
470
LINEAR
1001
ACAD
1010
0.0
1020
0.0
1030
0.0
  0
HATCH
  5
787B
330
67
100
AcDbEntity
  8
F_18 Schr-Holz hell
370
    13
100
AcDbHatch
 10
0.0
 20
0.0
 30
0.0
210
0.0
220
0.0
230
1.0
  2
SOLID
 70
     1
 71
     0
 91
        1
 92
        1
 93
        4
 72
     1
 10
446.1210659443977
 20
339.6600358835867
 11
446.1210678222496
 21
317.6600358835867
 72
     1
 10
446.1210678222496
 20
317.6600358835867
 11
391.1210678222496
 21
317.6600358835867
 72
     1
 10
391.1210678222496
 20
317.6600358835867
 11
391.1210678222496
 21
339.6600358835867
 72
     1
 10
391.1210678222496
 20
339.6600358835867
 11
446.1210659443977
 21
339.6600358835867
 97
        0
 75
     0
 76
     1
 98
        1
 10
-35206.92857622306
 20
-14093.38835819366
450
        0
451
        0
460
0.0
461
0.0
452
        1
462
1.0
453
        2
463
0.0
 63
     5
421
      255
463
1.0
 63
     7
421
 16777215
470
LINEAR
1001
ACAD
1010
0.0
1020
0.0
1030
0.0
  0
HATCH
  5
787C
330
67
100
AcDbEntity
  8
F_29 Bemassung M
370
    13
100
AcDbHatch
 10
0.0
 20
0.0
 30
0.0
210
0.0
220
0.0
230
1.0
  2
SOLID
 70
     1
 71
     0
 91
        1
 92
        1
 93
        6
 72
     1
 10
446.1210677804711
 20
317.6600358835867
 11
446.1210677804711
 21
302.6600358835867
 72
     1
 10
446.1210677804711
 20
302.6600358835867
 11
444.121067780471
 21
302.6600358835867
 72
     1
 10
444.121067780471
 20
302.6600358835867
 11
444.121067780471
 21
315.6600358835867
 72
     1
 10
444.121067780471
 20
315.6600358835867
 11
431.1210677804711
 21
315.6600358835867
 72
     1
 10
431.1210677804711
 20
315.6600358835867
 11
431.1210677804711
 21
317.6600358835867
 72
     1
 10
431.1210677804711
 20
317.6600358835867
 11
446.1210677804711
 21
317.6600358835867
 97
        0
 75
     0
 76
     1
 98
        1
 10
-35206.92857622306
 20
-14093.38835819366
450
        0
451
        0
460
0.0
461
0.0
452
        1
462
1.0
453
        2
463
0.0
 63
     5
421
      255
463
1.0
 63
     7
421
 16777215
470
LINEAR
1001
ACAD
1010
0.0
1020
0.0
1030
0.0
  0
HATCH
  5
787D
330
67
100
AcDbEntity
  8
F_29 Bemassung M
370
    13
100
AcDbHatch
 10
0.0
 20
0.0
 30
0.0
210
0.0
220
0.0
230
1.0
  2
SOLID
 70
     1
 71
     0
 91
        1
 92
        1
 93
        6
 72
     1
 10
448.6053187860388
 20
317.6600358835867
 11
448.6053187860388
 21
302.6600358835867
 72
     1
 10
448.6053187860388
 20
302.6600358835867
 11
450.6053187860389
 21
302.6600358835867
 72
     1
 10
450.6053187860389
 20
302.6600358835867
 11
450.6053187860389
 21
315.6600358835867
 72
     1
 10
450.6053187860389
 20
315.6600358835867
 11
463.6053187860389
 21
315.6600358835867
 72
     1
 10
463.6053187860389
 20
315.6600358835867
 11
463.6053187860389
 21
317.6600358835867
 72
     1
 10
463.6053187860389
 20
317.6600358835867
 11
448.6053187860388
 21
317.6600358835867
 97
        0
 75
     0
 76
     1
 98
        1
 10
-35206.92857622306
 20
-14093.38835819366
450
        0
451
        0
460
0.0
461
0.0
452
        1
462
1.0
453
        2
463
0.0
 63
     5
421
      255
463
1.0
 63
     7
421
 16777215
470
LINEAR
1001
ACAD
1010
0.0
1020
0.0
1030
0.0
  0
HATCH
  5
787E
330
67
100
AcDbEntity
  8
F_15 Schr-Mauer hell
370
    13
100
AcDbHatch
 10
0.0
 20
0.0
 30
0.0
210
0.0
220
0.0
230
1.0
  2
SOLID
 70
     1
 71
     0
 91
        1
 92
        1
 93
        4
 72
     1
 10
267.1774279990141
 20
507.6600360412858
 11
267.1774279990213
 21
342.6600358835849
 72
     1
 10
267.1774279990213
 20
342.6600358835867
 11
429.1210805628443
 21
342.6600358835885
 72
     1
 10
429.1210805628443
 20
342.6600358835867
 11
429.1210805628443
 21
507.6600360412858
 72
     1
 10
429.1210805628443
 20
507.6600360412858
 11
267.1774279990141
 21
507.6600360412858
 97
        0
 75
     0
 76
     1
 98
        1
 10
218.0320861240916
 20
469.2485372013698
450
        0
451
        0
460
0.0
461
0.0
452
        1
462
1.0
453
        2
463
0.0
 63
     5
421
      255
463
1.0
 63
     7
421
 16777215
470
LINEAR
1001
ACAD
1010
0.0
1020
0.0
1030
0.0
  0
HATCH
  5
787F
330
67
100
AcDbEntity
  8
F_01 sichtbar
370
    13
100
AcDbHatch
 10
0.0
 20
0.0
 30
0.0
210
0.0
220
0.0
230
1.0
  2
BATT_INSULATION
 70
     0
 71
     0
 91
        1
 92
        1
 93
        4
 72
     1
 10
665.4634252054538
 20
322.6711760921798
 11
665.4634252054538
 21
354.6600718860054
 72
     1
 10
665.4634252054538
 20
354.6600718860072
 11
506.6058828172108
 21
354.6600718860091
 72
     1
 10
506.6058828172108
 20
354.6600718860072
 11
506.6058828172108
 21
322.6711760921798
 72
     1
 10
506.6058828172108
 20
322.6711760921798
 11
665.4634252054538
 21
322.6711760921798
 97
        0
 75
     0
 76
     2
 52
180.0
 41
32.77964320184142
 77
     0
 78
   528
 53
0.000000000000007
 43
12329.14221979877
 44
1612.488211917401
 45
10.95203936981043
 46
-36.87709860207159
 79
     2
 49
0.0
 49
-10.95203936981043
 53
345.9236
 43
12323.66618372404
 44
1608.390756517169
 45
10.95202660980681
 46
0.000004046117522
 79
     2
 49
2.663936043727233
 49
-1058.697838380723
 53
345.9236
 43
12323.66618372404
 44
1571.513657915094
 45
10.95202660980681
 46
0.000004046117522
 79
     2
 49
2.663936043727233
 49
-1058.697838380723
 53
345.9236
 43
12323.66618372404
 44
1534.636559313026
 45
10.95202660980681
 46
0.000004046117522
 79
     2
 49
2.663936043727233
 49
-1058.697838380723
 53
345.9236
 43
12323.66618372404
 44
1497.75946071095
 45
10.95202660980681
 46
0.000004046117522
 79
     2
 49
2.663936043727233
 49
-1058.697838380723
 53
345.9236
 43
12323.66618372404
 44
1460.882362108882
 45
10.95202660980681
 46
0.000004046117522
 79
     2
 49
2.663936043727233
 49
-1058.697838380723
 53
345.9236
 43
12323.66618372404
 44
1424.005263506814
 45
10.95202660980681
 46
0.000004046117522
 79
     2
 49
2.663936043727233
 49
-1058.697838380723
 53
345.9236
 43
12323.66618372404
 44
1387.128164904739
 45
10.95202660980681
 46
0.000004046117522
 79
     2
 49
2.663936043727233
 49
-1058.697838380723
 53
334.9544
 43
12324.94186909852
 44
1577.573630553824
 45
10.9520365279484
 46
-0.0000117218229823
 79
     2
 49
4.636287175181989
 49
-2957.102061108972
 53
334.9544
 43
12324.94186909852
 44
1540.696531951748
 45
10.9520365279484
 46
-0.0000117218229823
 79
     2
 49
4.636287175181989
 49
-2957.102061108972
 53
334.9544
 43
12324.94186909852
 44
1503.81943334968
 45
10.9520365279484
 46
-0.0000117218229823
 79
     2
 49
4.636287175181989
 49
-2957.102061108972
 53
334.9544
 43
12324.94186909852
 44
1466.942334747605
 45
10.9520365279484
 46
-0.0000117218229823
 79
     2
 49
4.636287175181989
 49
-2957.102061108972
 53
334.9544
 43
12324.94186909852
 44
1430.065236145533
 45
10.9520365279484
 46
-0.0000117218229823
 79
     2
 49
4.636287175181989
 49
-2957.102061108972
 53
334.9544
 43
12324.94186909852
 44
1393.188137543461
 45
10.9520365279484
 46
-0.0000117218229823
 79
     2
 49
4.636287175181989
 49
-2957.102061108972
 53
334.9544
 43
12324.94186909852
 44
1356.311038941393
 45
10.9520365279484
 46
-0.0000117218229823
 79
     2
 49
4.636287175181989
 49
-2957.102061108972
 53
334.9544
 43
12324.94186909852
 44
1319.433940339318
 45
10.9520365279484
 46
-0.0000117218229823
 79
     2
 49
4.636287175181989
 49
-2957.102061108972
 53
334.9544
 43
12324.94186909852
 44
1282.557825126548
 45
10.9520365279484
 46
-0.0000117218229823
 79
     2
 49
4.636287175181989
 49
-2957.102061108972
 53
334.9544
 43
12324.94186909852
 44
1245.680726524472
 45
10.9520365279484
 46
-0.0000117218229823
 79
     2
 49
4.636287175181989
 49
-2957.102061108972
 53
334.9544
 43
12324.94186909852
 44
1208.803627922401
 45
10.9520365279484
 46
-0.0000117218229823
 79
     2
 49
4.636287175181989
 49
-2957.102061108972
 53
334.9544
 43
12324.94186909852
 44
1171.926529320329
 45
10.9520365279484
 46
-0.0000117218229823
 79
     2
 49
4.636287175181989
 49
-2957.102061108972
 53
334.9544
 43
12324.94186909852
 44
1135.049430718257
 45
10.9520365279484
 46
-0.0000117218229823
 79
     2
 49
4.636287175181989
 49
-2957.102061108972
 53
334.9544
 43
12324.94186909852
 44
1098.172332116189
 45
10.9520365279484
 46
-0.0000117218229823
 79
     2
 49
4.636287175181989
 49
-2957.102061108972
 53
334.9544
 43
12324.94186909852
 44
1061.295233514117
 45
10.9520365279484
 46
-0.0000117218229823
 79
     2
 49
4.636287175181989
 49
-2957.102061108972
 53
334.9544
 43
12324.94186909852
 44
1024.418134912042
 45
10.9520365279484
 46
-0.0000117218229823
 79
     2
 49
4.636287175181989
 49
-2957.102061108972
 53
334.9544
 43
12324.94186909852
 44
987.5410363099735
 45
10.9520365279484
 46
-0.0000117218229823
 79
     2
 49
4.636287175181989
 49
-2957.102061108972
 53
334.9544
 43
12324.94186909852
 44
950.6639377079018
 45
10.9520365279484
 46
-0.0000117218229823
 79
     2
 49
4.636287175181989
 49
-2957.102061108972
 53
334.9544
 43
12324.94186909852
 44
913.7868391058301
 45
10.9520365279484
 46
-0.0000117218229823
 79
     2
 49
4.636287175181989
 49
-2957.102061108972
 53
334.9544
 43
12324.94186909852
 44
876.9097405037546
 45
10.9520365279484
 46
-0.0000117218229823
 79
     2
 49
4.636287175181989
 49
-2957.102061108972
 53
334.9544
 43
12324.94186909852
 44
840.0326419016865
 45
10.9520365279484
 46
-0.0000117218229823
 79
     2
 49
4.636287175181989
 49
-2957.102061108972
 53
334.9544
 43
12324.94186909852
 44
803.1555432996146
 45
10.9520365279484
 46
-0.0000117218229823
 79
     2
 49
4.636287175181989
 49
-2957.102061108972
 53
334.9544
 43
12324.94186909852
 44
766.2784446975429
 45
10.9520365279484
 46
-0.0000117218229823
 79
     2
 49
4.636287175181989
 49
-2957.102061108972
 53
334.9544
 43
12324.94186909852
 44
729.4013460954674
 45
10.9520365279484
 46
-0.0000117218229823
 79
     2
 49
4.636287175181989
 49
-2957.102061108972
 53
334.9544
 43
12324.94186909852
 44
692.5242474933993
 45
10.9520365279484
 46
-0.0000117218229823
 79
     2
 49
4.636287175181989
 49
-2957.102061108972
 53
334.9544
 43
12324.94186909852
 44
655.6471488913311
 45
10.9520365279484
 46
-0.0000117218229823
 79
     2
 49
4.636287175181989
 49
-2957.102061108972
 53
334.9544
 43
12324.94186909852
 44
618.7700502892558
 45
10.9520365279484
 46
-0.0000117218229823
 79
     2
 49
4.636287175181989
 49
-2957.102061108972
 53
334.9544
 43
12324.94186909852
 44
581.8929516871876
 45
10.9520365279484
 46
-0.0000117218229823
 79
     2
 49
4.636287175181989
 49
-2957.102061108972
 53
334.9544
 43
12324.94186909852
 44
545.0158530851122
 45
10.9520365279484
 46
-0.0000117218229823
 79
     2
 49
4.636287175181989
 49
-2957.102061108972
 53
334.9544
 43
12324.94186909852
 44
508.1387544830367
 45
10.9520365279484
 46
-0.0000117218229823
 79
     2
 49
4.636287175181989
 49
-2957.102061108972
 53
334.9544
 43
12324.94186909852
 44
471.2616558809686
 45
10.9520365279484
 46
-0.0000117218229823
 79
     2
 49
4.636287175181989
 49
-2957.102061108972
 53
334.9544
 43
12324.94186909852
 44
434.3845572789005
 45
10.9520365279484
 46
-0.0000117218229823
 79
     2
 49
4.636287175181989
 49
-2957.102061108972
 53
334.9544
 43
12324.94186909852
 44
397.5074586768251
 45
10.9520365279484
 46
-0.0000117218229823
 79
     2
 49
4.636287175181989
 49
-2957.102061108972
 53
334.9544
 43
12324.94186909852
 44
360.6303600747533
 45
10.9520365279484
 46
-0.0000117218229823
 79
     2
 49
4.636287175181989
 49
-2957.102061108972
 53
307.5647
 43
12326.25013743835
 44
1607.742768530356
 45
10.95203172566192
 46
-0.0000024731155069
 79
     2
 49
4.503300162712156
 49
-1809.889024393901
 53
307.5647
 43
12326.25013743835
 44
1570.865604368996
 45
10.95203172566192
 46
-0.0000024731155069
 79
     2
 49
4.503300162712156
 49
-1809.889024393901
 53
307.5647
 43
12326.25013743835
 44
1533.988505766924
 45
10.95203172566192
 46
-0.0000024731155069
 79
     2
 49
4.503300162712156
 49
-1809.889024393901
 53
307.5647
 43
12326.25013743835
 44
1497.111407164856
 45
10.95203172566192
 46
-0.0000024731155069
 79
     2
 49
4.503300162712156
 49
-1809.889024393901
 53
307.5647
 43
12326.25013743835
 44
1460.234308562781
 45
10.95203172566192
 46
-0.0000024731155069
 79
     2
 49
4.503300162712156
 49
-1809.889024393901
 53
307.5647
 43
12326.25013743835
 44
1423.357209960705
 45
10.95203172566192
 46
-0.0000024731155069
 79
     2
 49
4.503300162712156
 49
-1809.889024393901
 53
307.5647
 43
12326.25013743835
 44
1386.480111358637
 45
10.95203172566192
 46
-0.0000024731155069
 79
     2
 49
4.503300162712156
 49
-1809.889024393901
 53
307.5647
 43
12326.25013743835
 44
1349.603012756569
 45
10.95203172566192
 46
-0.0000024731155069
 79
     2
 49
4.503300162712156
 49
-1809.889024393901
 53
307.5647
 43
12326.25013743835
 44
1312.725914154494
 45
10.95203172566192
 46
-0.0000024731155069
 79
     2
 49
4.503300162712156
 49
-1809.889024393901
 53
307.5647
 43
12326.25013743835
 44
1275.847832163127
 45
10.95203172566192
 46
-0.0000024731155069
 79
     2
 49
4.503300162712156
 49
-1809.889024393901
 53
307.5647
 43
12326.25013743835
 44
1238.970733561059
 45
10.95203172566192
 46
-0.0000024731155069
 79
     2
 49
4.503300162712156
 49
-1809.889024393901
 53
307.5647
 43
12326.25013743835
 44
1202.093634958984
 45
10.95203172566192
 46
-0.0000024731155069
 79
     2
 49
4.503300162712156
 49
-1809.889024393901
 53
307.5647
 43
12326.25013743835
 44
1165.216536356908
 45
10.95203172566192
 46
-0.0000024731155069
 79
     2
 49
4.503300162712156
 49
-1809.889024393901
 53
307.5647
 43
12326.25013743835
 44
1128.33943775484
 45
10.95203172566192
 46
-0.0000024731155069
 79
     2
 49
4.503300162712156
 49
-1809.889024393901
 53
307.5647
 43
12326.25013743835
 44
1091.462339152772
 45
10.95203172566192
 46
-0.0000024731155069
 79
     2
 49
4.503300162712156
 49
-1809.889024393901
 53
307.5647
 43
12326.25013743835
 44
1054.585240550697
 45
10.95203172566192
 46
-0.0000024731155069
 79
     2
 49
4.503300162712156
 49
-1809.889024393901
 53
307.5647
 43
12326.25013743835
 44
1017.708141948625
 45
10.95203172566192
 46
-0.0000024731155069
 79
     2
 49
4.503300162712156
 49
-1809.889024393901
 53
307.5647
 43
12326.25013743835
 44
980.831043346553
 45
10.95203172566192
 46
-0.0000024731155069
 79
     2
 49
4.503300162712156
 49
-1809.889024393901
 53
307.5647
 43
12326.25013743835
 44
943.9539447444849
 45
10.95203172566192
 46
-0.0000024731155069
 79
     2
 49
4.503300162712156
 49
-1809.889024393901
 53
307.5647
 43
12326.25013743835
 44
907.0768461424094
 45
10.95203172566192
 46
-0.0000024731155069
 79
     2
 49
4.503300162712156
 49
-1809.889024393901
 53
307.5647
 43
12326.25013743835
 44
870.1997475403414
 45
10.95203172566192
 46
-0.0000024731155069
 79
     2
 49
4.503300162712156
 49
-1809.889024393901
 53
307.5647
 43
12326.25013743835
 44
833.322648938266
 45
10.95203172566192
 46
-0.0000024731155069
 79
     2
 49
4.503300162712156
 49
-1809.889024393901
 53
307.5647
 43
12326.25013743835
 44
796.4455503361977
 45
10.95203172566192
 46
-0.0000024731155069
 79
     2
 49
4.503300162712156
 49
-1809.889024393901
 53
307.5647
 43
12326.25013743835
 44
759.568451734126
 45
10.95203172566192
 46
-0.0000024731155069
 79
     2
 49
4.503300162712156
 49
-1809.889024393901
 53
307.5647
 43
12326.25013743835
 44
722.6913531320542
 45
10.95203172566192
 46
-0.0000024731155069
 79
     2
 49
4.503300162712156
 49
-1809.889024393901
 53
307.5647
 43
12326.25013743835
 44
685.8142545299788
 45
10.95203172566192
 46
-0.0000024731155069
 79
     2
 49
4.503300162712156
 49
-1809.889024393901
 53
307.5647
 43
12326.25013743835
 44
648.9371559279106
 45
10.95203172566192
 46
-0.0000024731155069
 79
     2
 49
4.503300162712156
 49
-1809.889024393901
 53
307.5647
 43
12326.25013743835
 44
612.0600573258425
 45
10.95203172566192
 46
-0.0000024731155069
 79
     2
 49
4.503300162712156
 49
-1809.889024393901
 53
307.5647
 43
12326.25013743835
 44
575.1829587237671
 45
10.95203172566192
 46
-0.0000024731155069
 79
     2
 49
4.503300162712156
 49
-1809.889024393901
 53
307.5647
 43
12326.25013743835
 44
538.3058601216953
 45
10.95203172566192
 46
-0.0000024731155069
 79
     2
 49
4.503300162712156
 49
-1809.889024393901
 53
307.5647
 43
12326.25013743835
 44
501.4287615196235
 45
10.95203172566192
 46
-0.0000024731155069
 79
     2
 49
4.503300162712156
 49
-1809.889024393901
 53
307.5647
 43
12326.25013743835
 44
464.5516629175481
 45
10.95203172566192
 46
-0.0000024731155069
 79
     2
 49
4.503300162712156
 49
-1809.889024393901
 53
307.5647
 43
12326.25013743835
 44
427.6745643154836
 45
10.95203172566192
 46
-0.0000024731155069
 79
     2
 49
4.503300162712156
 49
-1809.889024393901
 53
307.5647
 43
12326.25013743835
 44
390.7974657134118
 45
10.95203172566192
 46
-0.0000024731155069
 79
     2
 49
4.503300162712156
 49
-1809.889024393901
 53
307.5647
 43
12326.25013743835
 44
353.9203671113364
 45
10.95203172566192
 46
-0.0000024731155069
 79
     2
 49
4.503300162712156
 49
-1809.889024393901
 53
307.5647
 43
12326.25013743835
 44
317.0432685092683
 45
10.95203172566192
 46
-0.0000024731155069
 79
     2
 49
4.503300162712156
 49
-1809.889024393901
 53
307.5647
 43
12326.25013743835
 44
280.1661699071965
 45
10.95203172566192
 46
-0.0000024731155069
 79
     2
 49
4.503300162712156
 49
-1809.889024393901
 53
307.5647
 43
12326.25013743835
 44
243.2890713051256
 45
10.95203172566192
 46
-0.0000024731155069
 79
     2
 49
4.503300162712156
 49
-1809.889024393901
 53
307.5647
 43
12326.25013743835
 44
206.4119727030538
 45
10.95203172566192
 46
-0.0000024731155069
 79
     2
 49
4.503300162712156
 49
-1809.889024393901
 53
292.9384
 43
12319.19921979581
 44
1596.158934317472
 45
10.95204222721493
 46
-0.0000045639384487
 79
     2
 49
8.386475035331912
 49
-1593.356600854789
 53
292.9384
 43
12319.19921979581
 44
1559.281934054329
 45
10.95204222721493
 46
-0.0000045639384487
 79
     2
 49
8.386475035331912
 49
-1593.356600854789
 53
292.9384
 43
12319.19921979581
 44
1522.404835452254
 45
10.95204222721493
 46
-0.0000045639384487
 79
     2
 49
8.386475035331912
 49
-1593.356600854789
 53
292.9384
 43
12319.19921979581
 44
1485.527736850186
 45
10.95204222721493
 46
-0.0000045639384487
 79
     2
 49
8.386475035331912
 49
-1593.356600854789
 53
292.9384
 43
12319.19921979581
 44
1448.650638248117
 45
10.95204222721493
 46
-0.0000045639384487
 79
     2
 49
8.386475035331912
 49
-1593.356600854789
 53
292.9384
 43
12319.19921979581
 44
1411.773539646042
 45
10.95204222721493
 46
-0.0000045639384487
 79
     2
 49
8.386475035331912
 49
-1593.356600854789
 53
292.9384
 43
12319.19921979581
 44
1374.89644104397
 45
10.95204222721493
 46
-0.0000045639384487
 79
     2
 49
8.386475035331912
 49
-1593.356600854789
 53
292.9384
 43
12319.19921979581
 44
1338.019342441898
 45
10.95204222721493
 46
-0.0000045639384487
 79
     2
 49
8.386475035331912
 49
-1593.356600854789
 53
292.9384
 43
12319.19921979581
 44
1301.14224383983
 45
10.95204222721493
 46
-0.0000045639384487
 79
     2
 49
8.386475035331912
 49
-1593.356600854789
 53
292.9384
 43
12319.19921979581
 44
1264.263506255597
 45
10.95204222721493
 46
-0.0000045639384487
 79
     2
 49
8.386475035331912
 49
-1593.356600854789
 53
292.9384
 43
12319.19921979581
 44
1227.386407653525
 45
10.95204222721493
 46
-0.0000045639384487
 79
     2
 49
8.386475035331912
 49
-1593.356600854789
 53
292.9384
 43
12319.19921979581
 44
1190.50930905145
 45
10.95204222721493
 46
-0.0000045639384487
 79
     2
 49
8.386475035331912
 49
-1593.356600854789
 53
292.9384
 43
12319.19921979581
 44
1153.632210449382
 45
10.95204222721493
 46
-0.0000045639384487
 79
     2
 49
8.386475035331912
 49
-1593.356600854789
 53
292.9384
 43
12319.19921979581
 44
1116.755111847314
 45
10.95204222721493
 46
-0.0000045639384487
 79
     2
 49
8.386475035331912
 49
-1593.356600854789
 53
292.9384
 43
12319.19921979581
 44
1079.878013245238
 45
10.95204222721493
 46
-0.0000045639384487
 79
     2
 49
8.386475035331912
 49
-1593.356600854789
 53
292.9384
 43
12319.19921979581
 44
1043.000914643166
 45
10.95204222721493
 46
-0.0000045639384487
 79
     2
 49
8.386475035331912
 49
-1593.356600854789
 53
292.9384
 43
12319.19921979581
 44
1006.123816041095
 45
10.95204222721493
 46
-0.0000045639384487
 79
     2
 49
8.386475035331912
 49
-1593.356600854789
 53
292.9384
 43
12319.19921979581
 44
969.246717439023
 45
10.95204222721493
 46
-0.0000045639384487
 79
     2
 49
8.386475035331912
 49
-1593.356600854789
 53
292.9384
 43
12319.19921979581
 44
932.3696188369549
 45
10.95204222721493
 46
-0.0000045639384487
 79
     2
 49
8.386475035331912
 49
-1593.356600854789
 53
292.9384
 43
12319.19921979581
 44
895.4925202348832
 45
10.95204222721493
 46
-0.0000045639384487
 79
     2
 49
8.386475035331912
 49
-1593.356600854789
 53
292.9384
 43
12319.19921979581
 44
858.6154216328077
 45
10.95204222721493
 46
-0.0000045639384487
 79
     2
 49
8.386475035331912
 49
-1593.356600854789
 53
292.9384
 43
12319.19921979581
 44
821.7383230307396
 45
10.95204222721493
 46
-0.0000045639384487
 79
     2
 49
8.386475035331912
 49
-1593.356600854789
 53
292.9384
 43
12319.19921979581
 44
784.8612244286678
 45
10.95204222721493
 46
-0.0000045639384487
 79
     2
 49
8.386475035331912
 49
-1593.356600854789
 53
292.9384
 43
12319.19921979581
 44
747.984125826596
 45
10.95204222721493
 46
-0.0000045639384487
 79
     2
 49
8.386475035331912
 49
-1593.356600854789
 53
292.9384
 43
12319.19921979581
 44
711.1070272245206
 45
10.95204222721493
 46
-0.0000045639384487
 79
     2
 49
8.386475035331912
 49
-1593.356600854789
 53
292.9384
 43
12319.19921979581
 44
674.2299286224525
 45
10.95204222721493
 46
-0.0000045639384487
 79
     2
 49
8.386475035331912
 49
-1593.356600854789
 53
292.9384
 43
12319.19921979581
 44
637.352830020377
 45
10.95204222721493
 46
-0.0000045639384487
 79
     2
 49
8.386475035331912
 49
-1593.356600854789
 53
292.9384
 43
12319.19921979581
 44
600.4757314183089
 45
10.95204222721493
 46
-0.0000045639384487
 79
     2
 49
8.386475035331912
 49
-1593.356600854789
 53
292.9384
 43
12319.19921979581
 44
563.5986328162334
 45
10.95204222721493
 46
-0.0000045639384487
 79
     2
 49
8.386475035331912
 49
-1593.356600854789
 53
292.9384
 43
12319.19921979581
 44
526.7215342141652
 45
10.95204222721493
 46
-0.0000045639384487
 79
     2
 49
8.386475035331912
 49
-1593.356600854789
 53
292.9384
 43
12319.19921979581
 44
489.8444356120972
 45
10.95204222721493
 46
-0.0000045639384487
 79
     2
 49
8.386475035331912
 49
-1593.356600854789
 53
292.9384
 43
12319.19921979581
 44
452.9673370100217
 45
10.95204222721493
 46
-0.0000045639384487
 79
     2
 49
8.386475035331912
 49
-1593.356600854789
 53
292.9384
 43
12319.19921979581
 44
416.0902384079499
 45
10.95204222721493
 46
-0.0000045639384487
 79
     2
 49
8.386475035331912
 49
-1593.356600854789
 53
292.9384
 43
12319.19921979581
 44
379.2131398058782
 45
10.95204222721493
 46
-0.0000045639384487
 79
     2
 49
8.386475035331912
 49
-1593.356600854789
 53
292.9384
 43
12319.19921979581
 44
342.3360412038064
 45
10.95204222721493
 46
-0.0000045639384487
 79
     2
 49
8.386475035331912
 49
-1593.356600854789
 53
292.9384
 43
12319.19921979581
 44
305.4589426017346
 45
10.95204222721493
 46
-0.0000045639384487
 79
     2
 49
8.386475035331912
 49
-1593.356600854789
 53
292.9384
 43
12319.19921979581
 44
268.5818439996665
 45
10.95204222721493
 46
-0.0000045639384487
 79
     2
 49
8.386475035331912
 49
-1593.356600854789
 53
292.9384
 43
12319.19921979581
 44
231.7047453975956
 45
10.95204222721493
 46
-0.0000045639384487
 79
     2
 49
8.386475035331912
 49
-1593.356600854789
 53
292.9384
 43
12319.19921979581
 44
194.8276467955202
 45
10.95204222721493
 46
-0.0000045639384487
 79
     2
 49
8.386475035331912
 49
-1593.356600854789
 53
292.9384
 43
12319.19921979581
 44
157.950548193452
 45
10.95204222721493
 46
-0.0000045639384487
 79
     2
 49
8.386475035331912
 49
-1593.356600854789
 53
285.109
 43
12323.99398015606
 44
1581.087116610412
 45
0.0000000992044029
 46
-36.87707611878427
 79
     2
 49
3.638966530766021
 49
-416.5337124354709
 53
285.109
 43
12334.94601952587
 44
1581.087116610412
 45
0.0000000992044029
 46
-36.87707611878427
 79
     2
 49
3.638966530766021
 49
-416.5337124354709
 53
285.109
 43
12345.89805889568
 44
1581.087116610412
 45
0.0000000992044029
 46
-36.87707611878427
 79
     2
 49
3.638966530766021
 49
-416.5337124354709
 53
285.109
 43
12356.85016382477
 44
1581.087116610412
 45
0.0000000992044029
 46
-36.87707611878427
 79
     2
 49
3.638966530766021
 49
-416.5337124354709
 53
285.109
 43
12367.80217041494
 44
1581.087116610412
 45
0.0000000992044029
 46
-36.87707611878427
 79
     2
 49
3.638966530766021
 49
-416.5337124354709
 53
285.109
 43
12378.75417700511
 44
1581.087116610412
 45
0.0000000992044029
 46
-36.87707611878427
 79
     2
 49
3.638966530766021
 49
-416.5337124354709
 53
285.109
 43
12389.70618359527
 44
1581.087116610412
 45
0.0000000992044029
 46
-36.87707611878427
 79
     2
 49
3.638966530766021
 49
-416.5337124354709
 53
285.109
 43
12400.65819018544
 44
1581.087116610412
 45
0.0000000992044029
 46
-36.87707611878427
 79
     2
 49
3.638966530766021
 49
-416.5337124354709
 53
285.109
 43
12411.61019677561
 44
1581.087116610412
 45
0.0000000992044029
 46
-36.87707611878427
 79
     2
 49
3.638966530766021
 49
-416.5337124354709
 53
285.109
 43
12422.56220336578
 44
1581.087116610412
 45
0.0000000992044029
 46
-36.87707611878427
 79
     2
 49
3.638966530766021
 49
-416.5337124354709
 53
276.7473999999999
 43
12322.46736661286
 44
1588.435460345537
 45
0.0000035818718473
 46
-36.87716375543
 79
     2
 49
7.399774995313284
 49
-4560.119085052519
 53
276.7473999999999
 43
12333.41940598267
 44
1588.435460345537
 45
0.0000035818718473
 46
-36.87716375543
 79
     2
 49
7.399774995313284
 49
-4560.119085052519
 53
276.7473999999999
 43
12344.37144535248
 44
1588.435460345537
 45
0.0000035818718473
 46
-36.87716375543
 79
     2
 49
7.399774995313284
 49
-4560.119085052519
 53
276.7473999999999
 43
12355.32361584087
 44
1588.435460345537
 45
0.0000035818718473
 46
-36.87716375543
 79
     2
 49
7.399774995313284
 49
-4560.119085052519
 53
276.7473999999999
 43
12366.27562243103
 44
1588.435460345537
 45
0.0000035818718473
 46
-36.87716375543
 79
     2
 49
7.399774995313284
 49
-4560.119085052519
 53
276.7473999999999
 43
12377.2276290212
 44
1588.435460345537
 45
0.0000035818718473
 46
-36.87716375543
 79
     2
 49
7.399774995313284
 49
-4560.119085052519
 53
276.7473999999999
 43
12388.17963561137
 44
1588.435460345537
 45
0.0000035818718473
 46
-36.87716375543
 79
     2
 49
7.399774995313284
 49
-4560.119085052519
 53
276.7473999999999
 43
12399.13164220153
 44
1588.435460345537
 45
0.0000035818718473
 46
-36.87716375543
 79
     2
 49
7.399774995313284
 49
-4560.119085052519
 53
276.7473999999999
 43
12410.0836487917
 44
1588.435460345537
 45
0.0000035818718473
 46
-36.87716375543
 79
     2
 49
7.399774995313284
 49
-4560.119085052519
 53
276.7473999999999
 43
12421.03565538187
 44
1588.435460345537
 45
0.0000035818718473
 46
-36.87716375543
 79
     2
 49
7.399774995313284
 49
-4560.119085052519
 53
276.7473999999999
 43
12431.98766197204
 44
1588.435460345537
 45
0.0000035818718473
 46
-36.87716375543
 79
     2
 49
7.399774995313284
 49
-4560.119085052519
 53
276.7473999999999
 43
12442.9396685622
 44
1588.435460345537
 45
0.0000035818718473
 46
-36.87716375543
 79
     2
 49
7.399774995313284
 49
-4560.119085052519
 53
276.7473999999999
 43
12453.89167515237
 44
1588.435460345537
 45
0.0000035818718473
 46
-36.87716375543
 79
     2
 49
7.399774995313284
 49
-4560.119085052519
 53
276.7473999999999
 43
12464.84368174254
 44
1588.435460345537
 45
0.0000035818718473
 46
-36.87716375543
 79
     2
 49
7.399774995313284
 49
-4560.119085052519
 53
276.7473999999999
 43
12475.79601612914
 44
1588.435460345537
 45
0.0000035818718473
 46
-36.87716375543
 79
     2
 49
7.399774995313284
 49
-4560.119085052519
 53
276.7473999999999
 43
12486.74802271931
 44
1588.435460345537
 45
0.0000035818718473
 46
-36.87716375543
 79
     2
 49
7.399774995313284
 49
-4560.119085052519
 53
276.7473999999999
 43
12497.70002930947
 44
1588.435460345537
 45
0.0000035818718473
 46
-36.87716375543
 79
     2
 49
7.399774995313284
 49
-4560.119085052519
 53
276.7473999999999
 43
12508.65203589964
 44
1588.435460345537
 45
0.0000035818718473
 46
-36.87716375543
 79
     2
 49
7.399774995313284
 49
-4560.119085052519
 53
276.7473999999999
 43
12519.6040424898
 44
1588.435460345537
 45
0.0000035818718473
 46
-36.87716375543
 79
     2
 49
7.399774995313284
 49
-4560.119085052519
 53
276.7473999999999
 43
12530.55604907997
 44
1588.435460345537
 45
0.0000035818718473
 46
-36.87716375543
 79
     2
 49
7.399774995313284
 49
-4560.119085052519
 53
276.7473999999999
 43
12541.50805567014
 44
1588.435460345537
 45
0.0000035818718473
 46
-36.87716375543
 79
     2
 49
7.399774995313284
 49
-4560.119085052519
 53
276.7473999999999
 43
12552.46006226031
 44
1588.435460345537
 45
0.0000035818718473
 46
-36.87716375543
 79
     2
 49
7.399774995313284
 49
-4560.119085052519
 53
276.7473999999999
 43
12563.41206885047
 44
1588.435460345537
 45
0.0000035818718473
 46
-36.87716375543
 79
     2
 49
7.399774995313284
 49
-4560.119085052519
 53
276.7473999999999
 43
12574.36407544064
 44
1588.435460345537
 45
0.0000035818718473
 46
-36.87716375543
 79
     2
 49
7.399774995313284
 49
-4560.119085052519
 53
276.7473999999999
 43
12585.31640982724
 44
1588.435460345537
 45
0.0000035818718473
 46
-36.87716375543
 79
     2
 49
7.399774995313284
 49
-4560.119085052519
 53
276.7473999999999
 43
12596.2684164174
 44
1588.435460345537
 45
0.0000035818718473
 46
-36.87716375543
 79
     2
 49
7.399774995313284
 49
-4560.119085052519
 53
276.7473999999999
 43
12607.22042300758
 44
1588.435460345537
 45
0.0000035818718473
 46
-36.87716375543
 79
     2
 49
7.399774995313284
 49
-4560.119085052519
 53
276.7473999999999
 43
12618.17242959774
 44
1588.435460345537
 45
0.0000035818718473
 46
-36.87716375543
 79
     2
 49
7.399774995313284
 49
-4560.119085052519
 53
276.7473999999999
 43
12629.12443618791
 44
1588.435460345537
 45
0.0000035818718473
 46
-36.87716375543
 79
     2
 49
7.399774995313284
 49
-4560.119085052519
 53
276.7473999999999
 43
12640.07644277808
 44
1588.435460345537
 45
0.0000035818718473
 46
-36.87716375543
 79
     2
 49
7.399774995313284
 49
-4560.119085052519
 53
276.7473999999999
 43
12651.02812157181
 44
1588.435460345537
 45
0.0000035818718473
 46
-36.87716375543
 79
     2
 49
7.399774995313284
 49
-4560.119085052519
 53
276.7473999999999
 43
12661.97980036555
 44
1588.435460345537
 45
0.0000035818718473
 46
-36.87716375543
 79
     2
 49
7.399774995313284
 49
-4560.119085052519
 53
276.7473999999999
 43
12672.93147915928
 44
1588.435460345537
 45
0.0000035818718473
 46
-36.87716375543
 79
     2
 49
7.399774995313284
 49
-4560.119085052519
 53
276.7473999999999
 43
12683.88315795301
 44
1588.435460345537
 45
0.0000035818718473
 46
-36.87716375543
 79
     2
 49
7.399774995313284
 49
-4560.119085052519
 53
276.7473999999999
 43
12694.83811471108
 44
1588.435460345537
 45
0.0000035818718473
 46
-36.87716375543
 79
     2
 49
7.399774995313284
 49
-4560.119085052519
 53
276.7473999999999
 43
12705.78979350481
 44
1588.435460345537
 45
0.0000035818718473
 46
-36.87716375543
 79
     2
 49
7.399774995313284
 49
-4560.119085052519
 53
276.7473999999999
 43
12716.74147229854
 44
1588.435460345537
 45
0.0000035818718473
 46
-36.87716375543
 79
     2
 49
7.399774995313284
 49
-4560.119085052519
 53
276.7473999999999
 43
12727.69315109228
 44
1588.435460345537
 45
0.0000035818718473
 46
-36.87716375543
 79
     2
 49
7.399774995313284
 49
-4560.119085052519
 53
276.7473999999999
 43
12738.64482988601
 44
1588.435460345537
 45
0.0000035818718473
 46
-36.87716375543
 79
     2
 49
7.399774995313284
 49
-4560.119085052519
 53
276.7473999999999
 43
12749.59650867975
 44
1588.435460345537
 45
0.0000035818718473
 46
-36.87716375543
 79
     2
 49
7.399774995313284
 49
-4560.119085052519
 53
276.7473999999999
 43
12760.54818747348
 44
1588.435460345537
 45
0.0000035818718473
 46
-36.87716375543
 79
     2
 49
7.399774995313284
 49
-4560.119085052519
 53
276.7473999999999
 43
12771.49986626722
 44
1588.435460345537
 45
0.0000035818718473
 46
-36.87716375543
 79
     2
 49
7.399774995313284
 49
-4560.119085052519
 53
276.7473999999999
 43
12782.45154506095
 44
1588.435460345537
 45
0.0000035818718473
 46
-36.87716375543
 79
     2
 49
7.399774995313284
 49
-4560.119085052519
 53
276.7473999999999
 43
12793.40650181901
 44
1588.435460345537
 45
0.0000035818718473
 46
-36.87716375543
 79
     2
 49
7.399774995313284
 49
-4560.119085052519
 53
276.7473999999999
 43
12804.35818061275
 44
1588.435460345537
 45
0.0000035818718473
 46
-36.87716375543
 79
     2
 49
7.399774995313284
 49
-4560.119085052519
 53
276.7473999999999
 43
12815.30985940648
 44
1588.435460345537
 45
0.0000035818718473
 46
-36.87716375543
 79
     2
 49
7.399774995313284
 49
-4560.119085052519
 53
276.7473999999999
 43
12826.26153820022
 44
1588.435460345537
 45
0.0000035818718473
 46
-36.87716375543
 79
     2
 49
7.399774995313284
 49
-4560.119085052519
 53
276.7473999999999
 43
12837.21321699395
 44
1588.435460345537
 45
0.0000035818718473
 46
-36.87716375543
 79
     2
 49
7.399774995313284
 49
-4560.119085052519
 53
276.7473999999999
 43
12848.16489578769
 44
1588.435460345537
 45
0.0000035818718473
 46
-36.87716375543
 79
     2
 49
7.399774995313284
 49
-4560.119085052519
 53
276.1416
 43
12318.33674968658
 44
1604.17319650425
 45
-0.0000356891682921
 46
-36.87700042616381
 79
     2
 49
8.060547042976009
 49
-2551.147945737283
 53
276.1416
 43
12329.28877758352
 44
1604.17319650425
 45
-0.0000356891682921
 46
-36.87700042616381
 79
     2
 49
8.060547042976009
 49
-2551.147945737283
 53
276.1416
 43
12340.24081695334
 44
1604.17319650425
 45
-0.0000356891682921
 46
-36.87700042616381
 79
     2
 49
8.060547042976009
 49
-2551.147945737283
 53
276.1416
 43
12351.19272520457
 44
1604.17319650425
 45
-0.0000356891682921
 46
-36.87700042616381
 79
     2
 49
8.060547042976009
 49
-2551.147945737283
 53
276.1416
 43
12362.14505959117
 44
1604.17319650425
 45
-0.0000356891682921
 46
-36.87700042616381
 79
     2
 49
8.060547042976009
 49
-2551.147945737283
 53
276.1416
 43
12373.09706618133
 44
1604.17319650425
 45
-0.0000356891682921
 46
-36.87700042616381
 79
     2
 49
8.060547042976009
 49
-2551.147945737283
 53
276.1416
 43
12384.0490727715
 44
1604.17319650425
 45
-0.0000356891682921
 46
-36.87700042616381
 79
     2
 49
8.060547042976009
 49
-2551.147945737283
 53
276.1416
 43
12395.00107936167
 44
1604.17319650425
 45
-0.0000356891682921
 46
-36.87700042616381
 79
     2
 49
8.060547042976009
 49
-2551.147945737283
 53
276.1416
 43
12405.95308595183
 44
1604.17319650425
 45
-0.0000356891682921
 46
-36.87700042616381
 79
     2
 49
8.060547042976009
 49
-2551.147945737283
 53
276.1416
 43
12416.90509254201
 44
1604.17319650425
 45
-0.0000356891682921
 46
-36.87700042616381
 79
     2
 49
8.060547042976009
 49
-2551.147945737283
 53
276.1416
 43
12427.85709913217
 44
1604.17319650425
 45
-0.0000356891682921
 46
-36.87700042616381
 79
     2
 49
8.060547042976009
 49
-2551.147945737283
 53
276.1416
 43
12438.80910572234
 44
1604.17319650425
 45
-0.0000356891682921
 46
-36.87700042616381
 79
     2
 49
8.060547042976009
 49
-2551.147945737283
 53
276.1416
 43
12449.76111231251
 44
1604.17319650425
 45
-0.0000356891682921
 46
-36.87700042616381
 79
     2
 49
8.060547042976009
 49
-2551.147945737283
 53
276.1416
 43
12460.71311890267
 44
1604.17319650425
 45
-0.0000356891682921
 46
-36.87700042616381
 79
     2
 49
8.060547042976009
 49
-2551.147945737283
 53
276.1416
 43
12471.66512549284
 44
1604.17319650425
 45
-0.0000356891682921
 46
-36.87700042616381
 79
     2
 49
8.060547042976009
 49
-2551.147945737283
 53
276.1416
 43
12482.61745987944
 44
1604.17319650425
 45
-0.0000356891682921
 46
-36.87700042616381
 79
     2
 49
8.060547042976009
 49
-2551.147945737283
 53
276.1416
 43
12493.56946646961
 44
1604.17319650425
 45
-0.0000356891682921
 46
-36.87700042616381
 79
     2
 49
8.060547042976009
 49
-2551.147945737283
 53
276.1416
 43
12504.52147305977
 44
1604.17319650425
 45
-0.0000356891682921
 46
-36.87700042616381
 79
     2
 49
8.060547042976009
 49
-2551.147945737283
 53
276.1416
 43
12515.47347964994
 44
1604.17319650425
 45
-0.0000356891682921
 46
-36.87700042616381
 79
     2
 49
8.060547042976009
 49
-2551.147945737283
 53
276.1416
 43
12526.42548624011
 44
1604.17319650425
 45
-0.0000356891682921
 46
-36.87700042616381
 79
     2
 49
8.060547042976009
 49
-2551.147945737283
 53
276.1416
 43
12537.37749283027
 44
1604.17319650425
 45
-0.0000356891682921
 46
-36.87700042616381
 79
     2
 49
8.060547042976009
 49
-2551.147945737283
 53
276.1416
 43
12548.32949942044
 44
1604.17319650425
 45
-0.0000356891682921
 46
-36.87700042616381
 79
     2
 49
8.060547042976009
 49
-2551.147945737283
 53
276.1416
 43
12559.28150601061
 44
1604.17319650425
 45
-0.0000356891682921
 46
-36.87700042616381
 79
     2
 49
8.060547042976009
 49
-2551.147945737283
 53
276.1416
 43
12570.23351260078
 44
1604.17319650425
 45
-0.0000356891682921
 46
-36.87700042616381
 79
     2
 49
8.060547042976009
 49
-2551.147945737283
 53
276.1416
 43
12581.18551919095
 44
1604.17319650425
 45
-0.0000356891682921
 46
-36.87700042616381
 79
     2
 49
8.060547042976009
 49
-2551.147945737283
 53
83.85800000000008
 43
12328.13316404208
 44
1596.158934317472
 45
10.9520277214346
 46
-0.0000684758235829
 79
     2
 49
8.060547042975887
 49
-2551.147945737251
 53
83.85800000000008
 43
12328.13316404208
 44
1559.281934054329
 45
10.9520277214346
 46
-0.0000684758235829
 79
     2
 49
8.060547042975887
 49
-2551.147945737251
 53
83.85800000000008
 43
12328.13316404208
 44
1522.404835452254
 45
10.9520277214346
 46
-0.0000684758235829
 79
     2
 49
8.060547042975887
 49
-2551.147945737251
 53
83.85800000000008
 43
12328.13316404208
 44
1485.527736850186
 45
10.9520277214346
 46
-0.0000684758235829
 79
     2
 49
8.060547042975887
 49
-2551.147945737251
 53
83.85800000000008
 43
12328.13316404208
 44
1448.650638248117
 45
10.9520277214346
 46
-0.0000684758235829
 79
     2
 49
8.060547042975887
 49
-2551.147945737251
 53
83.85800000000008
 43
12328.13316404208
 44
1411.773539646042
 45
10.9520277214346
 46
-0.0000684758235829
 79
     2
 49
8.060547042975887
 49
-2551.147945737251
 53
83.85800000000008
 43
12328.13316404208
 44
1374.89644104397
 45
10.9520277214346
 46
-0.0000684758235829
 79
     2
 49
8.060547042975887
 49
-2551.147945737251
 53
83.85800000000008
 43
12328.13316404208
 44
1338.019342441898
 45
10.9520277214346
 46
-0.0000684758235829
 79
     2
 49
8.060547042975887
 49
-2551.147945737251
 53
83.85800000000008
 43
12328.13316404208
 44
1301.14224383983
 45
10.9520277214346
 46
-0.0000684758235829
 79
     2
 49
8.060547042975887
 49
-2551.147945737251
 53
83.85800000000008
 43
12328.13316404208
 44
1264.263506255597
 45
10.9520277214346
 46
-0.0000684758235829
 79
     2
 49
8.060547042975887
 49
-2551.147945737251
 53
83.85800000000008
 43
12328.13316404208
 44
1227.386407653525
 45
10.9520277214346
 46
-0.0000684758235829
 79
     2
 49
8.060547042975887
 49
-2551.147945737251
 53
83.85800000000008
 43
12328.13316404208
 44
1190.50930905145
 45
10.9520277214346
 46
-0.0000684758235829
 79
     2
 49
8.060547042975887
 49
-2551.147945737251
 53
83.85800000000008
 43
12328.13316404208
 44
1153.632210449382
 45
10.9520277214346
 46
-0.0000684758235829
 79
     2
 49
8.060547042975887
 49
-2551.147945737251
 53
83.85800000000008
 43
12328.13316404208
 44
1116.755111847314
 45
10.9520277214346
 46
-0.0000684758235829
 79
     2
 49
8.060547042975887
 49
-2551.147945737251
 53
83.85800000000008
 43
12328.13316404208
 44
1079.878013245238
 45
10.9520277214346
 46
-0.0000684758235829
 79
     2
 49
8.060547042975887
 49
-2551.147945737251
 53
83.85800000000008
 43
12328.13316404208
 44
1043.000914643166
 45
10.9520277214346
 46
-0.0000684758235829
 79
     2
 49
8.060547042975887
 49
-2551.147945737251
 53
83.85800000000008
 43
12328.13316404208
 44
1006.123816041095
 45
10.9520277214346
 46
-0.0000684758235829
 79
     2
 49
8.060547042975887
 49
-2551.147945737251
 53
83.85800000000008
 43
12328.13316404208
 44
969.246717439023
 45
10.9520277214346
 46
-0.0000684758235829
 79
     2
 49
8.060547042975887
 49
-2551.147945737251
 53
83.85800000000008
 43
12328.13316404208
 44
932.3696188369549
 45
10.9520277214346
 46
-0.0000684758235829
 79
     2
 49
8.060547042975887
 49
-2551.147945737251
 53
83.85800000000008
 43
12328.13316404208
 44
895.4925202348832
 45
10.9520277214346
 46
-0.0000684758235829
 79
     2
 49
8.060547042975887
 49
-2551.147945737251
 53
83.85800000000008
 43
12328.13316404208
 44
858.6154216328077
 45
10.9520277214346
 46
-0.0000684758235829
 79
     2
 49
8.060547042975887
 49
-2551.147945737251
 53
83.85800000000008
 43
12328.13316404208
 44
821.7383230307396
 45
10.9520277214346
 46
-0.0000684758235829
 79
     2
 49
8.060547042975887
 49
-2551.147945737251
 53
83.85800000000008
 43
12328.13316404208
 44
784.8612244286678
 45
10.9520277214346
 46
-0.0000684758235829
 79
     2
 49
8.060547042975887
 49
-2551.147945737251
 53
83.85800000000008
 43
12328.13316404208
 44
747.984125826596
 45
10.9520277214346
 46
-0.0000684758235829
 79
     2
 49
8.060547042975887
 49
-2551.147945737251
 53
83.85800000000008
 43
12328.13316404208
 44
711.1070272245206
 45
10.9520277214346
 46
-0.0000684758235829
 79
     2
 49
8.060547042975887
 49
-2551.147945737251
 53
83.85800000000008
 43
12328.13316404208
 44
674.2299286224525
 45
10.9520277214346
 46
-0.0000684758235829
 79
     2
 49
8.060547042975887
 49
-2551.147945737251
 53
83.85800000000008
 43
12328.13316404208
 44
637.352830020377
 45
10.9520277214346
 46
-0.0000684758235829
 79
     2
 49
8.060547042975887
 49
-2551.147945737251
 53
83.85800000000008
 43
12328.13316404208
 44
600.4757314183089
 45
10.9520277214346
 46
-0.0000684758235829
 79
     2
 49
8.060547042975887
 49
-2551.147945737251
 53
83.85800000000008
 43
12328.13316404208
 44
563.5986328162334
 45
10.9520277214346
 46
-0.0000684758235829
 79
     2
 49
8.060547042975887
 49
-2551.147945737251
 53
83.85800000000008
 43
12328.13316404208
 44
526.7215342141652
 45
10.9520277214346
 46
-0.0000684758235829
 79
     2
 49
8.060547042975887
 49
-2551.147945737251
 53
83.85800000000008
 43
12328.13316404208
 44
489.8444356120972
 45
10.9520277214346
 46
-0.0000684758235829
 79
     2
 49
8.060547042975887
 49
-2551.147945737251
 53
83.85800000000008
 43
12328.13316404208
 44
452.9673370100217
 45
10.9520277214346
 46
-0.0000684758235829
 79
     2
 49
8.060547042975887
 49
-2551.147945737251
 53
83.85800000000008
 43
12328.13316404208
 44
416.0902384079499
 45
10.9520277214346
 46
-0.0000684758235829
 79
     2
 49
8.060547042975887
 49
-2551.147945737251
 53
83.85800000000008
 43
12328.13316404208
 44
379.2131398058782
 45
10.9520277214346
 46
-0.0000684758235829
 79
     2
 49
8.060547042975887
 49
-2551.147945737251
 53
83.85800000000008
 43
12328.13316404208
 44
342.3360412038064
 45
10.9520277214346
 46
-0.0000684758235829
 79
     2
 49
8.060547042975887
 49
-2551.147945737251
 53
83.85800000000008
 43
12328.13316404208
 44
305.4589426017346
 45
10.9520277214346
 46
-0.0000684758235829
 79
     2
 49
8.060547042975887
 49
-2551.147945737251
 53
83.85800000000008
 43
12328.13316404208
 44
268.5818439996665
 45
10.9520277214346
 46
-0.0000684758235829
 79
     2
 49
8.060547042975887
 49
-2551.147945737251
 53
83.85800000000008
 43
12328.13316404208
 44
231.7047453975956
 45
10.9520277214346
 46
-0.0000684758235829
 79
     2
 49
8.060547042975887
 49
-2551.147945737251
 53
83.85800000000008
 43
12328.13316404208
 44
194.8276467955202
 45
10.9520277214346
 46
-0.0000684758235829
 79
     2
 49
8.060547042975887
 49
-2551.147945737251
 53
83.85800000000008
 43
12328.13316404208
 44
157.950548193452
 45
10.9520277214346
 46
-0.0000684758235829
 79
     2
 49
8.060547042975887
 49
-2551.147945737251
 53
83.85800000000008
 43
12328.13316404208
 44
121.0734495913802
 45
10.9520277214346
 46
-0.0000684758235829
 79
     2
 49
8.060547042975887
 49
-2551.147945737251
 53
83.85800000000008
 43
12328.13316404208
 44
84.19635098930848
 45
10.9520277214346
 46
-0.0000684758235829
 79
     2
 49
8.060547042975887
 49
-2551.147945737251
 53
83.85800000000008
 43
12328.13316404208
 44
47.3192523872367
 45
10.9520277214346
 46
-0.0000684758235829
 79
     2
 49
8.060547042975887
 49
-2551.147945737251
 53
83.85800000000008
 43
12328.13316404208
 44
10.44215378516492
 45
10.9520277214346
 46
-0.0000684758235829
 79
     2
 49
8.060547042975887
 49
-2551.147945737251
 53
83.85800000000008
 43
12328.13316404208
 44
-26.43494481690686
 45
10.9520277214346
 46
-0.0000684758235829
 79
     2
 49
8.060547042975887
 49
-2551.147945737251
 53
83.85800000000008
 43
12328.13316404208
 44
-63.31204341897865
 45
10.9520277214346
 46
-0.0000684758235829
 79
     2
 49
8.060547042975887
 49
-2551.147945737251
 53
83.85800000000008
 43
12328.13316404208
 44
-100.1891420210504
 45
10.9520277214346
 46
-0.0000684758235829
 79
     2
 49
8.060547042975887
 49
-2551.147945737251
 53
83.85800000000008
 43
12328.13316404208
 44
-137.0662406231258
 45
10.9520277214346
 46
-0.0000684758235829
 79
     2
 49
8.060547042975887
 49
-2551.147945737251
 53
83.85800000000008
 43
12328.13316404208
 44
-173.9433392251903
 45
10.9520277214346
 46
-0.0000684758235829
 79
     2
 49
8.060547042975887
 49
-2551.147945737251
 53
83.85800000000008
 43
12328.13316404208
 44
-210.8204378272621
 45
10.9520277214346
 46
-0.0000684758235829
 79
     2
 49
8.060547042975887
 49
-2551.147945737251
 53
83.85800000000008
 43
12328.13316404208
 44
-247.6975364293376
 45
10.9520277214346
 46
-0.0000684758235829
 79
     2
 49
8.060547042975887
 49
-2551.147945737251
 53
83.85800000000008
 43
12328.13316404208
 44
-284.5746350314093
 45
10.9520277214346
 46
-0.0000684758235829
 79
     2
 49
8.060547042975887
 49
-2551.147945737251
 53
83.85800000000008
 43
12328.13316404208
 44
-321.4517336334811
 45
10.9520277214346
 46
-0.0000684758235829
 79
     2
 49
8.060547042975887
 49
-2551.147945737251
 53
83.85800000000008
 43
12328.13316404208
 44
-358.3288322355529
 45
10.9520277214346
 46
-0.0000684758235829
 79
     2
 49
8.060547042975887
 49
-2551.147945737251
 53
83.85800000000008
 43
12328.13316404208
 44
-395.205930837621
 45
10.9520277214346
 46
-0.0000684758235829
 79
     2
 49
8.060547042975887
 49
-2551.147945737251
 53
83.85800000000008
 43
12328.13316404208
 44
-432.0830294396928
 45
10.9520277214346
 46
-0.0000684758235829
 79
     2
 49
8.060547042975887
 49
-2551.147945737251
 53
83.85800000000008
 43
12328.13316404208
 44
-468.9601280417682
 45
10.9520277214346
 46
-0.0000684758235829
 79
     2
 49
8.060547042975887
 49
-2551.147945737251
 53
83.85800000000008
 43
12328.13316404208
 44
-505.8372266438364
 45
10.9520277214346
 46
-0.0000684758235829
 79
     2
 49
8.060547042975887
 49
-2551.147945737251
 53
83.85800000000008
 43
12328.13316404208
 44
-542.7143252459082
 45
10.9520277214346
 46
-0.0000684758235829
 79
     2
 49
8.060547042975887
 49
-2551.147945737251
 53
83.85800000000008
 43
12328.13316404208
 44
-579.59142384798
 45
10.9520277214346
 46
-0.0000684758235829
 79
     2
 49
8.060547042975887
 49
-2551.147945737251
 53
83.85800000000008
 43
12328.13316404208
 44
-616.4685224500517
 45
10.9520277214346
 46
-0.0000684758235829
 79
     2
 49
8.060547042975887
 49
-2551.147945737251
 53
83.85800000000008
 43
12328.13316404208
 44
-653.3456210521235
 45
10.9520277214346
 46
-0.0000684758235829
 79
     2
 49
8.060547042975887
 49
-2551.147945737251
 53
83.85800000000008
 43
12328.13316404208
 44
-690.2227196541953
 45
10.9520277214346
 46
-0.0000684758235829
 79
     2
 49
8.060547042975887
 49
-2551.147945737251
 53
83.85800000000008
 43
12328.13316404208
 44
-727.0998182562671
 45
10.9520277214346
 46
-0.0000684758235829
 79
     2
 49
8.060547042975887
 49
-2551.147945737251
 53
83.85800000000008
 43
12328.13316404208
 44
-763.9769168583389
 45
10.9520277214346
 46
-0.0000684758235829
 79
     2
 49
8.060547042975887
 49
-2551.147945737251
 53
83.85800000000008
 43
12328.13316404208
 44
-800.8540154604142
 45
10.9520277214346
 46
-0.0000684758235829
 79
     2
 49
8.060547042975887
 49
-2551.147945737251
 53
83.85800000000008
 43
12328.13316404208
 44
-837.7311140624824
 45
10.9520277214346
 46
-0.0000684758235829
 79
     2
 49
8.060547042975887
 49
-2551.147945737251
 53
83.85800000000008
 43
12328.13316404208
 44
-874.6082126645505
 45
10.9520277214346
 46
-0.0000684758235829
 79
     2
 49
8.060547042975887
 49
-2551.147945737251
 53
83.85800000000008
 43
12328.13316404208
 44
-911.485311266626
 45
10.9520277214346
 46
-0.0000684758235829
 79
     2
 49
8.060547042975887
 49
-2551.147945737251
 53
83.25300000000003
 43
12323.99398015606
 44
1581.087116610412
 45
10.95204383447483
 46
0.0000798601498432
 79
     2
 49
7.399774995313283
 49
-4560.119085052519
 53
83.25300000000003
 43
12323.99398015606
 44
1544.210181906555
 45
10.95204383447483
 46
0.0000798601498432
 79
     2
 49
7.399774995313283
 49
-4560.119085052519
 53
83.25300000000003
 43
12323.99398015606
 44
1507.333083304483
 45
10.95204383447483
 46
0.0000798601498432
 79
     2
 49
7.399774995313283
 49
-4560.119085052519
 53
83.25300000000003
 43
12323.99398015606
 44
1470.455984702411
 45
10.95204383447483
 46
0.0000798601498432
 79
     2
 49
7.399774995313283
 49
-4560.119085052519
 53
83.25300000000003
 43
12323.99398015606
 44
1433.578886100343
 45
10.95204383447483
 46
0.0000798601498432
 79
     2
 49
7.399774995313283
 49
-4560.119085052519
 53
83.25300000000003
 43
12323.99398015606
 44
1396.701787498271
 45
10.95204383447483
 46
0.0000798601498432
 79
     2
 49
7.399774995313283
 49
-4560.119085052519
 53
83.25300000000003
 43
12323.99398015606
 44
1359.824688896196
 45
10.95204383447483
 46
0.0000798601498432
 79
     2
 49
7.399774995313283
 49
-4560.119085052519
 53
83.25300000000003
 43
12323.99398015606
 44
1322.947590294127
 45
10.95204383447483
 46
0.0000798601498432
 79
     2
 49
7.399774995313283
 49
-4560.119085052519
 53
83.25300000000003
 43
12323.99398015606
 44
1286.070491692052
 45
10.95204383447483
 46
0.0000798601498432
 79
     2
 49
7.399774995313283
 49
-4560.119085052519
 53
83.25300000000003
 43
12323.99398015606
 44
1249.19470427571
 45
10.95204383447483
 46
0.0000798601498432
 79
     2
 49
7.399774995313283
 49
-4560.119085052519
 53
83.25300000000003
 43
12323.99398015606
 44
1212.317605673642
 45
10.95204383447483
 46
0.0000798601498432
 79
     2
 49
7.399774995313283
 49
-4560.119085052519
 53
83.25300000000003
 43
12323.99398015606
 44
1175.440507071566
 45
10.95204383447483
 46
0.0000798601498432
 79
     2
 49
7.399774995313283
 49
-4560.119085052519
 53
83.25300000000003
 43
12323.99398015606
 44
1138.563408469498
 45
10.95204383447483
 46
0.0000798601498432
 79
     2
 49
7.399774995313283
 49
-4560.119085052519
 53
83.25300000000003
 43
12323.99398015606
 44
1101.686309867423
 45
10.95204383447483
 46
0.0000798601498432
 79
     2
 49
7.399774995313283
 49
-4560.119085052519
 53
83.25300000000003
 43
12323.99398015606
 44
1064.809211265347
 45
10.95204383447483
 46
0.0000798601498432
 79
     2
 49
7.399774995313283
 49
-4560.119085052519
 53
83.25300000000003
 43
12323.99398015606
 44
1027.932112663279
 45
10.95204383447483
 46
0.0000798601498432
 79
     2
 49
7.399774995313283
 49
-4560.119085052519
 53
83.25300000000003
 43
12323.99398015606
 44
991.0550140612112
 45
10.95204383447483
 46
0.0000798601498432
 79
     2
 49
7.399774995313283
 49
-4560.119085052519
 53
83.25300000000003
 43
12323.99398015606
 44
954.1779154591358
 45
10.95204383447483
 46
0.0000798601498432
 79
     2
 49
7.399774995313283
 49
-4560.119085052519
 53
83.25300000000003
 43
12323.99398015606
 44
917.3008168570641
 45
10.95204383447483
 46
0.0000798601498432
 79
     2
 49
7.399774995313283
 49
-4560.119085052519
 53
83.25300000000003
 43
12323.99398015606
 44
880.4237182549924
 45
10.95204383447483
 46
0.0000798601498432
 79
     2
 49
7.399774995313283
 49
-4560.119085052519
 53
83.25300000000003
 43
12323.99398015606
 44
843.5466196529242
 45
10.95204383447483
 46
0.0000798601498432
 79
     2
 49
7.399774995313283
 49
-4560.119085052519
 53
83.25300000000003
 43
12323.99398015606
 44
806.669521050856
 45
10.95204383447483
 46
0.0000798601498432
 79
     2
 49
7.399774995313283
 49
-4560.119085052519
 53
83.25300000000003
 43
12323.99398015606
 44
769.7924224487806
 45
10.95204383447483
 46
0.0000798601498432
 79
     2
 49
7.399774995313283
 49
-4560.119085052519
 53
83.25300000000003
 43
12323.99398015606
 44
732.9153238467052
 45
10.95204383447483
 46
0.0000798601498432
 79
     2
 49
7.399774995313283
 49
-4560.119085052519
 53
83.25300000000003
 43
12323.99398015606
 44
696.038225244637
 45
10.95204383447483
 46
0.0000798601498432
 79
     2
 49
7.399774995313283
 49
-4560.119085052519
 53
83.25300000000003
 43
12323.99398015606
 44
659.1611266425652
 45
10.95204383447483
 46
0.0000798601498432
 79
     2
 49
7.399774995313283
 49
-4560.119085052519
 53
83.25300000000003
 43
12323.99398015606
 44
622.2840280404934
 45
10.95204383447483
 46
0.0000798601498432
 79
     2
 49
7.399774995313283
 49
-4560.119085052519
 53
83.25300000000003
 43
12323.99398015606
 44
585.4069294384216
 45
10.95204383447483
 46
0.0000798601498432
 79
     2
 49
7.399774995313283
 49
-4560.119085052519
 53
83.25300000000003
 43
12323.99398015606
 44
548.5298308363499
 45
10.95204383447483
 46
0.0000798601498432
 79
     2
 49
7.399774995313283
 49
-4560.119085052519
 53
83.25300000000003
 43
12323.99398015606
 44
511.6527322342781
 45
10.95204383447483
 46
0.0000798601498432
 79
     2
 49
7.399774995313283
 49
-4560.119085052519
 53
83.25300000000003
 43
12323.99398015606
 44
474.7756336322063
 45
10.95204383447483
 46
0.0000798601498432
 79
     2
 49
7.399774995313283
 49
-4560.119085052519
 53
83.25300000000003
 43
12323.99398015606
 44
437.8985350301345
 45
10.95204383447483
 46
0.0000798601498432
 79
     2
 49
7.399774995313283
 49
-4560.119085052519
 53
83.25300000000003
 43
12323.99398015606
 44
401.0214364280627
 45
10.95204383447483
 46
0.0000798601498432
 79
     2
 49
7.399774995313283
 49
-4560.119085052519
 53
83.25300000000003
 43
12323.99398015606
 44
364.1443378259946
 45
10.95204383447483
 46
0.0000798601498432
 79
     2
 49
7.399774995313283
 49
-4560.119085052519
 53
83.25300000000003
 43
12323.99398015606
 44
327.2672392239229
 45
10.95204383447483
 46
0.0000798601498432
 79
     2
 49
7.399774995313283
 49
-4560.119085052519
 53
83.25300000000003
 43
12323.99398015606
 44
290.3901406218511
 45
10.95204383447483
 46
0.0000798601498432
 79
     2
 49
7.399774995313283
 49
-4560.119085052519
 53
83.25300000000003
 43
12323.99398015606
 44
253.5130420197756
 45
10.95204383447483
 46
0.0000798601498432
 79
     2
 49
7.399774995313283
 49
-4560.119085052519
 53
83.25300000000003
 43
12323.99398015606
 44
216.6359434177084
 45
10.95204383447483
 46
0.0000798601498432
 79
     2
 49
7.399774995313283
 49
-4560.119085052519
 53
83.25300000000003
 43
12323.99398015606
 44
179.758844815633
 45
10.95204383447483
 46
0.0000798601498432
 79
     2
 49
7.399774995313283
 49
-4560.119085052519
 53
83.25300000000003
 43
12323.99398015606
 44
142.8817462135648
 45
10.95204383447483
 46
0.0000798601498432
 79
     2
 49
7.399774995313283
 49
-4560.119085052519
 53
83.25300000000003
 43
12323.99398015606
 44
106.004647611493
 45
10.95204383447483
 46
0.0000798601498432
 79
     2
 49
7.399774995313283
 49
-4560.119085052519
 53
83.25300000000003
 43
12323.99398015606
 44
69.12754900942127
 45
10.95204383447483
 46
0.0000798601498432
 79
     2
 49
7.399774995313283
 49
-4560.119085052519
 53
83.25300000000003
 43
12323.99398015606
 44
32.25045040734949
 45
10.95204383447483
 46
0.0000798601498432
 79
     2
 49
7.399774995313283
 49
-4560.119085052519
 53
83.25300000000003
 43
12323.99398015606
 44
-4.626648194722292
 45
10.95204383447483
 46
0.0000798601498432
 79
     2
 49
7.399774995313283
 49
-4560.119085052519
 53
83.25300000000003
 43
12323.99398015606
 44
-41.50374679679408
 45
10.95204383447483
 46
0.0000798601498432
 79
     2
 49
7.399774995313283
 49
-4560.119085052519
 53
83.25300000000003
 43
12323.99398015606
 44
-78.38084539886586
 45
10.95204383447483
 46
0.0000798601498432
 79
     2
 49
7.399774995313283
 49
-4560.119085052519
 53
83.25300000000003
 43
12323.99398015606
 44
-115.257944000934
 45
10.95204383447483
 46
0.0000798601498432
 79
     2
 49
7.399774995313283
 49
-4560.119085052519
 53
83.25300000000003
 43
12323.99398015606
 44
-152.1350426030094
 45
10.95204383447483
 46
0.0000798601498432
 79
     2
 49
7.399774995313283
 49
-4560.119085052519
 53
83.25300000000003
 43
12323.99398015606
 44
-189.0121412050812
 45
10.95204383447483
 46
0.0000798601498432
 79
     2
 49
7.399774995313283
 49
-4560.119085052519
 53
83.25300000000003
 43
12323.99398015606
 44
-225.889239807153
 45
10.95204383447483
 46
0.0000798601498432
 79
     2
 49
7.399774995313283
 49
-4560.119085052519
 53
83.25300000000003
 43
12323.99398015606
 44
-262.7663384092248
 45
10.95204383447483
 46
0.0000798601498432
 79
     2
 49
7.399774995313283
 49
-4560.119085052519
 53
83.25300000000003
 43
12323.99398015606
 44
-299.6434370112929
 45
10.95204383447483
 46
0.0000798601498432
 79
     2
 49
7.399774995313283
 49
-4560.119085052519
 53
83.25300000000003
 43
12323.99398015606
 44
-336.5205356133647
 45
10.95204383447483
 46
0.0000798601498432
 79
     2
 49
7.399774995313283
 49
-4560.119085052519
 53
83.25300000000003
 43
12323.99398015606
 44
-373.3976342154365
 45
10.95204383447483
 46
0.0000798601498432
 79
     2
 49
7.399774995313283
 49
-4560.119085052519
 53
83.25300000000003
 43
12323.99398015606
 44
-410.2747328175119
 45
10.95204383447483
 46
0.0000798601498432
 79
     2
 49
7.399774995313283
 49
-4560.119085052519
 53
83.25300000000003
 43
12323.99398015606
 44
-447.15183141958
 45
10.95204383447483
 46
0.0000798601498432
 79
     2
 49
7.399774995313283
 49
-4560.119085052519
 53
83.25300000000003
 43
12323.99398015606
 44
-484.0289300216555
 45
10.95204383447483
 46
0.0000798601498432
 79
     2
 49
7.399774995313283
 49
-4560.119085052519
 53
83.25300000000003
 43
12323.99398015606
 44
-520.9060286237236
 45
10.95204383447483
 46
0.0000798601498432
 79
     2
 49
7.399774995313283
 49
-4560.119085052519
 53
83.25300000000003
 43
12323.99398015606
 44
-557.7831272257953
 45
10.95204383447483
 46
0.0000798601498432
 79
     2
 49
7.399774995313283
 49
-4560.119085052519
 53
83.25300000000003
 43
12323.99398015606
 44
-594.6602258278671
 45
10.95204383447483
 46
0.0000798601498432
 79
     2
 49
7.399774995313283
 49
-4560.119085052519
 53
83.25300000000003
 43
12323.99398015606
 44
-631.5373244299389
 45
10.95204383447483
 46
0.0000798601498432
 79
     2
 49
7.399774995313283
 49
-4560.119085052519
 53
83.25300000000003
 43
12323.99398015606
 44
-668.4144230320107
 45
10.95204383447483
 46
0.0000798601498432
 79
     2
 49
7.399774995313283
 49
-4560.119085052519
 53
83.25300000000003
 43
12323.99398015606
 44
-705.2915216340825
 45
10.95204383447483
 46
0.0000798601498432
 79
     2
 49
7.399774995313283
 49
-4560.119085052519
 53
83.25300000000003
 43
12323.99398015606
 44
-742.1686202361542
 45
10.95204383447483
 46
0.0000798601498432
 79
     2
 49
7.399774995313283
 49
-4560.119085052519
 53
83.25300000000003
 43
12323.99398015606
 44
-779.045718838226
 45
10.95204383447483
 46
0.0000798601498432
 79
     2
 49
7.399774995313283
 49
-4560.119085052519
 53
83.25300000000003
 43
12323.99398015606
 44
-815.9228174402942
 45
10.95204383447483
 46
0.0000798601498432
 79
     2
 49
7.399774995313283
 49
-4560.119085052519
 53
83.25300000000003
 43
12323.99398015606
 44
-852.7999160423696
 45
10.95204383447483
 46
0.0000798601498432
 79
     2
 49
7.399774995313283
 49
-4560.119085052519
 53
83.25300000000003
 43
12323.99398015606
 44
-889.6770146444413
 45
10.95204383447483
 46
0.0000798601498432
 79
     2
 49
7.399774995313283
 49
-4560.119085052519
 53
83.25300000000003
 43
12323.99398015606
 44
-926.5541132465132
 45
10.95204383447483
 46
0.0000798601498432
 79
     2
 49
7.399774995313283
 49
-4560.119085052519
 53
83.25300000000003
 43
12323.99398015606
 44
-963.4312118485814
 45
10.95204383447483
 46
0.0000798601498432
 79
     2
 49
7.399774995313283
 49
-4560.119085052519
 53
83.25300000000003
 43
12323.99398015606
 44
-1000.308310450653
 45
10.95204383447483
 46
0.0000798601498432
 79
     2
 49
7.399774995313283
 49
-4560.119085052519
 53
83.25300000000003
 43
12323.99398015606
 44
-1037.185409052725
 45
10.95204383447483
 46
0.0000798601498432
 79
     2
 49
7.399774995313283
 49
-4560.119085052519
 53
83.25300000000003
 43
12323.99398015606
 44
-1074.0625076548
 45
10.95204383447483
 46
0.0000798601498432
 79
     2
 49
7.399774995313283
 49
-4560.119085052519
 53
83.25300000000003
 43
12323.99398015606
 44
-1110.939606256868
 45
10.95204383447483
 46
0.0000798601498432
 79
     2
 49
7.399774995313283
 49
-4560.119085052519
 53
83.25300000000003
 43
12323.99398015606
 44
-1147.816704858936
 45
10.95204383447483
 46
0.0000798601498432
 79
     2
 49
7.399774995313283
 49
-4560.119085052519
 53
83.25300000000003
 43
12323.99398015606
 44
-1184.693803461012
 45
10.95204383447483
 46
0.0000798601498432
 79
     2
 49
7.399774995313283
 49
-4560.119085052519
 53
83.25300000000003
 43
12323.99398015606
 44
-1221.570902063084
 45
10.95204383447483
 46
0.0000798601498432
 79
     2
 49
7.399774995313283
 49
-4560.119085052519
 53
83.25300000000003
 43
12323.99398015606
 44
-1258.448000665155
 45
10.95204383447483
 46
0.0000798601498432
 79
     2
 49
7.399774995313283
 49
-4560.119085052519
 53
83.25300000000003
 43
12323.99398015606
 44
-1295.325099267227
 45
10.95204383447483
 46
0.0000798601498432
 79
     2
 49
7.399774995313283
 49
-4560.119085052519
 53
83.25300000000003
 43
12323.99398015606
 44
-1332.202197869299
 45
10.95204383447483
 46
0.0000798601498432
 79
     2
 49
7.399774995313283
 49
-4560.119085052519
 53
83.25300000000003
 43
12323.99398015606
 44
-1369.079296471371
 45
10.95204383447483
 46
0.0000798601498432
 79
     2
 49
7.399774995313283
 49
-4560.119085052519
 53
83.25300000000003
 43
12323.99398015606
 44
-1405.956395073443
 45
10.95204383447483
 46
0.0000798601498432
 79
     2
 49
7.399774995313283
 49
-4560.119085052519
 53
83.25300000000003
 43
12323.99398015606
 44
-1442.833493675514
 45
10.95204383447483
 46
0.0000798601498432
 79
     2
 49
7.399774995313283
 49
-4560.119085052519
 53
83.25300000000003
 43
12323.99398015606
 44
-1479.710592277583
 45
10.95204383447483
 46
0.0000798601498432
 79
     2
 49
7.399774995313283
 49
-4560.119085052519
 53
83.25300000000003
 43
12323.99398015606
 44
-1516.587690879658
 45
10.95204383447483
 46
0.0000798601498432
 79
     2
 49
7.399774995313283
 49
-4560.119085052519
 53
83.25300000000003
 43
12323.99398015606
 44
-1553.46478948173
 45
10.95204383447483
 46
0.0000798601498432
 79
     2
 49
7.399774995313283
 49
-4560.119085052519
 53
83.25300000000003
 43
12323.99398015606
 44
-1590.341888083798
 45
10.95204383447483
 46
0.0000798601498432
 79
     2
 49
7.399774995313283
 49
-4560.119085052519
 53
83.25300000000003
 43
12323.99398015606
 44
-1627.21898668587
 45
10.95204383447483
 46
0.0000798601498432
 79
     2
 49
7.399774995313283
 49
-4560.119085052519
 53
83.25300000000003
 43
12323.99398015606
 44
-1664.096085287942
 45
10.95204383447483
 46
0.0000798601498432
 79
     2
 49
7.399774995313283
 49
-4560.119085052519
 53
83.25300000000003
 43
12323.99398015606
 44
-1700.976461854336
 45
10.95204383447483
 46
0.0000798601498432
 79
     2
 49
7.399774995313283
 49
-4560.119085052519
 53
83.25300000000003
 43
12323.99398015606
 44
-1737.853560456407
 45
10.95204383447483
 46
0.0000798601498432
 79
     2
 49
7.399774995313283
 49
-4560.119085052519
 53
83.25300000000003
 43
12323.99398015606
 44
-1774.730659058479
 45
10.95204383447483
 46
0.0000798601498432
 79
     2
 49
7.399774995313283
 49
-4560.119085052519
 53
83.25300000000003
 43
12323.99398015606
 44
-1811.607757660548
 45
10.95204383447483
 46
0.0000798601498432
 79
     2
 49
7.399774995313283
 49
-4560.119085052519
 53
83.25300000000003
 43
12323.99398015606
 44
-1848.484856262619
 45
10.95204383447483
 46
0.0000798601498432
 79
     2
 49
7.399774995313283
 49
-4560.119085052519
 53
83.25300000000003
 43
12323.99398015606
 44
-1885.361954864695
 45
10.95204383447483
 46
0.0000798601498432
 79
     2
 49
7.399774995313283
 49
-4560.119085052519
 53
83.25300000000003
 43
12323.99398015606
 44
-1922.239053466767
 45
10.95204383447483
 46
0.0000798601498432
 79
     2
 49
7.399774995313283
 49
-4560.119085052519
 53
83.25300000000003
 43
12323.99398015606
 44
-1959.116152068838
 45
10.95204383447483
 46
0.0000798601498432
 79
     2
 49
7.399774995313283
 49
-4560.119085052519
 53
83.25300000000003
 43
12323.99398015606
 44
-1995.99325067091
 45
10.95204383447483
 46
0.0000798601498432
 79
     2
 49
7.399774995313283
 49
-4560.119085052519
 53
83.25300000000003
 43
12323.99398015606
 44
-2032.870349272978
 45
10.95204383447483
 46
0.0000798601498432
 79
     2
 49
7.399774995313283
 49
-4560.119085052519
 53
83.25300000000003
 43
12323.99398015606
 44
-2069.74744787505
 45
10.95204383447483
 46
0.0000798601498432
 79
     2
 49
7.399774995313283
 49
-4560.119085052519
 53
83.25300000000003
 43
12323.99398015606
 44
-2106.624546477126
 45
10.95204383447483
 46
0.0000798601498432
 79
     2
 49
7.399774995313283
 49
-4560.119085052519
 53
83.25300000000003
 43
12323.99398015606
 44
-2143.501645079194
 45
10.95204383447483
 46
0.0000798601498432
 79
     2
 49
7.399774995313283
 49
-4560.119085052519
 53
83.25300000000003
 43
12323.99398015606
 44
-2180.378743681266
 45
10.95204383447483
 46
0.0000798601498432
 79
     2
 49
7.399774995313283
 49
-4560.119085052519
 53
83.25300000000003
 43
12323.99398015606
 44
-2217.255842283337
 45
10.95204383447483
 46
0.0000798601498432
 79
     2
 49
7.399774995313283
 49
-4560.119085052519
 53
83.25300000000003
 43
12323.99398015606
 44
-2254.132940885409
 45
10.95204383447483
 46
0.0000798601498432
 79
     2
 49
7.399774995313283
 49
-4560.119085052519
 53
83.25300000000003
 43
12323.99398015606
 44
-2291.010039487481
 45
10.95204383447483
 46
0.0000798601498432
 79
     2
 49
7.399774995313283
 49
-4560.119085052519
 53
83.25300000000003
 43
12323.99398015606
 44
-2327.887138089553
 45
10.95204383447483
 46
0.0000798601498432
 79
     2
 49
7.399774995313283
 49
-4560.119085052519
 53
83.25300000000003
 43
12323.99398015606
 44
-2364.764236691625
 45
10.95204383447483
 46
0.0000798601498432
 79
     2
 49
7.399774995313283
 49
-4560.119085052519
 53
83.25300000000003
 43
12323.99398015606
 44
-2401.641335293696
 45
10.95204383447483
 46
0.0000798601498432
 79
     2
 49
7.399774995313283
 49
-4560.119085052519
 53
83.25300000000003
 43
12323.99398015606
 44
-2438.518433895771
 45
10.95204383447483
 46
0.0000798601498432
 79
     2
 49
7.399774995313283
 49
-4560.119085052519
 53
83.25300000000003
 43
12323.99398015606
 44
-2475.39553249784
 45
10.95204383447483
 46
0.0000798601498432
 79
     2
 49
7.399774995313283
 49
-4560.119085052519
 53
83.25300000000003
 43
12323.99398015606
 44
-2512.272631099912
 45
10.95204383447483
 46
0.0000798601498432
 79
     2
 49
7.399774995313283
 49
-4560.119085052519
 53
83.25300000000003
 43
12323.99398015606
 44
-2549.149729701984
 45
10.95204383447483
 46
0.0000798601498432
 79
     2
 49
7.399774995313283
 49
-4560.119085052519
 53
83.25300000000003
 43
12323.99398015606
 44
-2586.026828304055
 45
10.95204383447483
 46
0.0000798601498432
 79
     2
 49
7.399774995313283
 49
-4560.119085052519
 53
83.25300000000003
 43
12323.99398015606
 44
-2622.903926906127
 45
10.95204383447483
 46
0.0000798601498432
 79
     2
 49
7.399774995313283
 49
-4560.119085052519
 53
83.25300000000003
 43
12323.99398015606
 44
-2659.781025508199
 45
10.95204383447483
 46
0.0000798601498432
 79
     2
 49
7.399774995313283
 49
-4560.119085052519
 53
83.25300000000003
 43
12323.99398015606
 44
-2696.658124110267
 45
10.95204383447483
 46
0.0000798601498432
 79
     2
 49
7.399774995313283
 49
-4560.119085052519
 53
83.25300000000003
 43
12323.99398015606
 44
-2733.535222712339
 45
10.95204383447483
 46
0.0000798601498432
 79
     2
 49
7.399774995313283
 49
-4560.119085052519
 53
83.25300000000003
 43
12323.99398015606
 44
-2770.412321314414
 45
10.95204383447483
 46
0.0000798601498432
 79
     2
 49
7.399774995313283
 49
-4560.119085052519
 53
83.25300000000003
 43
12323.99398015606
 44
-2807.289419916482
 45
10.95204383447483
 46
0.0000798601498432
 79
     2
 49
7.399774995313283
 49
-4560.119085052519
 53
83.25300000000003
 43
12323.99398015606
 44
-2844.166518518554
 45
10.95204383447483
 46
0.0000798601498432
 79
     2
 49
7.399774995313283
 49
-4560.119085052519
 53
83.25300000000003
 43
12323.99398015606
 44
-2881.043617120626
 45
10.95204383447483
 46
0.0000798601498432
 79
     2
 49
7.399774995313283
 49
-4560.119085052519
 53
83.25300000000003
 43
12323.99398015606
 44
-2917.920715722697
 45
10.95204383447483
 46
0.0000798601498432
 79
     2
 49
7.399774995313283
 49
-4560.119085052519
 53
74.89100000000004
 43
12322.39053112919
 44
1577.573630553824
 45
10.95202665113163
 46
-0.000003043705463
 79
     2
 49
3.63896653076602
 49
-416.5337124354707
 53
74.89100000000004
 43
12322.39053112919
 44
1540.696531951748
 45
10.95202665113163
 46
-0.000003043705463
 79
     2
 49
3.63896653076602
 49
-416.5337124354707
 53
74.89100000000004
 43
12322.39053112919
 44
1503.81943334968
 45
10.95202665113163
 46
-0.000003043705463
 79
     2
 49
3.63896653076602
 49
-416.5337124354707
 53
74.89100000000004
 43
12322.39053112919
 44
1466.942334747605
 45
10.95202665113163
 46
-0.000003043705463
 79
     2
 49
3.63896653076602
 49
-416.5337124354707
 53
74.89100000000004
 43
12322.39053112919
 44
1430.065236145533
 45
10.95202665113163
 46
-0.000003043705463
 79
     2
 49
3.63896653076602
 49
-416.5337124354707
 53
74.89100000000004
 43
12322.39053112919
 44
1393.188137543461
 45
10.95202665113163
 46
-0.000003043705463
 79
     2
 49
3.63896653076602
 49
-416.5337124354707
 53
74.89100000000004
 43
12322.39053112919
 44
1356.311038941393
 45
10.95202665113163
 46
-0.000003043705463
 79
     2
 49
3.63896653076602
 49
-416.5337124354707
 53
74.89100000000004
 43
12322.39053112919
 44
1319.433940339318
 45
10.95202665113163
 46
-0.000003043705463
 79
     2
 49
3.63896653076602
 49
-416.5337124354707
 53
74.89100000000004
 43
12322.39053112919
 44
1282.557825126548
 45
10.95202665113163
 46
-0.000003043705463
 79
     2
 49
3.63896653076602
 49
-416.5337124354707
 53
74.89100000000004
 43
12322.39053112919
 44
1245.680726524472
 45
10.95202665113163
 46
-0.000003043705463
 79
     2
 49
3.63896653076602
 49
-416.5337124354707
 53
74.89100000000004
 43
12322.39053112919
 44
1208.803627922401
 45
10.95202665113163
 46
-0.000003043705463
 79
     2
 49
3.63896653076602
 49
-416.5337124354707
 53
67.06200000000002
 43
12324.86503361486
 44
1588.435460345537
 45
10.95204222691618
 46
0.0000810236171289
 79
     2
 49
8.386475035331908
 49
-1593.356600854788
 53
67.06200000000002
 43
12324.86503361486
 44
1551.558394523113
 45
10.95204222691618
 46
0.0000810236171289
 79
     2
 49
8.386475035331908
 49
-1593.356600854788
 53
67.06200000000002
 43
12324.86503361486
 44
1514.681295921041
 45
10.95204222691618
 46
0.0000810236171289
 79
     2
 49
8.386475035331908
 49
-1593.356600854788
 53
67.06200000000002
 43
12324.86503361486
 44
1477.804197318969
 45
10.95204222691618
 46
0.0000810236171289
 79
     2
 49
8.386475035331908
 49
-1593.356600854788
 53
67.06200000000002
 43
12324.86503361486
 44
1440.927098716894
 45
10.95204222691618
 46
0.0000810236171289
 79
     2
 49
8.386475035331908
 49
-1593.356600854788
 53
67.06200000000002
 43
12324.86503361486
 44
1404.050000114826
 45
10.95204222691618
 46
0.0000810236171289
 79
     2
 49
8.386475035331908
 49
-1593.356600854788
 53
67.06200000000002
 43
12324.86503361486
 44
1367.172901512754
 45
10.95204222691618
 46
0.0000810236171289
 79
     2
 49
8.386475035331908
 49
-1593.356600854788
 53
67.06200000000002
 43
12324.86503361486
 44
1330.295802910682
 45
10.95204222691618
 46
0.0000810236171289
 79
     2
 49
8.386475035331908
 49
-1593.356600854788
 53
67.06200000000002
 43
12324.86503361486
 44
1293.418704308614
 45
10.95204222691618
 46
0.0000810236171289
 79
     2
 49
8.386475035331908
 49
-1593.356600854788
 53
67.06200000000002
 43
12324.86503361486
 44
1256.54062231724
 45
10.95204222691618
 46
0.0000810236171289
 79
     2
 49
8.386475035331908
 49
-1593.356600854788
 53
67.06200000000002
 43
12324.86503361486
 44
1219.663523715172
 45
10.95204222691618
 46
0.0000810236171289
 79
     2
 49
8.386475035331908
 49
-1593.356600854788
 53
67.06200000000002
 43
12324.86503361486
 44
1182.786425113097
 45
10.95204222691618
 46
0.0000810236171289
 79
     2
 49
8.386475035331908
 49
-1593.356600854788
 53
67.06200000000002
 43
12324.86503361486
 44
1145.909326511028
 45
10.95204222691618
 46
0.0000810236171289
 79
     2
 49
8.386475035331908
 49
-1593.356600854788
 53
67.06200000000002
 43
12324.86503361486
 44
1109.03222790896
 45
10.95204222691618
 46
0.0000810236171289
 79
     2
 49
8.386475035331908
 49
-1593.356600854788
 53
67.06200000000002
 43
12324.86503361486
 44
1072.155129306885
 45
10.95204222691618
 46
0.0000810236171289
 79
     2
 49
8.386475035331908
 49
-1593.356600854788
 53
67.06200000000002
 43
12324.86503361486
 44
1035.278030704817
 45
10.95204222691618
 46
0.0000810236171289
 79
     2
 49
8.386475035331908
 49
-1593.356600854788
 53
67.06200000000002
 43
12324.86503361486
 44
998.4009321027414
 45
10.95204222691618
 46
0.0000810236171289
 79
     2
 49
8.386475035331908
 49
-1593.356600854788
 53
67.06200000000002
 43
12324.86503361486
 44
961.5238335006662
 45
10.95204222691618
 46
0.0000810236171289
 79
     2
 49
8.386475035331908
 49
-1593.356600854788
 53
67.06200000000002
 43
12324.86503361486
 44
924.646734898598
 45
10.95204222691618
 46
0.0000810236171289
 79
     2
 49
8.386475035331908
 49
-1593.356600854788
 53
67.06200000000002
 43
12324.86503361486
 44
887.7696362965298
 45
10.95204222691618
 46
0.0000810236171289
 79
     2
 49
8.386475035331908
 49
-1593.356600854788
 53
67.06200000000002
 43
12324.86503361486
 44
850.8925376944544
 45
10.95204222691618
 46
0.0000810236171289
 79
     2
 49
8.386475035331908
 49
-1593.356600854788
 53
67.06200000000002
 43
12324.86503361486
 44
814.0154390923825
 45
10.95204222691618
 46
0.0000810236171289
 79
     2
 49
8.386475035331908
 49
-1593.356600854788
 53
67.06200000000002
 43
12324.86503361486
 44
777.1383404903108
 45
10.95204222691618
 46
0.0000810236171289
 79
     2
 49
8.386475035331908
 49
-1593.356600854788
 53
67.06200000000002
 43
12324.86503361486
 44
740.261241888239
 45
10.95204222691618
 46
0.0000810236171289
 79
     2
 49
8.386475035331908
 49
-1593.356600854788
 53
67.06200000000002
 43
12324.86503361486
 44
703.3841432861708
 45
10.95204222691618
 46
0.0000810236171289
 79
     2
 49
8.386475035331908
 49
-1593.356600854788
 53
67.06200000000002
 43
12324.86503361486
 44
666.5070446840991
 45
10.95204222691618
 46
0.0000810236171289
 79
     2
 49
8.386475035331908
 49
-1593.356600854788
 53
67.06200000000002
 43
12324.86503361486
 44
629.6299460820237
 45
10.95204222691618
 46
0.0000810236171289
 79
     2
 49
8.386475035331908
 49
-1593.356600854788
 53
67.06200000000002
 43
12324.86503361486
 44
592.7528474799555
 45
10.95204222691618
 46
0.0000810236171289
 79
     2
 49
8.386475035331908
 49
-1593.356600854788
 53
67.06200000000002
 43
12324.86503361486
 44
555.8757488778837
 45
10.95204222691618
 46
0.0000810236171289
 79
     2
 49
8.386475035331908
 49
-1593.356600854788
 53
67.06200000000002
 43
12324.86503361486
 44
518.9986502758119
 45
10.95204222691618
 46
0.0000810236171289
 79
     2
 49
8.386475035331908
 49
-1593.356600854788
 53
67.06200000000002
 43
12324.86503361486
 44
482.1215516737366
 45
10.95204222691618
 46
0.0000810236171289
 79
     2
 49
8.386475035331908
 49
-1593.356600854788
 53
67.06200000000002
 43
12324.86503361486
 44
445.2444530716684
 45
10.95204222691618
 46
0.0000810236171289
 79
     2
 49
8.386475035331908
 49
-1593.356600854788
 53
67.06200000000002
 43
12324.86503361486
 44
408.3673544695966
 45
10.95204222691618
 46
0.0000810236171289
 79
     2
 49
8.386475035331908
 49
-1593.356600854788
 53
67.06200000000002
 43
12324.86503361486
 44
371.4902558675249
 45
10.95204222691618
 46
0.0000810236171289
 79
     2
 49
8.386475035331908
 49
-1593.356600854788
 53
67.06200000000002
 43
12324.86503361486
 44
334.6131572654531
 45
10.95204222691618
 46
0.0000810236171289
 79
     2
 49
8.386475035331908
 49
-1593.356600854788
 53
67.06200000000002
 43
12324.86503361486
 44
297.7360586633813
 45
10.95204222691618
 46
0.0000810236171289
 79
     2
 49
8.386475035331908
 49
-1593.356600854788
 53
67.06200000000002
 43
12324.86503361486
 44
260.8589600613095
 45
10.95204222691618
 46
0.0000810236171289
 79
     2
 49
8.386475035331908
 49
-1593.356600854788
 53
67.06200000000002
 43
12324.86503361486
 44
223.9818614592423
 45
10.95204222691618
 46
0.0000810236171289
 79
     2
 49
8.386475035331908
 49
-1593.356600854788
 53
67.06200000000002
 43
12324.86503361486
 44
187.1047628571705
 45
10.95204222691618
 46
0.0000810236171289
 79
     2
 49
8.386475035331908
 49
-1593.356600854788
 53
67.06200000000002
 43
12324.86503361486
 44
150.2276642550951
 45
10.95204222691618
 46
0.0000810236171289
 79
     2
 49
8.386475035331908
 49
-1593.356600854788
 53
52.43499999999998
 43
12318.33674968658
 44
1604.17319650425
 45
10.95203172552474
 46
-0.000054871588512
 79
     2
 49
4.503300162712174
 49
-1809.889024393906
 53
52.43499999999998
 43
12318.33674968658
 44
1567.296229020751
 45
10.95203172552474
 46
-0.000054871588512
 79
     2
 49
4.503300162712174
 49
-1809.889024393906
 53
52.43499999999998
 43
12318.33674968658
 44
1530.419130418676
 45
10.95203172552474
 46
-0.000054871588512
 79
     2
 49
4.503300162712174
 49
-1809.889024393906
 53
52.43499999999998
 43
12318.33674968658
 44
1493.542031816601
 45
10.95203172552474
 46
-0.000054871588512
 79
     2
 49
4.503300162712174
 49
-1809.889024393906
 53
52.43499999999998
 43
12318.33674968658
 44
1456.664933214532
 45
10.95203172552474
 46
-0.000054871588512
 79
     2
 49
4.503300162712174
 49
-1809.889024393906
 53
52.43499999999998
 43
12318.33674968658
 44
1419.787834612464
 45
10.95203172552474
 46
-0.000054871588512
 79
     2
 49
4.503300162712174
 49
-1809.889024393906
 53
52.43499999999998
 43
12318.33674968658
 44
1382.910736010392
 45
10.95203172552474
 46
-0.000054871588512
 79
     2
 49
4.503300162712174
 49
-1809.889024393906
 53
52.43499999999998
 43
12318.33674968658
 44
1346.033637408321
 45
10.95203172552474
 46
-0.000054871588512
 79
     2
 49
4.503300162712174
 49
-1809.889024393906
 53
52.43499999999998
 43
12318.33674968658
 44
1309.156538806245
 45
10.95203172552474
 46
-0.000054871588512
 79
     2
 49
4.503300162712174
 49
-1809.889024393906
 53
52.43499999999998
 43
12318.33674968658
 44
1272.278129018444
 45
10.95203172552474
 46
-0.000054871588512
 79
     2
 49
4.503300162712174
 49
-1809.889024393906
 53
52.43499999999998
 43
12318.33674968658
 44
1235.401030416376
 45
10.95203172552474
 46
-0.000054871588512
 79
     2
 49
4.503300162712174
 49
-1809.889024393906
 53
52.43499999999998
 43
12318.33674968658
 44
1198.523931814307
 45
10.95203172552474
 46
-0.000054871588512
 79
     2
 49
4.503300162712174
 49
-1809.889024393906
 53
52.43499999999998
 43
12318.33674968658
 44
1161.646833212232
 45
10.95203172552474
 46
-0.000054871588512
 79
     2
 49
4.503300162712174
 49
-1809.889024393906
 53
52.43499999999998
 43
12318.33674968658
 44
1124.769734610157
 45
10.95203172552474
 46
-0.000054871588512
 79
     2
 49
4.503300162712174
 49
-1809.889024393906
 53
52.43499999999998
 43
12318.33674968658
 44
1087.892636008088
 45
10.95203172552474
 46
-0.000054871588512
 79
     2
 49
4.503300162712174
 49
-1809.889024393906
 53
52.43499999999998
 43
12318.33674968658
 44
1051.01553740602
 45
10.95203172552474
 46
-0.000054871588512
 79
     2
 49
4.503300162712174
 49
-1809.889024393906
 53
52.43499999999998
 43
12318.33674968658
 44
1014.138438803945
 45
10.95203172552474
 46
-0.000054871588512
 79
     2
 49
4.503300162712174
 49
-1809.889024393906
 53
52.43499999999998
 43
12318.33674968658
 44
977.261340201877
 45
10.95203172552474
 46
-0.000054871588512
 79
     2
 49
4.503300162712174
 49
-1809.889024393906
 53
52.43499999999998
 43
12318.33674968658
 44
940.3842415998015
 45
10.95203172552474
 46
-0.000054871588512
 79
     2
 49
4.503300162712174
 49
-1809.889024393906
 53
52.43499999999998
 43
12318.33674968658
 44
903.5071429977334
 45
10.95203172552474
 46
-0.000054871588512
 79
     2
 49
4.503300162712174
 49
-1809.889024393906
 53
52.43499999999998
 43
12318.33674968658
 44
866.6300443956652
 45
10.95203172552474
 46
-0.000054871588512
 79
     2
 49
4.503300162712174
 49
-1809.889024393906
 53
52.43499999999998
 43
12318.33674968658
 44
829.7529457935898
 45
10.95203172552474
 46
-0.000054871588512
 79
     2
 49
4.503300162712174
 49
-1809.889024393906
 53
52.43499999999998
 43
12318.33674968658
 44
792.8758471915143
 45
10.95203172552474
 46
-0.000054871588512
 79
     2
 49
4.503300162712174
 49
-1809.889024393906
 53
52.43499999999998
 43
12318.33674968658
 44
755.9987485894462
 45
10.95203172552474
 46
-0.000054871588512
 79
     2
 49
4.503300162712174
 49
-1809.889024393906
 53
52.43499999999998
 43
12318.33674968658
 44
719.1216499873708
 45
10.95203172552474
 46
-0.000054871588512
 79
     2
 49
4.503300162712174
 49
-1809.889024393906
 53
52.43499999999998
 43
12318.33674968658
 44
682.2445513853026
 45
10.95203172552474
 46
-0.000054871588512
 79
     2
 49
4.503300162712174
 49
-1809.889024393906
 53
52.43499999999998
 43
12318.33674968658
 44
645.3674527832272
 45
10.95203172552474
 46
-0.000054871588512
 79
     2
 49
4.503300162712174
 49
-1809.889024393906
 53
52.43499999999998
 43
12318.33674968658
 44
608.490354181159
 45
10.95203172552474
 46
-0.000054871588512
 79
     2
 49
4.503300162712174
 49
-1809.889024393906
 53
52.43499999999998
 43
12318.33674968658
 44
571.6132555790872
 45
10.95203172552474
 46
-0.000054871588512
 79
     2
 49
4.503300162712174
 49
-1809.889024393906
 53
52.43499999999998
 43
12318.33674968658
 44
534.7361569770155
 45
10.95203172552474
 46
-0.000054871588512
 79
     2
 49
4.503300162712174
 49
-1809.889024393906
 53
52.43499999999998
 43
12318.33674968658
 44
497.8590583749437
 45
10.95203172552474
 46
-0.000054871588512
 79
     2
 49
4.503300162712174
 49
-1809.889024393906
 53
52.43499999999998
 43
12318.33674968658
 44
460.9819597728719
 45
10.95203172552474
 46
-0.000054871588512
 79
     2
 49
4.503300162712174
 49
-1809.889024393906
 53
52.43499999999998
 43
12318.33674968658
 44
424.1048611708038
 45
10.95203172552474
 46
-0.000054871588512
 79
     2
 49
4.503300162712174
 49
-1809.889024393906
 53
52.43499999999998
 43
12318.33674968658
 44
387.2277625687284
 45
10.95203172552474
 46
-0.000054871588512
 79
     2
 49
4.503300162712174
 49
-1809.889024393906
 53
52.43499999999998
 43
12318.33674968658
 44
350.3506639666603
 45
10.95203172552474
 46
-0.000054871588512
 79
     2
 49
4.503300162712174
 49
-1809.889024393906
 53
52.43499999999998
 43
12318.33674968658
 44
313.4735653645848
 45
10.95203172552474
 46
-0.000054871588512
 79
     2
 49
4.503300162712174
 49
-1809.889024393906
 53
52.43499999999998
 43
12318.33674968658
 44
276.5964667625131
 45
10.95203172552474
 46
-0.000054871588512
 79
     2
 49
4.503300162712174
 49
-1809.889024393906
 53
52.43499999999998
 43
12318.33674968658
 44
239.7193681604422
 45
10.95203172552474
 46
-0.000054871588512
 79
     2
 49
4.503300162712174
 49
-1809.889024393906
 53
52.43499999999998
 43
12318.33674968658
 44
202.842269558374
 45
10.95203172552474
 46
-0.000054871588512
 79
     2
 49
4.503300162712174
 49
-1809.889024393906
 53
25.04599999999999
 43
12318.19018042896
 44
1575.611113315329
 45
10.95203652759968
 46
0.0000881814618674
 79
     2
 49
4.636287175181982
 49
-2957.102061108969
 53
25.04599999999999
 43
12318.19018042896
 44
1538.734014713257
 45
10.95203652759968
 46
0.0000881814618674
 79
     2
 49
4.636287175181982
 49
-2957.102061108969
 53
25.04599999999999
 43
12318.19018042896
 44
1501.856916111182
 45
10.95203652759968
 46
0.0000881814618674
 79
     2
 49
4.636287175181982
 49
-2957.102061108969
 53
25.04599999999999
 43
12318.19018042896
 44
1464.979817509114
 45
10.95203652759968
 46
0.0000881814618674
 79
     2
 49
4.636287175181982
 49
-2957.102061108969
 53
25.04599999999999
 43
12318.19018042896
 44
1428.102718907038
 45
10.95203652759968
 46
0.0000881814618674
 79
     2
 49
4.636287175181982
 49
-2957.102061108969
 53
25.04599999999999
 43
12318.19018042896
 44
1391.22562030497
 45
10.95203652759968
 46
0.0000881814618674
 79
     2
 49
4.636287175181982
 49
-2957.102061108969
 53
25.04599999999999
 43
12318.19018042896
 44
1354.348521702898
 45
10.95203652759968
 46
0.0000881814618674
 79
     2
 49
4.636287175181982
 49
-2957.102061108969
 53
25.04599999999999
 43
12318.19018042896
 44
1317.471423100826
 45
10.95203652759968
 46
0.0000881814618674
 79
     2
 49
4.636287175181982
 49
-2957.102061108969
 53
25.04599999999999
 43
12318.19018042896
 44
1280.594324498751
 45
10.95203652759968
 46
0.0000881814618674
 79
     2
 49
4.636287175181982
 49
-2957.102061108969
 53
25.04599999999999
 43
12318.19018042896
 44
1243.717225896683
 45
10.95203652759968
 46
0.0000881814618674
 79
     2
 49
4.636287175181982
 49
-2957.102061108969
 53
25.04599999999999
 43
12318.19018042896
 44
1206.840127294607
 45
10.95203652759968
 46
0.0000881814618674
 79
     2
 49
4.636287175181982
 49
-2957.102061108969
 53
25.04599999999999
 43
12318.19018042896
 44
1169.963028692539
 45
10.95203652759968
 46
0.0000881814618674
 79
     2
 49
4.636287175181982
 49
-2957.102061108969
 53
25.04599999999999
 43
12318.19018042896
 44
1133.085930090471
 45
10.95203652759968
 46
0.0000881814618674
 79
     2
 49
4.636287175181982
 49
-2957.102061108969
 53
25.04599999999999
 43
12318.19018042896
 44
1096.208831488396
 45
10.95203652759968
 46
0.0000881814618674
 79
     2
 49
4.636287175181982
 49
-2957.102061108969
 53
25.04599999999999
 43
12318.19018042896
 44
1059.331732886327
 45
10.95203652759968
 46
0.0000881814618674
 79
     2
 49
4.636287175181982
 49
-2957.102061108969
 53
25.04599999999999
 43
12318.19018042896
 44
1022.454634284252
 45
10.95203652759968
 46
0.0000881814618674
 79
     2
 49
4.636287175181982
 49
-2957.102061108969
 53
25.04599999999999
 43
12318.19018042896
 44
985.5775356821768
 45
10.95203652759968
 46
0.0000881814618674
 79
     2
 49
4.636287175181982
 49
-2957.102061108969
 53
25.04599999999999
 43
12318.19018042896
 44
948.7004370801086
 45
10.95203652759968
 46
0.0000881814618674
 79
     2
 49
4.636287175181982
 49
-2957.102061108969
 53
25.04599999999999
 43
12318.19018042896
 44
911.8233384780406
 45
10.95203652759968
 46
0.0000881814618674
 79
     2
 49
4.636287175181982
 49
-2957.102061108969
 53
25.04599999999999
 43
12318.19018042896
 44
874.9462398759652
 45
10.95203652759968
 46
0.0000881814618674
 79
     2
 49
4.636287175181982
 49
-2957.102061108969
 53
25.04599999999999
 43
12318.19018042896
 44
838.069141273897
 45
10.95203652759968
 46
0.0000881814618674
 79
     2
 49
4.636287175181982
 49
-2957.102061108969
 53
25.04599999999999
 43
12318.19018042896
 44
801.1920426718216
 45
10.95203652759968
 46
0.0000881814618674
 79
     2
 49
4.636287175181982
 49
-2957.102061108969
 53
25.04599999999999
 43
12318.19018042896
 44
764.3149440697498
 45
10.95203652759968
 46
0.0000881814618674
 79
     2
 49
4.636287175181982
 49
-2957.102061108969
 53
25.04599999999999
 43
12318.19018042896
 44
727.4378454676816
 45
10.95203652759968
 46
0.0000881814618674
 79
     2
 49
4.636287175181982
 49
-2957.102061108969
 53
25.04599999999999
 43
12318.19018042896
 44
690.5607468656098
 45
10.95203652759968
 46
0.0000881814618674
 79
     2
 49
4.636287175181982
 49
-2957.102061108969
 53
25.04599999999999
 43
12318.19018042896
 44
653.6836482635344
 45
10.95203652759968
 46
0.0000881814618674
 79
     2
 49
4.636287175181982
 49
-2957.102061108969
 53
25.04599999999999
 43
12318.19018042896
 44
616.8065496614663
 45
10.95203652759968
 46
0.0000881814618674
 79
     2
 49
4.636287175181982
 49
-2957.102061108969
 53
25.04599999999999
 43
12318.19018042896
 44
579.9294510593945
 45
10.95203652759968
 46
0.0000881814618674
 79
     2
 49
4.636287175181982
 49
-2957.102061108969
 53
25.04599999999999
 43
12318.19018042896
 44
543.0523524573227
 45
10.95203652759968
 46
0.0000881814618674
 79
     2
 49
4.636287175181982
 49
-2957.102061108969
 53
25.04599999999999
 43
12318.19018042896
 44
506.1752538552473
 45
10.95203652759968
 46
0.0000881814618674
 79
     2
 49
4.636287175181982
 49
-2957.102061108969
 53
25.04599999999999
 43
12318.19018042896
 44
469.2981552531791
 45
10.95203652759968
 46
0.0000881814618674
 79
     2
 49
4.636287175181982
 49
-2957.102061108969
 53
25.04599999999999
 43
12318.19018042896
 44
432.4210566511074
 45
10.95203652759968
 46
0.0000881814618674
 79
     2
 49
4.636287175181982
 49
-2957.102061108969
 53
25.04599999999999
 43
12318.19018042896
 44
395.5439580490356
 45
10.95203652759968
 46
0.0000881814618674
 79
     2
 49
4.636287175181982
 49
-2957.102061108969
 53
25.04599999999999
 43
12318.19018042896
 44
358.6668594469638
 45
10.95203652759968
 46
0.0000881814618674
 79
     2
 49
4.636287175181982
 49
-2957.102061108969
 53
14.07599999999998
 43
12321.08225623343
 44
1607.742768530356
 45
10.95202660951167
 46
-0.0000805056871684
 79
     2
 49
2.663936043727242
 49
-1058.697838380728
 53
14.07599999999998
 43
12321.08225623343
 44
1570.865604368996
 45
10.95202660951167
 46
-0.0000805056871684
 79
     2
 49
2.663936043727242
 49
-1058.697838380728
 53
14.07599999999998
 43
12321.08225623343
 44
1533.988505766924
 45
10.95202660951167
 46
-0.0000805056871684
 79
     2
 49
2.663936043727242
 49
-1058.697838380728
 53
14.07599999999998
 43
12321.08225623343
 44
1497.111407164856
 45
10.95202660951167
 46
-0.0000805056871684
 79
     2
 49
2.663936043727242
 49
-1058.697838380728
 53
14.07599999999998
 43
12321.08225623343
 44
1460.234308562781
 45
10.95202660951167
 46
-0.0000805056871684
 79
     2
 49
2.663936043727242
 49
-1058.697838380728
 53
14.07599999999998
 43
12321.08225623343
 44
1423.357209960705
 45
10.95202660951167
 46
-0.0000805056871684
 79
     2
 49
2.663936043727242
 49
-1058.697838380728
 53
14.07599999999998
 43
12321.08225623343
 44
1386.480111358637
 45
10.95202660951167
 46
-0.0000805056871684
 79
     2
 49
2.663936043727242
 49
-1058.697838380728
 98
        1
 10
1842.924710448097
 20
444.8781501276471
  0
POLYLINE
  5
7880
330
67
100
AcDbEntity
  8
F_01 sichtbar
370
    13
100
AcDb2dPolyline
 66
     1
 10
0.0
 20
0.0
 30
0.0
  0
VERTEX
  5
7881
330
7880
100
AcDbEntity
  8
F_01 sichtbar
370
    13
100
AcDbVertex
100
AcDb2dVertex
 10
267.1774279990213
 20
342.6600358835867
 30
0.0
  0
VERTEX
  5
7882
330
7880
100
AcDbEntity
  8
F_01 sichtbar
370
    13
100
AcDbVertex
100
AcDb2dVertex
 10
429.1210805628443
 20
342.6600358835867
 30
0.0
  0
VERTEX
  5
7883
330
7880
100
AcDbEntity
  8
F_01 sichtbar
370
    13
100
AcDbVertex
100
AcDb2dVertex
 10
429.1210805628443
 20
507.6600360412858
 30
0.0
  0
VERTEX
  5
7884
330
7880
100
AcDbEntity
  8
F_01 sichtbar
370
    13
100
AcDbVertex
100
AcDb2dVertex
 10
267.1774279990213
 20
507.6600360412858
 30
0.0
  0
SEQEND
  5
7885
330
7880
100
AcDbEntity
  8
F_01 sichtbar
370
    13
  0
POLYLINE
  5
7886
330
67
100
AcDbEntity
  8
F_01 sichtbar
370
    13
100
AcDb2dPolyline
 66
     1
 10
0.0
 20
0.0
 30
0.0
  0
VERTEX
  5
7887
330
7886
100
AcDbEntity
  8
F_01 sichtbar
370
    13
100
AcDbVertex
100
AcDb2dVertex
 10
267.1774279990213
 20
510.6600360412858
 30
0.0
  0
VERTEX
  5
7888
330
7886
100
AcDbEntity
  8
F_01 sichtbar
370
    13
100
AcDbVertex
100
AcDb2dVertex
 10
429.1210805628516
 20
510.6600360412858
 30
0.0
  0
VERTEX
  5
7889
330
7886
100
AcDbEntity
  8
F_01 sichtbar
370
    13
100
AcDbVertex
100
AcDb2dVertex
 10
429.1210805628589
 20
630.6600360412858
 30
0.0
  0
VERTEX
  5
788A
330
7886
100
AcDbEntity
  8
F_01 sichtbar
370
    13
100
AcDbVertex
100
AcDb2dVertex
 10
267.1774279990213
 20
630.6600360412858
 30
0.0
  0
SEQEND
  5
788B
330
7886
100
AcDbEntity
  8
F_01 sichtbar
370
    13
  0
POLYLINE
  5
788C
330
67
100
AcDbEntity
  8
F_01 sichtbar
370
    13
100
AcDb2dPolyline
 66
     1
 10
0.0
 20
0.0
 30
0.0
  0
VERTEX
  5
788D
330
788C
100
AcDbEntity
  8
F_01 sichtbar
370
    13
100
AcDbVertex
100
AcDb2dVertex
 10
429.1210805628516
 20
540.6600360412858
 30
0.0
  0
VERTEX
  5
788E
330
788C
100
AcDbEntity
  8
F_01 sichtbar
370
    13
100
AcDbVertex
100
AcDb2dVertex
 10
267.1774279990213
 20
540.6600360412858
 30
0.0
  0
SEQEND
  5
788F
330
788C
100
AcDbEntity
  8
F_01 sichtbar
370
    13
  0
LINE
  5
7890
330
67
100
AcDbEntity
  8
F_01 sichtbar
370
    13
100
AcDbLine
 10
665.4634252054538
 20
354.6600718860072
 30
0.0
 11
467.6217828150993
 21
354.6600718860072
 31
0.0
  0
LINE
  5
7891
330
67
100
AcDbEntity
  8
F_02 unsichtbar
370
    13
100
AcDbLine
 10
429.1210805628589
 20
509.1600360412858
 30
0.0
 11
267.1774279990286
 21
509.1600360412858
 31
0.0
  0
LINE
  5
7892
330
67
100
AcDbEntity
  8
F_01 sichtbar
370
    13
100
AcDbLine
 10
457.6210670572408
 20
630.660036033184
 30
0.0
 11
457.6210670572408
 21
358.1600380903228
 31
0.0
  0
LINE
  5
7893
330
67
100
AcDbEntity
  8
F_01 sichtbar
370
    13
100
AcDbLine
 10
435.6210670572409
 20
339.6600358835867
 30
0.0
 11
435.6210670572409
 21
630.6600359143312
 31
0.0
  0
LINE
  5
7894
330
67
100
AcDbEntity
  8
F_02 unsichtbar
370
    13
100
AcDbLine
 10
429.1210805628589
 20
341.1600358835867
 30
0.0
 11
267.1774279990286
 21
341.1600358835867
 31
0.0
  0
LINE
  5
7895
330
67
100
AcDbEntity
  8
F_01 sichtbar
370
    13
100
AcDbLine
 10
448.6058828172181
 20
322.6711760921798
 30
0.0
 11
665.4634252054538
 21
322.6711760921798
 31
0.0
  0
LINE
  5
7896
330
67
100
AcDbEntity
  8
F_01 sichtbar
370
    13
100
AcDbLine
 10
506.6058828172108
 20
322.6711760921798
 30
0.0
 11
506.6058828172108
 21
354.6600718860072
 31
0.0
  0
POLYLINE
  5
7897
330
67
100
AcDbEntity
  8
F_31 Ansichtsfenster
370
    13
100
AcDb2dPolyline
 66
     1
 10
0.0
 20
0.0
 30
0.0
  0
VERTEX
  5
7898
330
7897
100
AcDbEntity
  8
F_31 Ansichtsfenster
370
    13
100
AcDbVertex
100
AcDb2dVertex
 10
267.1774279990213
 20
302.6600358835831
 30
0.0
  0
VERTEX
  5
7899
330
7897
100
AcDbEntity
  8
F_31 Ansichtsfenster
370
    13
100
AcDbVertex
100
AcDb2dVertex
 10
267.1774279990213
 20
630.6600360412858
 30
0.0
  0
SEQEND
  5
789A
330
7897
100
AcDbEntity
  8
F_31 Ansichtsfenster
370
    13
  0
LINE
  5
789B
330
67
100
AcDbEntity
  8
F_01 sichtbar
370
    13
100
AcDbLine
 10
459.1217828151066
 20
630.6600360412858
 30
0.0
 11
665.4634252054538
 21
630.6600360412858
 31
0.0
  0
HATCH
  5
789C
330
67
100
AcDbEntity
  8
F_01 sichtbar
370
    13
100
AcDbHatch
 10
0.0
 20
0.0
 30
0.0
210
0.0
220
0.0
230
1.0
  2
JIS_WOOD
 70
     0
 71
     0
 91
        1
 92
        1
 93
       10
 72
     1
 10
435.6210670572409
 20
630.6600359143312
 11
457.6210670572408
 21
630.6600360331822
 72
     1
 10
457.6210670572408
 20
630.660036033184
 11
457.6210529497484
 21
358.1600380902973
 72
     1
 10
457.6210529497484
 20
358.1600380902973
 11
455.1210559966285
 21
358.160037827497
 72
     1
 10
455.1210559966285
 20
358.160037827497
 11
455.1210668745416
 21
366.1600368814006
 72
     1
 10
455.1210668745416
 20
366.1600368814006
 11
451.1211301130906
 21
366.1600368810568
 72
     1
 10
451.1211301130906
 20
366.160036881055
 11
451.1210559966285
 21
358.1600374070104
 72
     1
 10
451.1210559966285
 20
358.1600374070122
 11
446.1210713276168
 21
358.1600367237434
 72
     1
 10
446.1210713276168
 20
358.1600367237415
 11
446.1210659443977
 21
339.6600354041447
 72
     1
 10
446.1210659443977
 20
339.6600354041447
 11
435.6210710972818
 21
339.6600358236546
 72
     1
 10
435.6210710972818
 20
339.6600358236546
 11
435.6210670572409
 21
630.6600359143312
 97
        0
 75
     0
 76
     1
 52
315.0
 41
30.0
 77
     0
 78
     1
 53
0.0
 43
-23274.6998520894
 44
-14166.38067745968
 45
0.0000000000000071
 46
21.2132034
 79
     0
 98
        1
 10
-23274.6998520894
 20
-14166.38067745968
1001
ACAD
1010
0.0
1020
0.0
1030
0.0
  0
HATCH
  5
789D
330
67
100
AcDbEntity
  8
F_01 sichtbar
370
    13
100
AcDbHatch
 10
0.0
 20
0.0
 30
0.0
210
0.0
220
0.0
230
1.0
  2
JIS_WOOD
 70
     0
 71
     0
 91
        1
 92
        1
 93
        6
 72
     1
 10
506.6058828172108
 20
322.660117895005
 11
506.6059475523734
 21
354.6600718860109
 72
     1
 10
506.6059475523734
 20
354.6600718860109
 11
467.6217828150993
 21
354.6600718860091
 72
     1
 10
467.6217828150993
 20
354.6600718860072
 11
467.6053187860825
 21
354.160125180445
 72
     1
 10
467.6053187860825
 20
354.1601251804468
 11
450.1901302360283
 21
354.1600718860109
 72
     1
 10
450.1901302360283
 20
354.1600718860109
 11
448.5901302360371
 21
322.6600718860109
 72
     1
 10
448.5901302360371
 20
322.6600718860109
 11
506.6058828172108
 21
322.660117895005
 97
        0
 75
     0
 76
     1
 52
0.0
 41
15.0
 77
     0
 78
     1
 53
45.0
 43
-32704.53021046471
 44
-14068.88835861496
 45
-7.499999987414763
 46
7.499999987414764
 79
     0
 98
        1
 10
513.0442148750161
 20
345.6831929143818
1001
ACAD
1010
0.0
1020
0.0
1030
0.0
  0
LWPOLYLINE
  5
789E
330
67
100
AcDbEntity
  8
F_01 sichtbar
370
    13
100
AcDbPolyline
 90
       59
 70
     1
 43
0.0
 10
455.4392740024859
 20
353.9782359125029
 10
456.7851637938956
 20
352.6323464040588
 42
-2.295511712501342
 10
456.138113215341
 20
352.2894474569812
 10
454.4900099380547
 20
353.9375503877645
 42
0.4142135623730925
 10
454.3485885818163
 20
353.9375503728998
 10
453.9710759949166
 20
353.5600377066303
 10
453.1210759949108
 20
353.5600376172742
 10
452.2710759949196
 20
353.5600375279218
 10
451.8187937502379
 20
354.0123196775139
 42
-0.8501016268507996
 10
450.8339930848824
 20
353.9471202461946
 10
447.6210756164737
 20
357.160037039107
 10
447.6210754587964
 20
358.660037039107
 10
448.047852198958
 20
358.2332603886762
 42
0.198912367379658
 10
448.2246289019467
 20
358.1600371025534
 10
451.0880628094683
 20
358.1600374035634
 42
0.1316524975873961
 10
451.2130628059467
 20
358.1935310657582
 10
451.8960754663794
 20
358.5878687048544
 42
0.2679491924311224
 10
452.0210754436202
 20
358.8043750689403
 10
452.021075222271
 20
360.9100375016433
 42
0.4142135623730951
 10
451.7710751959903
 20
361.1600374753625
 10
450.7710751959903
 20
361.1600373702395
 42
-0.5773502691896217
 10
450.5545688056236
 20
361.5350373474803
 10
450.79994262536
 20
361.9600373732765
 10
451.7710751118947
 20
361.9600374753618
 42
0.4142135623730951
 10
452.021075085614
 20
362.2100375016426
 10
452.0210749069092
 20
363.9100375016433
 42
0.4142135623730951
 10
451.7710748806357
 20
364.1600374753625
 10
450.7710748806357
 20
364.1600373702395
 42
-0.577350269189623
 10
450.554568490269
 20
364.5350373474803
 10
450.7999423099909
 20
364.9600373732765
 10
451.7710747965329
 20
364.9600374753618
 42
0.4142135623730951
 10
452.0210747702521
 20
365.2100375016425
 10
452.021074749232
 20
365.4100375016433
 42
-0.4142135623730951
 10
452.2710747229512
 20
365.660037527924
 10
453.1210747229497
 20
365.6600376172765
 10
453.9710747229483
 20
365.6600377066288
 42
-0.4142135623730951
 10
454.221074749229
 20
365.4100377329096
 10
454.2210747702565
 20
365.2100377329089
 42
0.4142135623730951
 10
454.4710747965373
 20
364.9600377591896
 10
455.442207283072
 20
364.9600378612749
 10
455.6875811921572
 20
364.535037887069
 42
-0.5773502691896199
 10
455.4710748806328
 20
364.1600378643098
 10
454.4710748806328
 20
364.1600377591903
 42
0.4142135623730951
 10
454.2210749069136
 20
363.9100377329096
 10
454.2210750856111
 20
362.2100377329088
 42
0.4142135623730951
 10
454.4710751118919
 20
361.9600377591896
 10
455.4422075984412
 20
361.9600378612749
 10
455.6875815075191
 20
361.5350378870689
 42
-0.5773502691896196
 10
455.4710751959946
 20
361.1600378643097
 10
454.4710751959947
 20
361.1600377591904
 42
0.4142135623730951
 10
454.2210752222754
 20
360.9100377329096
 10
454.2210754436246
 20
358.8043753002066
 42
0.2679491924311216
 10
454.3460754663838
 20
358.5878689624014
 10
455.029088209726
 20
358.1935314669035
 42
0.1316524975873966
 10
455.1540882132476
 20
358.1600378309895
 10
458.0175221207691
 20
358.1600381319959
 42
0.198912367379658
 10
458.1942988083692
 20
358.2332614552843
 10
458.6210754587964
 20
358.6600381954422
 10
458.6210756164737
 20
357.1600381954422
  0
HATCH
  5
789F
330
67
100
AcDbEntity
  8
F_01 sichtbar
370
    13
100
AcDbHatch
 10
0.0
 20
0.0
 30
0.0
210
0.0
220
0.0
230
1.0
  2
BATT_INSULATION
 70
     0
 71
     0
 91
        1
 92
        1
 93
        4
 72
     1
 10
429.1210805628516
 20
540.6600360412858
 11
429.1210805628516
 21
510.6600360412858
 72
     1
 10
429.1210805628516
 20
510.6600360412858
 11
267.1774279990213
 21
510.6600360412858
 72
     1
 10
267.1774279990213
 20
510.6600360412858
 11
267.1774279990213
 21
540.6600360412876
 72
     1
 10
267.1774279990213
 20
540.6600360412894
 11
429.1210805628516
 21
540.6600360412876
 97
        0
 75
     0
 76
     2
 52
180.0
 41
32.77964320184142
 77
     0
 78
   528
 53
0.000000000000007
 43
12084.31561402268
 44
1798.488176072683
 45
10.95203936981043
 46
-36.87709860207159
 79
     2
 49
0.0
 49
-10.95203936981043
 53
345.9236
 43
12078.83957794795
 44
1794.390720672452
 45
10.95202660980681
 46
0.000004046117522
 79
     2
 49
2.663936043727233
 49
-1058.697838380723
 53
345.9236
 43
12078.83957794795
 44
1757.513622070376
 45
10.95202660980681
 46
0.000004046117522
 79
     2
 49
2.663936043727233
 49
-1058.697838380723
 53
345.9236
 43
12078.83957794795
 44
1720.636523468308
 45
10.95202660980681
 46
0.000004046117522
 79
     2
 49
2.663936043727233
 49
-1058.697838380723
 53
345.9236
 43
12078.83957794795
 44
1683.759424866233
 45
10.95202660980681
 46
0.000004046117522
 79
     2
 49
2.663936043727233
 49
-1058.697838380723
 53
345.9236
 43
12078.83957794795
 44
1646.882326264164
 45
10.95202660980681
 46
0.000004046117522
 79
     2
 49
2.663936043727233
 49
-1058.697838380723
 53
345.9236
 43
12078.83957794795
 44
1610.005227662096
 45
10.95202660980681
 46
0.000004046117522
 79
     2
 49
2.663936043727233
 49
-1058.697838380723
 53
345.9236
 43
12078.83957794795
 44
1573.128129060021
 45
10.95202660980681
 46
0.000004046117522
 79
     2
 49
2.663936043727233
 49
-1058.697838380723
 53
334.9544
 43
12080.11526332243
 44
1763.573594709106
 45
10.9520365279484
 46
-0.0000117218229823
 79
     2
 49
4.63628717518199
 49
-2957.102061108973
 53
334.9544
 43
12080.11526332243
 44
1726.696496107031
 45
10.9520365279484
 46
-0.0000117218229823
 79
     2
 49
4.63628717518199
 49
-2957.102061108973
 53
334.9544
 43
12080.11526332243
 44
1689.819397504962
 45
10.9520365279484
 46
-0.0000117218229823
 79
     2
 49
4.63628717518199
 49
-2957.102061108973
 53
334.9544
 43
12080.11526332243
 44
1652.942298902887
 45
10.9520365279484
 46
-0.0000117218229823
 79
     2
 49
4.63628717518199
 49
-2957.102061108973
 53
334.9544
 43
12080.11526332243
 44
1616.065200300815
 45
10.9520365279484
 46
-0.0000117218229823
 79
     2
 49
4.63628717518199
 49
-2957.102061108973
 53
334.9544
 43
12080.11526332243
 44
1579.188101698743
 45
10.9520365279484
 46
-0.0000117218229823
 79
     2
 49
4.63628717518199
 49
-2957.102061108973
 53
334.9544
 43
12080.11526332243
 44
1542.311003096675
 45
10.9520365279484
 46
-0.0000117218229823
 79
     2
 49
4.63628717518199
 49
-2957.102061108973
 53
334.9544
 43
12080.11526332243
 44
1505.4339044946
 45
10.9520365279484
 46
-0.0000117218229823
 79
     2
 49
4.63628717518199
 49
-2957.102061108973
 53
334.9544
 43
12080.11526332243
 44
1468.55778928183
 45
10.9520365279484
 46
-0.0000117218229823
 79
     2
 49
4.63628717518199
 49
-2957.102061108973
 53
334.9544
 43
12080.11526332243
 44
1431.680690679755
 45
10.9520365279484
 46
-0.0000117218229823
 79
     2
 49
4.63628717518199
 49
-2957.102061108973
 53
334.9544
 43
12080.11526332243
 44
1394.803592077683
 45
10.9520365279484
 46
-0.0000117218229823
 79
     2
 49
4.63628717518199
 49
-2957.102061108973
 53
334.9544
 43
12080.11526332243
 44
1357.926493475611
 45
10.9520365279484
 46
-0.0000117218229823
 79
     2
 49
4.63628717518199
 49
-2957.102061108973
 53
334.9544
 43
12080.11526332243
 44
1321.049394873539
 45
10.9520365279484
 46
-0.0000117218229823
 79
     2
 49
4.63628717518199
 49
-2957.102061108973
 53
334.9544
 43
12080.11526332243
 44
1284.172296271471
 45
10.9520365279484
 46
-0.0000117218229823
 79
     2
 49
4.63628717518199
 49
-2957.102061108973
 53
334.9544
 43
12080.11526332243
 44
1247.295197669399
 45
10.9520365279484
 46
-0.0000117218229823
 79
     2
 49
4.63628717518199
 49
-2957.102061108973
 53
334.9544
 43
12080.11526332243
 44
1210.418099067324
 45
10.9520365279484
 46
-0.0000117218229823
 79
     2
 49
4.63628717518199
 49
-2957.102061108973
 53
334.9544
 43
12080.11526332243
 44
1173.541000465256
 45
10.9520365279484
 46
-0.0000117218229823
 79
     2
 49
4.63628717518199
 49
-2957.102061108973
 53
334.9544
 43
12080.11526332243
 44
1136.663901863184
 45
10.9520365279484
 46
-0.0000117218229823
 79
     2
 49
4.63628717518199
 49
-2957.102061108973
 53
334.9544
 43
12080.11526332243
 44
1099.786803261112
 45
10.9520365279484
 46
-0.0000117218229823
 79
     2
 49
4.63628717518199
 49
-2957.102061108973
 53
334.9544
 43
12080.11526332243
 44
1062.909704659037
 45
10.9520365279484
 46
-0.0000117218229823
 79
     2
 49
4.63628717518199
 49
-2957.102061108973
 53
334.9544
 43
12080.11526332243
 44
1026.032606056968
 45
10.9520365279484
 46
-0.0000117218229823
 79
     2
 49
4.63628717518199
 49
-2957.102061108973
 53
334.9544
 43
12080.11526332243
 44
989.1555074548969
 45
10.9520365279484
 46
-0.0000117218229823
 79
     2
 49
4.63628717518199
 49
-2957.102061108973
 53
334.9544
 43
12080.11526332243
 44
952.2784088528251
 45
10.9520365279484
 46
-0.0000117218229823
 79
     2
 49
4.63628717518199
 49
-2957.102061108973
 53
334.9544
 43
12080.11526332243
 44
915.4013102507496
 45
10.9520365279484
 46
-0.0000117218229823
 79
     2
 49
4.63628717518199
 49
-2957.102061108973
 53
334.9544
 43
12080.11526332243
 44
878.5242116486815
 45
10.9520365279484
 46
-0.0000117218229823
 79
     2
 49
4.63628717518199
 49
-2957.102061108973
 53
334.9544
 43
12080.11526332243
 44
841.6471130466133
 45
10.9520365279484
 46
-0.0000117218229823
 79
     2
 49
4.63628717518199
 49
-2957.102061108973
 53
334.9544
 43
12080.11526332243
 44
804.770014444538
 45
10.9520365279484
 46
-0.0000117218229823
 79
     2
 49
4.63628717518199
 49
-2957.102061108973
 53
334.9544
 43
12080.11526332243
 44
767.8929158424698
 45
10.9520365279484
 46
-0.0000117218229823
 79
     2
 49
4.63628717518199
 49
-2957.102061108973
 53
334.9544
 43
12080.11526332243
 44
731.0158172403944
 45
10.9520365279484
 46
-0.0000117218229823
 79
     2
 49
4.63628717518199
 49
-2957.102061108973
 53
334.9544
 43
12080.11526332243
 44
694.138718638319
 45
10.9520365279484
 46
-0.0000117218229823
 79
     2
 49
4.63628717518199
 49
-2957.102061108973
 53
334.9544
 43
12080.11526332243
 44
657.2616200362508
 45
10.9520365279484
 46
-0.0000117218229823
 79
     2
 49
4.63628717518199
 49
-2957.102061108973
 53
334.9544
 43
12080.11526332243
 44
620.3845214341827
 45
10.9520365279484
 46
-0.0000117218229823
 79
     2
 49
4.63628717518199
 49
-2957.102061108973
 53
334.9544
 43
12080.11526332243
 44
583.5074228321072
 45
10.9520365279484
 46
-0.0000117218229823
 79
     2
 49
4.63628717518199
 49
-2957.102061108973
 53
334.9544
 43
12080.11526332243
 44
546.6303242300354
 45
10.9520365279484
 46
-0.0000117218229823
 79
     2
 49
4.63628717518199
 49
-2957.102061108973
 53
307.5647
 43
12081.42353166226
 44
1793.742732685639
 45
10.95203172566192
 46
-0.0000024731155069
 79
     2
 49
4.503300162712156
 49
-1809.889024393901
 53
307.5647
 43
12081.42353166226
 44
1756.865568524278
 45
10.95203172566192
 46
-0.0000024731155069
 79
     2
 49
4.503300162712156
 49
-1809.889024393901
 53
307.5647
 43
12081.42353166226
 44
1719.988469922206
 45
10.95203172566192
 46
-0.0000024731155069
 79
     2
 49
4.503300162712156
 49
-1809.889024393901
 53
307.5647
 43
12081.42353166226
 44
1683.111371320138
 45
10.95203172566192
 46
-0.0000024731155069
 79
     2
 49
4.503300162712156
 49
-1809.889024393901
 53
307.5647
 43
12081.42353166226
 44
1646.234272718063
 45
10.95203172566192
 46
-0.0000024731155069
 79
     2
 49
4.503300162712156
 49
-1809.889024393901
 53
307.5647
 43
12081.42353166226
 44
1609.357174115987
 45
10.95203172566192
 46
-0.0000024731155069
 79
     2
 49
4.503300162712156
 49
-1809.889024393901
 53
307.5647
 43
12081.42353166226
 44
1572.480075513919
 45
10.95203172566192
 46
-0.0000024731155069
 79
     2
 49
4.503300162712156
 49
-1809.889024393901
 53
307.5647
 43
12081.42353166226
 44
1535.602976911851
 45
10.95203172566192
 46
-0.0000024731155069
 79
     2
 49
4.503300162712156
 49
-1809.889024393901
 53
307.5647
 43
12081.42353166226
 44
1498.725878309776
 45
10.95203172566192
 46
-0.0000024731155069
 79
     2
 49
4.503300162712156
 49
-1809.889024393901
 53
307.5647
 43
12081.42353166226
 44
1461.847796318409
 45
10.95203172566192
 46
-0.0000024731155069
 79
     2
 49
4.503300162712156
 49
-1809.889024393901
 53
307.5647
 43
12081.42353166226
 44
1424.970697716341
 45
10.95203172566192
 46
-0.0000024731155069
 79
     2
 49
4.503300162712156
 49
-1809.889024393901
 53
307.5647
 43
12081.42353166226
 44
1388.093599114266
 45
10.95203172566192
 46
-0.0000024731155069
 79
     2
 49
4.503300162712156
 49
-1809.889024393901
 53
307.5647
 43
12081.42353166226
 44
1351.21650051219
 45
10.95203172566192
 46
-0.0000024731155069
 79
     2
 49
4.503300162712156
 49
-1809.889024393901
 53
307.5647
 43
12081.42353166226
 44
1314.339401910122
 45
10.95203172566192
 46
-0.0000024731155069
 79
     2
 49
4.503300162712156
 49
-1809.889024393901
 53
307.5647
 43
12081.42353166226
 44
1277.462303308054
 45
10.95203172566192
 46
-0.0000024731155069
 79
     2
 49
4.503300162712156
 49
-1809.889024393901
 53
307.5647
 43
12081.42353166226
 44
1240.585204705979
 45
10.95203172566192
 46
-0.0000024731155069
 79
     2
 49
4.503300162712156
 49
-1809.889024393901
 53
307.5647
 43
12081.42353166226
 44
1203.708106103907
 45
10.95203172566192
 46
-0.0000024731155069
 79
     2
 49
4.503300162712156
 49
-1809.889024393901
 53
307.5647
 43
12081.42353166226
 44
1166.831007501835
 45
10.95203172566192
 46
-0.0000024731155069
 79
     2
 49
4.503300162712156
 49
-1809.889024393901
 53
307.5647
 43
12081.42353166226
 44
1129.953908899767
 45
10.95203172566192
 46
-0.0000024731155069
 79
     2
 49
4.503300162712156
 49
-1809.889024393901
 53
307.5647
 43
12081.42353166226
 44
1093.076810297691
 45
10.95203172566192
 46
-0.0000024731155069
 79
     2
 49
4.503300162712156
 49
-1809.889024393901
 53
307.5647
 43
12081.42353166226
 44
1056.199711695623
 45
10.95203172566192
 46
-0.0000024731155069
 79
     2
 49
4.503300162712156
 49
-1809.889024393901
 53
307.5647
 43
12081.42353166226
 44
1019.322613093548
 45
10.95203172566192
 46
-0.0000024731155069
 79
     2
 49
4.503300162712156
 49
-1809.889024393901
 53
307.5647
 43
12081.42353166226
 44
982.44551449148
 45
10.95203172566192
 46
-0.0000024731155069
 79
     2
 49
4.503300162712156
 49
-1809.889024393901
 53
307.5647
 43
12081.42353166226
 44
945.5684158894083
 45
10.95203172566192
 46
-0.0000024731155069
 79
     2
 49
4.503300162712156
 49
-1809.889024393901
 53
307.5647
 43
12081.42353166226
 44
908.6913172873364
 45
10.95203172566192
 46
-0.0000024731155069
 79
     2
 49
4.503300162712156
 49
-1809.889024393901
 53
307.5647
 43
12081.42353166226
 44
871.814218685261
 45
10.95203172566192
 46
-0.0000024731155069
 79
     2
 49
4.503300162712156
 49
-1809.889024393901
 53
307.5647
 43
12081.42353166226
 44
834.9371200831928
 45
10.95203172566192
 46
-0.0000024731155069
 79
     2
 49
4.503300162712156
 49
-1809.889024393901
 53
307.5647
 43
12081.42353166226
 44
798.0600214811247
 45
10.95203172566192
 46
-0.0000024731155069
 79
     2
 49
4.503300162712156
 49
-1809.889024393901
 53
307.5647
 43
12081.42353166226
 44
761.1829228790493
 45
10.95203172566192
 46
-0.0000024731155069
 79
     2
 49
4.503300162712156
 49
-1809.889024393901
 53
307.5647
 43
12081.42353166226
 44
724.3058242769775
 45
10.95203172566192
 46
-0.0000024731155069
 79
     2
 49
4.503300162712156
 49
-1809.889024393901
 53
307.5647
 43
12081.42353166226
 44
687.4287256749057
 45
10.95203172566192
 46
-0.0000024731155069
 79
     2
 49
4.503300162712156
 49
-1809.889024393901
 53
307.5647
 43
12081.42353166226
 44
650.5516270728303
 45
10.95203172566192
 46
-0.0000024731155069
 79
     2
 49
4.503300162712156
 49
-1809.889024393901
 53
307.5647
 43
12081.42353166226
 44
613.6745284707658
 45
10.95203172566192
 46
-0.0000024731155069
 79
     2
 49
4.503300162712156
 49
-1809.889024393901
 53
307.5647
 43
12081.42353166226
 44
576.797429868694
 45
10.95203172566192
 46
-0.0000024731155069
 79
     2
 49
4.503300162712156
 49
-1809.889024393901
 53
307.5647
 43
12081.42353166226
 44
539.9203312666186
 45
10.95203172566192
 46
-0.0000024731155069
 79
     2
 49
4.503300162712156
 49
-1809.889024393901
 53
307.5647
 43
12081.42353166226
 44
503.0432326645504
 45
10.95203172566192
 46
-0.0000024731155069
 79
     2
 49
4.503300162712156
 49
-1809.889024393901
 53
307.5647
 43
12081.42353166226
 44
466.1661340624787
 45
10.95203172566192
 46
-0.0000024731155069
 79
     2
 49
4.503300162712156
 49
-1809.889024393901
 53
307.5647
 43
12081.42353166226
 44
429.2890354604069
 45
10.95203172566192
 46
-0.0000024731155069
 79
     2
 49
4.503300162712156
 49
-1809.889024393901
 53
307.5647
 43
12081.42353166226
 44
392.4119368583351
 45
10.95203172566192
 46
-0.0000024731155069
 79
     2
 49
4.503300162712156
 49
-1809.889024393901
 53
292.9384
 43
12074.37261401972
 44
1782.158898472754
 45
10.95204222721493
 46
-0.0000045639384487
 79
     2
 49
8.386475035331912
 49
-1593.356600854789
 53
292.9384
 43
12074.37261401972
 44
1745.281898209611
 45
10.95204222721493
 46
-0.0000045639384487
 79
     2
 49
8.386475035331912
 49
-1593.356600854789
 53
292.9384
 43
12074.37261401972
 44
1708.404799607536
 45
10.95204222721493
 46
-0.0000045639384487
 79
     2
 49
8.386475035331912
 49
-1593.356600854789
 53
292.9384
 43
12074.37261401972
 44
1671.527701005468
 45
10.95204222721493
 46
-0.0000045639384487
 79
     2
 49
8.386475035331912
 49
-1593.356600854789
 53
292.9384
 43
12074.37261401972
 44
1634.650602403399
 45
10.95204222721493
 46
-0.0000045639384487
 79
     2
 49
8.386475035331912
 49
-1593.356600854789
 53
292.9384
 43
12074.37261401972
 44
1597.773503801324
 45
10.95204222721493
 46
-0.0000045639384487
 79
     2
 49
8.386475035331912
 49
-1593.356600854789
 53
292.9384
 43
12074.37261401972
 44
1560.896405199252
 45
10.95204222721493
 46
-0.0000045639384487
 79
     2
 49
8.386475035331912
 49
-1593.356600854789
 53
292.9384
 43
12074.37261401972
 44
1524.01930659718
 45
10.95204222721493
 46
-0.0000045639384487
 79
     2
 49
8.386475035331912
 49
-1593.356600854789
 53
292.9384
 43
12074.37261401972
 44
1487.142207995112
 45
10.95204222721493
 46
-0.0000045639384487
 79
     2
 49
8.386475035331912
 49
-1593.356600854789
 53
292.9384
 43
12074.37261401972
 44
1450.263470410879
 45
10.95204222721493
 46
-0.0000045639384487
 79
     2
 49
8.386475035331912
 49
-1593.356600854789
 53
292.9384
 43
12074.37261401972
 44
1413.386371808807
 45
10.95204222721493
 46
-0.0000045639384487
 79
     2
 49
8.386475035331912
 49
-1593.356600854789
 53
292.9384
 43
12074.37261401972
 44
1376.509273206732
 45
10.95204222721493
 46
-0.0000045639384487
 79
     2
 49
8.386475035331912
 49
-1593.356600854789
 53
292.9384
 43
12074.37261401972
 44
1339.632174604664
 45
10.95204222721493
 46
-0.0000045639384487
 79
     2
 49
8.386475035331912
 49
-1593.356600854789
 53
292.9384
 43
12074.37261401972
 44
1302.755076002596
 45
10.95204222721493
 46
-0.0000045639384487
 79
     2
 49
8.386475035331912
 49
-1593.356600854789
 53
292.9384
 43
12074.37261401972
 44
1265.877977400521
 45
10.95204222721493
 46
-0.0000045639384487
 79
     2
 49
8.386475035331912
 49
-1593.356600854789
 53
292.9384
 43
12074.37261401972
 44
1229.000878798449
 45
10.95204222721493
 46
-0.0000045639384487
 79
     2
 49
8.386475035331912
 49
-1593.356600854789
 53
292.9384
 43
12074.37261401972
 44
1192.123780196377
 45
10.95204222721493
 46
-0.0000045639384487
 79
     2
 49
8.386475035331912
 49
-1593.356600854789
 53
292.9384
 43
12074.37261401972
 44
1155.246681594305
 45
10.95204222721493
 46
-0.0000045639384487
 79
     2
 49
8.386475035331912
 49
-1593.356600854789
 53
292.9384
 43
12074.37261401972
 44
1118.369582992237
 45
10.95204222721493
 46
-0.0000045639384487
 79
     2
 49
8.386475035331912
 49
-1593.356600854789
 53
292.9384
 43
12074.37261401972
 44
1081.492484390165
 45
10.95204222721493
 46
-0.0000045639384487
 79
     2
 49
8.386475035331912
 49
-1593.356600854789
 53
292.9384
 43
12074.37261401972
 44
1044.61538578809
 45
10.95204222721493
 46
-0.0000045639384487
 79
     2
 49
8.386475035331912
 49
-1593.356600854789
 53
292.9384
 43
12074.37261401972
 44
1007.738287186022
 45
10.95204222721493
 46
-0.0000045639384487
 79
     2
 49
8.386475035331912
 49
-1593.356600854789
 53
292.9384
 43
12074.37261401972
 44
970.86118858395
 45
10.95204222721493
 46
-0.0000045639384487
 79
     2
 49
8.386475035331912
 49
-1593.356600854789
 53
292.9384
 43
12074.37261401972
 44
933.9840899818781
 45
10.95204222721493
 46
-0.0000045639384487
 79
     2
 49
8.386475035331912
 49
-1593.356600854789
 53
292.9384
 43
12074.37261401972
 44
897.1069913798029
 45
10.95204222721493
 46
-0.0000045639384487
 79
     2
 49
8.386475035331912
 49
-1593.356600854789
 53
292.9384
 43
12074.37261401972
 44
860.2298927777347
 45
10.95204222721493
 46
-0.0000045639384487
 79
     2
 49
8.386475035331912
 49
-1593.356600854789
 53
292.9384
 43
12074.37261401972
 44
823.3527941756593
 45
10.95204222721493
 46
-0.0000045639384487
 79
     2
 49
8.386475035331912
 49
-1593.356600854789
 53
292.9384
 43
12074.37261401972
 44
786.4756955735911
 45
10.95204222721493
 46
-0.0000045639384487
 79
     2
 49
8.386475035331912
 49
-1593.356600854789
 53
292.9384
 43
12074.37261401972
 44
749.5985969715157
 45
10.95204222721493
 46
-0.0000045639384487
 79
     2
 49
8.386475035331912
 49
-1593.356600854789
 53
292.9384
 43
12074.37261401972
 44
712.7214983694475
 45
10.95204222721493
 46
-0.0000045639384487
 79
     2
 49
8.386475035331912
 49
-1593.356600854789
 53
292.9384
 43
12074.37261401972
 44
675.8443997673794
 45
10.95204222721493
 46
-0.0000045639384487
 79
     2
 49
8.386475035331912
 49
-1593.356600854789
 53
292.9384
 43
12074.37261401972
 44
638.9673011653039
 45
10.95204222721493
 46
-0.0000045639384487
 79
     2
 49
8.386475035331912
 49
-1593.356600854789
 53
292.9384
 43
12074.37261401972
 44
602.0902025632322
 45
10.95204222721493
 46
-0.0000045639384487
 79
     2
 49
8.386475035331912
 49
-1593.356600854789
 53
292.9384
 43
12074.37261401972
 44
565.2131039611604
 45
10.95204222721493
 46
-0.0000045639384487
 79
     2
 49
8.386475035331912
 49
-1593.356600854789
 53
292.9384
 43
12074.37261401972
 44
528.3360053590886
 45
10.95204222721493
 46
-0.0000045639384487
 79
     2
 49
8.386475035331912
 49
-1593.356600854789
 53
292.9384
 43
12074.37261401972
 44
491.4589067570168
 45
10.95204222721493
 46
-0.0000045639384487
 79
     2
 49
8.386475035331912
 49
-1593.356600854789
 53
292.9384
 43
12074.37261401972
 44
454.5818081549486
 45
10.95204222721493
 46
-0.0000045639384487
 79
     2
 49
8.386475035331912
 49
-1593.356600854789
 53
292.9384
 43
12074.37261401972
 44
417.7047095528768
 45
10.95204222721493
 46
-0.0000045639384487
 79
     2
 49
8.386475035331912
 49
-1593.356600854789
 53
292.9384
 43
12074.37261401972
 44
380.8276109508015
 45
10.95204222721493
 46
-0.0000045639384487
 79
     2
 49
8.386475035331912
 49
-1593.356600854789
 53
292.9384
 43
12074.37261401972
 44
343.9505123487334
 45
10.95204222721493
 46
-0.0000045639384487
 79
     2
 49
8.386475035331912
 49
-1593.356600854789
 53
285.109
 43
12079.16737437997
 44
1767.087080765694
 45
0.0000000992044029
 46
-36.87707611878427
 79
     2
 49
3.638966530766021
 49
-416.5337124354709
 53
285.109
 43
12090.11941374978
 44
1767.087080765694
 45
0.0000000992044029
 46
-36.87707611878427
 79
     2
 49
3.638966530766021
 49
-416.5337124354709
 53
285.109
 43
12101.07145311959
 44
1767.087080765694
 45
0.0000000992044029
 46
-36.87707611878427
 79
     2
 49
3.638966530766021
 49
-416.5337124354709
 53
285.109
 43
12112.02355804868
 44
1767.087080765694
 45
0.0000000992044029
 46
-36.87707611878427
 79
     2
 49
3.638966530766021
 49
-416.5337124354709
 53
285.109
 43
12122.97556463885
 44
1767.087080765694
 45
0.0000000992044029
 46
-36.87707611878427
 79
     2
 49
3.638966530766021
 49
-416.5337124354709
 53
285.109
 43
12133.92757122902
 44
1767.087080765694
 45
0.0000000992044029
 46
-36.87707611878427
 79
     2
 49
3.638966530766021
 49
-416.5337124354709
 53
285.109
 43
12144.87957781918
 44
1767.087080765694
 45
0.0000000992044029
 46
-36.87707611878427
 79
     2
 49
3.638966530766021
 49
-416.5337124354709
 53
285.109
 43
12155.83158440935
 44
1767.087080765694
 45
0.0000000992044029
 46
-36.87707611878427
 79
     2
 49
3.638966530766021
 49
-416.5337124354709
 53
285.109
 43
12166.78359099952
 44
1767.087080765694
 45
0.0000000992044029
 46
-36.87707611878427
 79
     2
 49
3.638966530766021
 49
-416.5337124354709
 53
285.109
 43
12177.73559758968
 44
1767.087080765694
 45
0.0000000992044029
 46
-36.87707611878427
 79
     2
 49
3.638966530766021
 49
-416.5337124354709
 53
276.7473999999999
 43
12077.64076083677
 44
1774.435424500819
 45
0.0000035818718473
 46
-36.87716375543
 79
     2
 49
7.399774995313284
 49
-4560.119085052519
 53
276.7473999999999
 43
12088.59280020658
 44
1774.435424500819
 45
0.0000035818718473
 46
-36.87716375543
 79
     2
 49
7.399774995313284
 49
-4560.119085052519
 53
276.7473999999999
 43
12099.54483957639
 44
1774.435424500819
 45
0.0000035818718473
 46
-36.87716375543
 79
     2
 49
7.399774995313284
 49
-4560.119085052519
 53
276.7473999999999
 43
12110.49701006478
 44
1774.435424500819
 45
0.0000035818718473
 46
-36.87716375543
 79
     2
 49
7.399774995313284
 49
-4560.119085052519
 53
276.7473999999999
 43
12121.44901665494
 44
1774.435424500819
 45
0.0000035818718473
 46
-36.87716375543
 79
     2
 49
7.399774995313284
 49
-4560.119085052519
 53
276.7473999999999
 43
12132.40102324511
 44
1774.435424500819
 45
0.0000035818718473
 46
-36.87716375543
 79
     2
 49
7.399774995313284
 49
-4560.119085052519
 53
276.7473999999999
 43
12143.35302983527
 44
1774.435424500819
 45
0.0000035818718473
 46
-36.87716375543
 79
     2
 49
7.399774995313284
 49
-4560.119085052519
 53
276.7473999999999
 43
12154.30503642544
 44
1774.435424500819
 45
0.0000035818718473
 46
-36.87716375543
 79
     2
 49
7.399774995313284
 49
-4560.119085052519
 53
276.7473999999999
 43
12165.25704301561
 44
1774.435424500819
 45
0.0000035818718473
 46
-36.87716375543
 79
     2
 49
7.399774995313284
 49
-4560.119085052519
 53
276.7473999999999
 43
12176.20904960578
 44
1774.435424500819
 45
0.0000035818718473
 46
-36.87716375543
 79
     2
 49
7.399774995313284
 49
-4560.119085052519
 53
276.7473999999999
 43
12187.16105619594
 44
1774.435424500819
 45
0.0000035818718473
 46
-36.87716375543
 79
     2
 49
7.399774995313284
 49
-4560.119085052519
 53
276.7473999999999
 43
12198.11306278611
 44
1774.435424500819
 45
0.0000035818718473
 46
-36.87716375543
 79
     2
 49
7.399774995313284
 49
-4560.119085052519
 53
276.7473999999999
 43
12209.06506937628
 44
1774.435424500819
 45
0.0000035818718473
 46
-36.87716375543
 79
     2
 49
7.399774995313284
 49
-4560.119085052519
 53
276.7473999999999
 43
12220.01707596644
 44
1774.435424500819
 45
0.0000035818718473
 46
-36.87716375543
 79
     2
 49
7.399774995313284
 49
-4560.119085052519
 53
276.7473999999999
 43
12230.96941035305
 44
1774.435424500819
 45
0.0000035818718473
 46
-36.87716375543
 79
     2
 49
7.399774995313284
 49
-4560.119085052519
 53
276.7473999999999
 43
12241.92141694322
 44
1774.435424500819
 45
0.0000035818718473
 46
-36.87716375543
 79
     2
 49
7.399774995313284
 49
-4560.119085052519
 53
276.7473999999999
 43
12252.87342353337
 44
1774.435424500819
 45
0.0000035818718473
 46
-36.87716375543
 79
     2
 49
7.399774995313284
 49
-4560.119085052519
 53
276.7473999999999
 43
12263.82543012355
 44
1774.435424500819
 45
0.0000035818718473
 46
-36.87716375543
 79
     2
 49
7.399774995313284
 49
-4560.119085052519
 53
276.7473999999999
 43
12274.77743671371
 44
1774.435424500819
 45
0.0000035818718473
 46
-36.87716375543
 79
     2
 49
7.399774995313284
 49
-4560.119085052519
 53
276.7473999999999
 43
12285.72944330388
 44
1774.435424500819
 45
0.0000035818718473
 46
-36.87716375543
 79
     2
 49
7.399774995313284
 49
-4560.119085052519
 53
276.7473999999999
 43
12296.68144989405
 44
1774.435424500819
 45
0.0000035818718473
 46
-36.87716375543
 79
     2
 49
7.399774995313284
 49
-4560.119085052519
 53
276.7473999999999
 43
12307.63345648422
 44
1774.435424500819
 45
0.0000035818718473
 46
-36.87716375543
 79
     2
 49
7.399774995313284
 49
-4560.119085052519
 53
276.7473999999999
 43
12318.58546307438
 44
1774.435424500819
 45
0.0000035818718473
 46
-36.87716375543
 79
     2
 49
7.399774995313284
 49
-4560.119085052519
 53
276.7473999999999
 43
12329.53746966455
 44
1774.435424500819
 45
0.0000035818718473
 46
-36.87716375543
 79
     2
 49
7.399774995313284
 49
-4560.119085052519
 53
276.7473999999999
 43
12340.48980405115
 44
1774.435424500819
 45
0.0000035818718473
 46
-36.87716375543
 79
     2
 49
7.399774995313284
 49
-4560.119085052519
 53
276.7473999999999
 43
12351.44181064131
 44
1774.435424500819
 45
0.0000035818718473
 46
-36.87716375543
 79
     2
 49
7.399774995313284
 49
-4560.119085052519
 53
276.7473999999999
 43
12362.39381723149
 44
1774.435424500819
 45
0.0000035818718473
 46
-36.87716375543
 79
     2
 49
7.399774995313284
 49
-4560.119085052519
 53
276.7473999999999
 43
12373.34582382165
 44
1774.435424500819
 45
0.0000035818718473
 46
-36.87716375543
 79
     2
 49
7.399774995313284
 49
-4560.119085052519
 53
276.7473999999999
 43
12384.29783041182
 44
1774.435424500819
 45
0.0000035818718473
 46
-36.87716375543
 79
     2
 49
7.399774995313284
 49
-4560.119085052519
 53
276.7473999999999
 43
12395.24983700199
 44
1774.435424500819
 45
0.0000035818718473
 46
-36.87716375543
 79
     2
 49
7.399774995313284
 49
-4560.119085052519
 53
276.7473999999999
 43
12406.20151579572
 44
1774.435424500819
 45
0.0000035818718473
 46
-36.87716375543
 79
     2
 49
7.399774995313284
 49
-4560.119085052519
 53
276.7473999999999
 43
12417.15319458946
 44
1774.435424500819
 45
0.0000035818718473
 46
-36.87716375543
 79
     2
 49
7.399774995313284
 49
-4560.119085052519
 53
276.7473999999999
 43
12428.10487338319
 44
1774.435424500819
 45
0.0000035818718473
 46
-36.87716375543
 79
     2
 49
7.399774995313284
 49
-4560.119085052519
 53
276.7473999999999
 43
12439.05655217692
 44
1774.435424500819
 45
0.0000035818718473
 46
-36.87716375543
 79
     2
 49
7.399774995313284
 49
-4560.119085052519
 53
276.7473999999999
 43
12450.01150893498
 44
1774.435424500819
 45
0.0000035818718473
 46
-36.87716375543
 79
     2
 49
7.399774995313284
 49
-4560.119085052519
 53
276.7473999999999
 43
12460.96318772871
 44
1774.435424500819
 45
0.0000035818718473
 46
-36.87716375543
 79
     2
 49
7.399774995313284
 49
-4560.119085052519
 53
276.7473999999999
 43
12471.91486652245
 44
1774.435424500819
 45
0.0000035818718473
 46
-36.87716375543
 79
     2
 49
7.399774995313284
 49
-4560.119085052519
 53
276.7473999999999
 43
12482.86654531619
 44
1774.435424500819
 45
0.0000035818718473
 46
-36.87716375543
 79
     2
 49
7.399774995313284
 49
-4560.119085052519
 53
276.7473999999999
 43
12493.81822410992
 44
1774.435424500819
 45
0.0000035818718473
 46
-36.87716375543
 79
     2
 49
7.399774995313284
 49
-4560.119085052519
 53
276.7473999999999
 43
12504.76990290366
 44
1774.435424500819
 45
0.0000035818718473
 46
-36.87716375543
 79
     2
 49
7.399774995313284
 49
-4560.119085052519
 53
276.7473999999999
 43
12515.72158169739
 44
1774.435424500819
 45
0.0000035818718473
 46
-36.87716375543
 79
     2
 49
7.399774995313284
 49
-4560.119085052519
 53
276.7473999999999
 43
12526.67326049113
 44
1774.435424500819
 45
0.0000035818718473
 46
-36.87716375543
 79
     2
 49
7.399774995313284
 49
-4560.119085052519
 53
276.7473999999999
 43
12537.62493928486
 44
1774.435424500819
 45
0.0000035818718473
 46
-36.87716375543
 79
     2
 49
7.399774995313284
 49
-4560.119085052519
 53
276.7473999999999
 43
12548.57989604291
 44
1774.435424500819
 45
0.0000035818718473
 46
-36.87716375543
 79
     2
 49
7.399774995313284
 49
-4560.119085052519
 53
276.7473999999999
 43
12559.53157483665
 44
1774.435424500819
 45
0.0000035818718473
 46
-36.87716375543
 79
     2
 49
7.399774995313284
 49
-4560.119085052519
 53
276.7473999999999
 43
12570.48325363039
 44
1774.435424500819
 45
0.0000035818718473
 46
-36.87716375543
 79
     2
 49
7.399774995313284
 49
-4560.119085052519
 53
276.7473999999999
 43
12581.43493242412
 44
1774.435424500819
 45
0.0000035818718473
 46
-36.87716375543
 79
     2
 49
7.399774995313284
 49
-4560.119085052519
 53
276.7473999999999
 43
12592.38661121786
 44
1774.435424500819
 45
0.0000035818718473
 46
-36.87716375543
 79
     2
 49
7.399774995313284
 49
-4560.119085052519
 53
276.7473999999999
 43
12603.3382900116
 44
1774.435424500819
 45
0.0000035818718473
 46
-36.87716375543
 79
     2
 49
7.399774995313284
 49
-4560.119085052519
 53
276.1416
 43
12073.51014391049
 44
1790.173160659532
 45
-0.0000356891682921
 46
-36.87700042616381
 79
     2
 49
8.060547042976009
 49
-2551.147945737283
 53
276.1416
 43
12084.46217180743
 44
1790.173160659532
 45
-0.0000356891682921
 46
-36.87700042616381
 79
     2
 49
8.060547042976009
 49
-2551.147945737283
 53
276.1416
 43
12095.41421117724
 44
1790.173160659532
 45
-0.0000356891682921
 46
-36.87700042616381
 79
     2
 49
8.060547042976009
 49
-2551.147945737283
 53
276.1416
 43
12106.36611942848
 44
1790.173160659532
 45
-0.0000356891682921
 46
-36.87700042616381
 79
     2
 49
8.060547042976009
 49
-2551.147945737283
 53
276.1416
 43
12117.31845381508
 44
1790.173160659532
 45
-0.0000356891682921
 46
-36.87700042616381
 79
     2
 49
8.060547042976009
 49
-2551.147945737283
 53
276.1416
 43
12128.27046040524
 44
1790.173160659532
 45
-0.0000356891682921
 46
-36.87700042616381
 79
     2
 49
8.060547042976009
 49
-2551.147945737283
 53
276.1416
 43
12139.22246699541
 44
1790.173160659532
 45
-0.0000356891682921
 46
-36.87700042616381
 79
     2
 49
8.060547042976009
 49
-2551.147945737283
 53
276.1416
 43
12150.17447358558
 44
1790.173160659532
 45
-0.0000356891682921
 46
-36.87700042616381
 79
     2
 49
8.060547042976009
 49
-2551.147945737283
 53
276.1416
 43
12161.12648017574
 44
1790.173160659532
 45
-0.0000356891682921
 46
-36.87700042616381
 79
     2
 49
8.060547042976009
 49
-2551.147945737283
 53
276.1416
 43
12172.07848676592
 44
1790.173160659532
 45
-0.0000356891682921
 46
-36.87700042616381
 79
     2
 49
8.060547042976009
 49
-2551.147945737283
 53
276.1416
 43
12183.03049335608
 44
1790.173160659532
 45
-0.0000356891682921
 46
-36.87700042616381
 79
     2
 49
8.060547042976009
 49
-2551.147945737283
 53
276.1416
 43
12193.98249994625
 44
1790.173160659532
 45
-0.0000356891682921
 46
-36.87700042616381
 79
     2
 49
8.060547042976009
 49
-2551.147945737283
 53
276.1416
 43
12204.93450653642
 44
1790.173160659532
 45
-0.0000356891682921
 46
-36.87700042616381
 79
     2
 49
8.060547042976009
 49
-2551.147945737283
 53
276.1416
 43
12215.88651312657
 44
1790.173160659532
 45
-0.0000356891682921
 46
-36.87700042616381
 79
     2
 49
8.060547042976009
 49
-2551.147945737283
 53
276.1416
 43
12226.83851971675
 44
1790.173160659532
 45
-0.0000356891682921
 46
-36.87700042616381
 79
     2
 49
8.060547042976009
 49
-2551.147945737283
 53
276.1416
 43
12237.79085410334
 44
1790.173160659532
 45
-0.0000356891682921
 46
-36.87700042616381
 79
     2
 49
8.060547042976009
 49
-2551.147945737283
 53
276.1416
 43
12248.74286069352
 44
1790.173160659532
 45
-0.0000356891682921
 46
-36.87700042616381
 79
     2
 49
8.060547042976009
 49
-2551.147945737283
 53
276.1416
 43
12259.69486728368
 44
1790.173160659532
 45
-0.0000356891682921
 46
-36.87700042616381
 79
     2
 49
8.060547042976009
 49
-2551.147945737283
 53
276.1416
 43
12270.64687387384
 44
1790.173160659532
 45
-0.0000356891682921
 46
-36.87700042616381
 79
     2
 49
8.060547042976009
 49
-2551.147945737283
 53
276.1416
 43
12281.59888046402
 44
1790.173160659532
 45
-0.0000356891682921
 46
-36.87700042616381
 79
     2
 49
8.060547042976009
 49
-2551.147945737283
 53
276.1416
 43
12292.55088705418
 44
1790.173160659532
 45
-0.0000356891682921
 46
-36.87700042616381
 79
     2
 49
8.060547042976009
 49
-2551.147945737283
 53
276.1416
 43
12303.50289364435
 44
1790.173160659532
 45
-0.0000356891682921
 46
-36.87700042616381
 79
     2
 49
8.060547042976009
 49
-2551.147945737283
 53
276.1416
 43
12314.45490023451
 44
1790.173160659532
 45
-0.0000356891682921
 46
-36.87700042616381
 79
     2
 49
8.060547042976009
 49
-2551.147945737283
 53
276.1416
 43
12325.40690682469
 44
1790.173160659532
 45
-0.0000356891682921
 46
-36.87700042616381
 79
     2
 49
8.060547042976009
 49
-2551.147945737283
 53
276.1416
 43
12336.35891341485
 44
1790.173160659532
 45
-0.0000356891682921
 46
-36.87700042616381
 79
     2
 49
8.060547042976009
 49
-2551.147945737283
 53
83.85800000000008
 43
12083.30655826599
 44
1782.158898472754
 45
10.9520277214346
 46
-0.0000684758235829
 79
     2
 49
8.060547042975889
 49
-2551.147945737252
 53
83.85800000000008
 43
12083.30655826599
 44
1745.281898209611
 45
10.9520277214346
 46
-0.0000684758235829
 79
     2
 49
8.060547042975889
 49
-2551.147945737252
 53
83.85800000000008
 43
12083.30655826599
 44
1708.404799607536
 45
10.9520277214346
 46
-0.0000684758235829
 79
     2
 49
8.060547042975889
 49
-2551.147945737252
 53
83.85800000000008
 43
12083.30655826599
 44
1671.527701005468
 45
10.9520277214346
 46
-0.0000684758235829
 79
     2
 49
8.060547042975889
 49
-2551.147945737252
 53
83.85800000000008
 43
12083.30655826599
 44
1634.650602403399
 45
10.9520277214346
 46
-0.0000684758235829
 79
     2
 49
8.060547042975889
 49
-2551.147945737252
 53
83.85800000000008
 43
12083.30655826599
 44
1597.773503801324
 45
10.9520277214346
 46
-0.0000684758235829
 79
     2
 49
8.060547042975889
 49
-2551.147945737252
 53
83.85800000000008
 43
12083.30655826599
 44
1560.896405199252
 45
10.9520277214346
 46
-0.0000684758235829
 79
     2
 49
8.060547042975889
 49
-2551.147945737252
 53
83.85800000000008
 43
12083.30655826599
 44
1524.01930659718
 45
10.9520277214346
 46
-0.0000684758235829
 79
     2
 49
8.060547042975889
 49
-2551.147945737252
 53
83.85800000000008
 43
12083.30655826599
 44
1487.142207995112
 45
10.9520277214346
 46
-0.0000684758235829
 79
     2
 49
8.060547042975889
 49
-2551.147945737252
 53
83.85800000000008
 43
12083.30655826599
 44
1450.263470410879
 45
10.9520277214346
 46
-0.0000684758235829
 79
     2
 49
8.060547042975889
 49
-2551.147945737252
 53
83.85800000000008
 43
12083.30655826599
 44
1413.386371808807
 45
10.9520277214346
 46
-0.0000684758235829
 79
     2
 49
8.060547042975889
 49
-2551.147945737252
 53
83.85800000000008
 43
12083.30655826599
 44
1376.509273206732
 45
10.9520277214346
 46
-0.0000684758235829
 79
     2
 49
8.060547042975889
 49
-2551.147945737252
 53
83.85800000000008
 43
12083.30655826599
 44
1339.632174604664
 45
10.9520277214346
 46
-0.0000684758235829
 79
     2
 49
8.060547042975889
 49
-2551.147945737252
 53
83.85800000000008
 43
12083.30655826599
 44
1302.755076002596
 45
10.9520277214346
 46
-0.0000684758235829
 79
     2
 49
8.060547042975889
 49
-2551.147945737252
 53
83.85800000000008
 43
12083.30655826599
 44
1265.877977400521
 45
10.9520277214346
 46
-0.0000684758235829
 79
     2
 49
8.060547042975889
 49
-2551.147945737252
 53
83.85800000000008
 43
12083.30655826599
 44
1229.000878798449
 45
10.9520277214346
 46
-0.0000684758235829
 79
     2
 49
8.060547042975889
 49
-2551.147945737252
 53
83.85800000000008
 43
12083.30655826599
 44
1192.123780196377
 45
10.9520277214346
 46
-0.0000684758235829
 79
     2
 49
8.060547042975889
 49
-2551.147945737252
 53
83.85800000000008
 43
12083.30655826599
 44
1155.246681594305
 45
10.9520277214346
 46
-0.0000684758235829
 79
     2
 49
8.060547042975889
 49
-2551.147945737252
 53
83.85800000000008
 43
12083.30655826599
 44
1118.369582992237
 45
10.9520277214346
 46
-0.0000684758235829
 79
     2
 49
8.060547042975889
 49
-2551.147945737252
 53
83.85800000000008
 43
12083.30655826599
 44
1081.492484390165
 45
10.9520277214346
 46
-0.0000684758235829
 79
     2
 49
8.060547042975889
 49
-2551.147945737252
 53
83.85800000000008
 43
12083.30655826599
 44
1044.61538578809
 45
10.9520277214346
 46
-0.0000684758235829
 79
     2
 49
8.060547042975889
 49
-2551.147945737252
 53
83.85800000000008
 43
12083.30655826599
 44
1007.738287186022
 45
10.9520277214346
 46
-0.0000684758235829
 79
     2
 49
8.060547042975889
 49
-2551.147945737252
 53
83.85800000000008
 43
12083.30655826599
 44
970.86118858395
 45
10.9520277214346
 46
-0.0000684758235829
 79
     2
 49
8.060547042975889
 49
-2551.147945737252
 53
83.85800000000008
 43
12083.30655826599
 44
933.9840899818781
 45
10.9520277214346
 46
-0.0000684758235829
 79
     2
 49
8.060547042975889
 49
-2551.147945737252
 53
83.85800000000008
 43
12083.30655826599
 44
897.1069913798029
 45
10.9520277214346
 46
-0.0000684758235829
 79
     2
 49
8.060547042975889
 49
-2551.147945737252
 53
83.85800000000008
 43
12083.30655826599
 44
860.2298927777347
 45
10.9520277214346
 46
-0.0000684758235829
 79
     2
 49
8.060547042975889
 49
-2551.147945737252
 53
83.85800000000008
 43
12083.30655826599
 44
823.3527941756593
 45
10.9520277214346
 46
-0.0000684758235829
 79
     2
 49
8.060547042975889
 49
-2551.147945737252
 53
83.85800000000008
 43
12083.30655826599
 44
786.4756955735911
 45
10.9520277214346
 46
-0.0000684758235829
 79
     2
 49
8.060547042975889
 49
-2551.147945737252
 53
83.85800000000008
 43
12083.30655826599
 44
749.5985969715157
 45
10.9520277214346
 46
-0.0000684758235829
 79
     2
 49
8.060547042975889
 49
-2551.147945737252
 53
83.85800000000008
 43
12083.30655826599
 44
712.7214983694475
 45
10.9520277214346
 46
-0.0000684758235829
 79
     2
 49
8.060547042975889
 49
-2551.147945737252
 53
83.85800000000008
 43
12083.30655826599
 44
675.8443997673794
 45
10.9520277214346
 46
-0.0000684758235829
 79
     2
 49
8.060547042975889
 49
-2551.147945737252
 53
83.85800000000008
 43
12083.30655826599
 44
638.9673011653039
 45
10.9520277214346
 46
-0.0000684758235829
 79
     2
 49
8.060547042975889
 49
-2551.147945737252
 53
83.85800000000008
 43
12083.30655826599
 44
602.0902025632322
 45
10.9520277214346
 46
-0.0000684758235829
 79
     2
 49
8.060547042975889
 49
-2551.147945737252
 53
83.85800000000008
 43
12083.30655826599
 44
565.2131039611604
 45
10.9520277214346
 46
-0.0000684758235829
 79
     2
 49
8.060547042975889
 49
-2551.147945737252
 53
83.85800000000008
 43
12083.30655826599
 44
528.3360053590886
 45
10.9520277214346
 46
-0.0000684758235829
 79
     2
 49
8.060547042975889
 49
-2551.147945737252
 53
83.85800000000008
 43
12083.30655826599
 44
491.4589067570168
 45
10.9520277214346
 46
-0.0000684758235829
 79
     2
 49
8.060547042975889
 49
-2551.147945737252
 53
83.85800000000008
 43
12083.30655826599
 44
454.5818081549486
 45
10.9520277214346
 46
-0.0000684758235829
 79
     2
 49
8.060547042975889
 49
-2551.147945737252
 53
83.85800000000008
 43
12083.30655826599
 44
417.7047095528768
 45
10.9520277214346
 46
-0.0000684758235829
 79
     2
 49
8.060547042975889
 49
-2551.147945737252
 53
83.85800000000008
 43
12083.30655826599
 44
380.8276109508015
 45
10.9520277214346
 46
-0.0000684758235829
 79
     2
 49
8.060547042975889
 49
-2551.147945737252
 53
83.85800000000008
 43
12083.30655826599
 44
343.9505123487334
 45
10.9520277214346
 46
-0.0000684758235829
 79
     2
 49
8.060547042975889
 49
-2551.147945737252
 53
83.85800000000008
 43
12083.30655826599
 44
307.0734137466616
 45
10.9520277214346
 46
-0.0000684758235829
 79
     2
 49
8.060547042975889
 49
-2551.147945737252
 53
83.85800000000008
 43
12083.30655826599
 44
270.1963151445898
 45
10.9520277214346
 46
-0.0000684758235829
 79
     2
 49
8.060547042975889
 49
-2551.147945737252
 53
83.85800000000008
 43
12083.30655826599
 44
233.3192165425171
 45
10.9520277214346
 46
-0.0000684758235829
 79
     2
 49
8.060547042975889
 49
-2551.147945737252
 53
83.85800000000008
 43
12083.30655826599
 44
196.4421179404453
 45
10.9520277214346
 46
-0.0000684758235829
 79
     2
 49
8.060547042975889
 49
-2551.147945737252
 53
83.85800000000008
 43
12083.30655826599
 44
159.5650193383735
 45
10.9520277214346
 46
-0.0000684758235829
 79
     2
 49
8.060547042975889
 49
-2551.147945737252
 53
83.85800000000008
 43
12083.30655826599
 44
122.6879207363017
 45
10.9520277214346
 46
-0.0000684758235829
 79
     2
 49
8.060547042975889
 49
-2551.147945737252
 53
83.85800000000008
 43
12083.30655826599
 44
85.81082213422996
 45
10.9520277214346
 46
-0.0000684758235829
 79
     2
 49
8.060547042975889
 49
-2551.147945737252
 53
83.85800000000008
 43
12083.30655826599
 44
48.93372353215454
 45
10.9520277214346
 46
-0.0000684758235829
 79
     2
 49
8.060547042975889
 49
-2551.147945737252
 53
83.85800000000008
 43
12083.30655826599
 44
12.05662493009004
 45
10.9520277214346
 46
-0.0000684758235829
 79
     2
 49
8.060547042975889
 49
-2551.147945737252
 53
83.85800000000008
 43
12083.30655826599
 44
-24.82047367198175
 45
10.9520277214346
 46
-0.0000684758235829
 79
     2
 49
8.060547042975889
 49
-2551.147945737252
 53
83.85800000000008
 43
12083.30655826599
 44
-61.69757227405717
 45
10.9520277214346
 46
-0.0000684758235829
 79
     2
 49
8.060547042975889
 49
-2551.147945737252
 53
83.85800000000008
 43
12083.30655826599
 44
-98.57467087612896
 45
10.9520277214346
 46
-0.0000684758235829
 79
     2
 49
8.060547042975889
 49
-2551.147945737252
 53
83.85800000000008
 43
12083.30655826599
 44
-135.4517694782007
 45
10.9520277214346
 46
-0.0000684758235829
 79
     2
 49
8.060547042975889
 49
-2551.147945737252
 53
83.85800000000008
 43
12083.30655826599
 44
-172.3288680802725
 45
10.9520277214346
 46
-0.0000684758235829
 79
     2
 49
8.060547042975889
 49
-2551.147945737252
 53
83.85800000000008
 43
12083.30655826599
 44
-209.2059666823407
 45
10.9520277214346
 46
-0.0000684758235829
 79
     2
 49
8.060547042975889
 49
-2551.147945737252
 53
83.85800000000008
 43
12083.30655826599
 44
-246.0830652844125
 45
10.9520277214346
 46
-0.0000684758235829
 79
     2
 49
8.060547042975889
 49
-2551.147945737252
 53
83.85800000000008
 43
12083.30655826599
 44
-282.9601638864879
 45
10.9520277214346
 46
-0.0000684758235829
 79
     2
 49
8.060547042975889
 49
-2551.147945737252
 53
83.85800000000008
 43
12083.30655826599
 44
-319.837262488556
 45
10.9520277214346
 46
-0.0000684758235829
 79
     2
 49
8.060547042975889
 49
-2551.147945737252
 53
83.85800000000008
 43
12083.30655826599
 44
-356.7143610906278
 45
10.9520277214346
 46
-0.0000684758235829
 79
     2
 49
8.060547042975889
 49
-2551.147945737252
 53
83.85800000000008
 43
12083.30655826599
 44
-393.5914596926996
 45
10.9520277214346
 46
-0.0000684758235829
 79
     2
 49
8.060547042975889
 49
-2551.147945737252
 53
83.85800000000008
 43
12083.30655826599
 44
-430.4685582947713
 45
10.9520277214346
 46
-0.0000684758235829
 79
     2
 49
8.060547042975889
 49
-2551.147945737252
 53
83.85800000000008
 43
12083.30655826599
 44
-467.3456568968431
 45
10.9520277214346
 46
-0.0000684758235829
 79
     2
 49
8.060547042975889
 49
-2551.147945737252
 53
83.85800000000008
 43
12083.30655826599
 44
-504.2227554989149
 45
10.9520277214346
 46
-0.0000684758235829
 79
     2
 49
8.060547042975889
 49
-2551.147945737252
 53
83.85800000000008
 43
12083.30655826599
 44
-541.0998541009867
 45
10.9520277214346
 46
-0.0000684758235829
 79
     2
 49
8.060547042975889
 49
-2551.147945737252
 53
83.85800000000008
 43
12083.30655826599
 44
-577.9769527030585
 45
10.9520277214346
 46
-0.0000684758235829
 79
     2
 49
8.060547042975889
 49
-2551.147945737252
 53
83.85800000000008
 43
12083.30655826599
 44
-614.8540513051338
 45
10.9520277214346
 46
-0.0000684758235829
 79
     2
 49
8.060547042975889
 49
-2551.147945737252
 53
83.85800000000008
 43
12083.30655826599
 44
-651.731149907202
 45
10.9520277214346
 46
-0.0000684758235829
 79
     2
 49
8.060547042975889
 49
-2551.147945737252
 53
83.85800000000008
 43
12083.30655826599
 44
-688.6082485092702
 45
10.9520277214346
 46
-0.0000684758235829
 79
     2
 49
8.060547042975889
 49
-2551.147945737252
 53
83.85800000000008
 43
12083.30655826599
 44
-725.4853471113456
 45
10.9520277214346
 46
-0.0000684758235829
 79
     2
 49
8.060547042975889
 49
-2551.147945737252
 53
83.25300000000003
 43
12079.16737437997
 44
1767.087080765694
 45
10.95204383447483
 46
0.0000798601498432
 79
     2
 49
7.399774995313283
 49
-4560.119085052519
 53
83.25300000000003
 43
12079.16737437997
 44
1730.210146061837
 45
10.95204383447483
 46
0.0000798601498432
 79
     2
 49
7.399774995313283
 49
-4560.119085052519
 53
83.25300000000003
 43
12079.16737437997
 44
1693.333047459765
 45
10.95204383447483
 46
0.0000798601498432
 79
     2
 49
7.399774995313283
 49
-4560.119085052519
 53
83.25300000000003
 43
12079.16737437997
 44
1656.455948857693
 45
10.95204383447483
 46
0.0000798601498432
 79
     2
 49
7.399774995313283
 49
-4560.119085052519
 53
83.25300000000003
 43
12079.16737437997
 44
1619.578850255625
 45
10.95204383447483
 46
0.0000798601498432
 79
     2
 49
7.399774995313283
 49
-4560.119085052519
 53
83.25300000000003
 43
12079.16737437997
 44
1582.701751653553
 45
10.95204383447483
 46
0.0000798601498432
 79
     2
 49
7.399774995313283
 49
-4560.119085052519
 53
83.25300000000003
 43
12079.16737437997
 44
1545.824653051478
 45
10.95204383447483
 46
0.0000798601498432
 79
     2
 49
7.399774995313283
 49
-4560.119085052519
 53
83.25300000000003
 43
12079.16737437997
 44
1508.94755444941
 45
10.95204383447483
 46
0.0000798601498432
 79
     2
 49
7.399774995313283
 49
-4560.119085052519
 53
83.25300000000003
 43
12079.16737437997
 44
1472.070455847334
 45
10.95204383447483
 46
0.0000798601498432
 79
     2
 49
7.399774995313283
 49
-4560.119085052519
 53
83.25300000000003
 43
12079.16737437997
 44
1435.194668430992
 45
10.95204383447483
 46
0.0000798601498432
 79
     2
 49
7.399774995313283
 49
-4560.119085052519
 53
83.25300000000003
 43
12079.16737437997
 44
1398.317569828924
 45
10.95204383447483
 46
0.0000798601498432
 79
     2
 49
7.399774995313283
 49
-4560.119085052519
 53
83.25300000000003
 43
12079.16737437997
 44
1361.440471226849
 45
10.95204383447483
 46
0.0000798601498432
 79
     2
 49
7.399774995313283
 49
-4560.119085052519
 53
83.25300000000003
 43
12079.16737437997
 44
1324.56337262478
 45
10.95204383447483
 46
0.0000798601498432
 79
     2
 49
7.399774995313283
 49
-4560.119085052519
 53
83.25300000000003
 43
12079.16737437997
 44
1287.686274022705
 45
10.95204383447483
 46
0.0000798601498432
 79
     2
 49
7.399774995313283
 49
-4560.119085052519
 53
83.25300000000003
 43
12079.16737437997
 44
1250.80917542063
 45
10.95204383447483
 46
0.0000798601498432
 79
     2
 49
7.399774995313283
 49
-4560.119085052519
 53
83.25300000000003
 43
12079.16737437997
 44
1213.932076818561
 45
10.95204383447483
 46
0.0000798601498432
 79
     2
 49
7.399774995313283
 49
-4560.119085052519
 53
83.25300000000003
 43
12079.16737437997
 44
1177.054978216493
 45
10.95204383447483
 46
0.0000798601498432
 79
     2
 49
7.399774995313283
 49
-4560.119085052519
 53
83.25300000000003
 43
12079.16737437997
 44
1140.177879614418
 45
10.95204383447483
 46
0.0000798601498432
 79
     2
 49
7.399774995313283
 49
-4560.119085052519
 53
83.25300000000003
 43
12079.16737437997
 44
1103.300781012346
 45
10.95204383447483
 46
0.0000798601498432
 79
     2
 49
7.399774995313283
 49
-4560.119085052519
 53
83.25300000000003
 43
12079.16737437997
 44
1066.423682410274
 45
10.95204383447483
 46
0.0000798601498432
 79
     2
 49
7.399774995313283
 49
-4560.119085052519
 53
83.25300000000003
 43
12079.16737437997
 44
1029.546583808206
 45
10.95204383447483
 46
0.0000798601498432
 79
     2
 49
7.399774995313283
 49
-4560.119085052519
 53
83.25300000000003
 43
12079.16737437997
 44
992.6694852061382
 45
10.95204383447483
 46
0.0000798601498432
 79
     2
 49
7.399774995313283
 49
-4560.119085052519
 53
83.25300000000003
 43
12079.16737437997
 44
955.7923866040628
 45
10.95204383447483
 46
0.0000798601498432
 79
     2
 49
7.399774995313283
 49
-4560.119085052519
 53
83.25300000000003
 43
12079.16737437997
 44
918.9152880019873
 45
10.95204383447483
 46
0.0000798601498432
 79
     2
 49
7.399774995313283
 49
-4560.119085052519
 53
83.25300000000003
 43
12079.16737437997
 44
882.0381893999192
 45
10.95204383447483
 46
0.0000798601498432
 79
     2
 49
7.399774995313283
 49
-4560.119085052519
 53
83.25300000000003
 43
12079.16737437997
 44
845.1610907978475
 45
10.95204383447483
 46
0.0000798601498432
 79
     2
 49
7.399774995313283
 49
-4560.119085052519
 53
83.25300000000003
 43
12079.16737437997
 44
808.2839921957756
 45
10.95204383447483
 46
0.0000798601498432
 79
     2
 49
7.399774995313283
 49
-4560.119085052519
 53
83.25300000000003
 43
12079.16737437997
 44
771.4068935937039
 45
10.95204383447483
 46
0.0000798601498432
 79
     2
 49
7.399774995313283
 49
-4560.119085052519
 53
83.25300000000003
 43
12079.16737437997
 44
734.5297949916321
 45
10.95204383447483
 46
0.0000798601498432
 79
     2
 49
7.399774995313283
 49
-4560.119085052519
 53
83.25300000000003
 43
12079.16737437997
 44
697.6526963895603
 45
10.95204383447483
 46
0.0000798601498432
 79
     2
 49
7.399774995313283
 49
-4560.119085052519
 53
83.25300000000003
 43
12079.16737437997
 44
660.7755977874885
 45
10.95204383447483
 46
0.0000798601498432
 79
     2
 49
7.399774995313283
 49
-4560.119085052519
 53
83.25300000000003
 43
12079.16737437997
 44
623.8984991854167
 45
10.95204383447483
 46
0.0000798601498432
 79
     2
 49
7.399774995313283
 49
-4560.119085052519
 53
83.25300000000003
 43
12079.16737437997
 44
587.0214005833449
 45
10.95204383447483
 46
0.0000798601498432
 79
     2
 49
7.399774995313283
 49
-4560.119085052519
 53
83.25300000000003
 43
12079.16737437997
 44
550.1443019812768
 45
10.95204383447483
 46
0.0000798601498432
 79
     2
 49
7.399774995313283
 49
-4560.119085052519
 53
83.25300000000003
 43
12079.16737437997
 44
513.267203379205
 45
10.95204383447483
 46
0.0000798601498432
 79
     2
 49
7.399774995313283
 49
-4560.119085052519
 53
83.25300000000003
 43
12079.16737437997
 44
476.3901047771333
 45
10.95204383447483
 46
0.0000798601498432
 79
     2
 49
7.399774995313283
 49
-4560.119085052519
 53
83.25300000000003
 43
12079.16737437997
 44
439.5130061750578
 45
10.95204383447483
 46
0.0000798601498432
 79
     2
 49
7.399774995313283
 49
-4560.119085052519
 53
83.25300000000003
 43
12079.16737437997
 44
402.6359075729897
 45
10.95204383447483
 46
0.0000798601498432
 79
     2
 49
7.399774995313283
 49
-4560.119085052519
 53
83.25300000000003
 43
12079.16737437997
 44
365.7588089709143
 45
10.95204383447483
 46
0.0000798601498432
 79
     2
 49
7.399774995313283
 49
-4560.119085052519
 53
83.25300000000003
 43
12079.16737437997
 44
328.8817103688462
 45
10.95204383447483
 46
0.0000798601498432
 79
     2
 49
7.399774995313283
 49
-4560.119085052519
 53
83.25300000000003
 43
12079.16737437997
 44
292.0046117667744
 45
10.95204383447483
 46
0.0000798601498432
 79
     2
 49
7.399774995313283
 49
-4560.119085052519
 53
83.25300000000003
 43
12079.16737437997
 44
255.1275131647026
 45
10.95204383447483
 46
0.0000798601498432
 79
     2
 49
7.399774995313283
 49
-4560.119085052519
 53
83.25300000000003
 43
12079.16737437997
 44
218.2504145626299
 45
10.95204383447483
 46
0.0000798601498432
 79
     2
 49
7.399774995313283
 49
-4560.119085052519
 53
83.25300000000003
 43
12079.16737437997
 44
181.3733159605581
 45
10.95204383447483
 46
0.0000798601498432
 79
     2
 49
7.399774995313283
 49
-4560.119085052519
 53
83.25300000000003
 43
12079.16737437997
 44
144.4962173584863
 45
10.95204383447483
 46
0.0000798601498432
 79
     2
 49
7.399774995313283
 49
-4560.119085052519
 53
83.25300000000003
 43
12079.16737437997
 44
107.6191187564145
 45
10.95204383447483
 46
0.0000798601498432
 79
     2
 49
7.399774995313283
 49
-4560.119085052519
 53
83.25300000000003
 43
12079.16737437997
 44
70.74202015434639
 45
10.95204383447483
 46
0.0000798601498432
 79
     2
 49
7.399774995313283
 49
-4560.119085052519
 53
83.25300000000003
 43
12079.16737437997
 44
33.86492155227097
 45
10.95204383447483
 46
0.0000798601498432
 79
     2
 49
7.399774995313283
 49
-4560.119085052519
 53
83.25300000000003
 43
12079.16737437997
 44
-3.012177049800811
 45
10.95204383447483
 46
0.0000798601498432
 79
     2
 49
7.399774995313283
 49
-4560.119085052519
 53
83.25300000000003
 43
12079.16737437997
 44
-39.88927565187259
 45
10.95204383447483
 46
0.0000798601498432
 79
     2
 49
7.399774995313283
 49
-4560.119085052519
 53
83.25300000000003
 43
12079.16737437997
 44
-76.76637425394438
 45
10.95204383447483
 46
0.0000798601498432
 79
     2
 49
7.399774995313283
 49
-4560.119085052519
 53
83.25300000000003
 43
12079.16737437997
 44
-113.6434728560125
 45
10.95204383447483
 46
0.0000798601498432
 79
     2
 49
7.399774995313283
 49
-4560.119085052519
 53
83.25300000000003
 43
12079.16737437997
 44
-150.5205714580843
 45
10.95204383447483
 46
0.0000798601498432
 79
     2
 49
7.399774995313283
 49
-4560.119085052519
 53
83.25300000000003
 43
12079.16737437997
 44
-187.3976700601561
 45
10.95204383447483
 46
0.0000798601498432
 79
     2
 49
7.399774995313283
 49
-4560.119085052519
 53
83.25300000000003
 43
12079.16737437997
 44
-224.2747686622315
 45
10.95204383447483
 46
0.0000798601498432
 79
     2
 49
7.399774995313283
 49
-4560.119085052519
 53
83.25300000000003
 43
12079.16737437997
 44
-261.1518672642997
 45
10.95204383447483
 46
0.0000798601498432
 79
     2
 49
7.399774995313283
 49
-4560.119085052519
 53
83.25300000000003
 43
12079.16737437997
 44
-298.0289658663751
 45
10.95204383447483
 46
0.0000798601498432
 79
     2
 49
7.399774995313283
 49
-4560.119085052519
 53
83.25300000000003
 43
12079.16737437997
 44
-334.9060644684432
 45
10.95204383447483
 46
0.0000798601498432
 79
     2
 49
7.399774995313283
 49
-4560.119085052519
 53
83.25300000000003
 43
12079.16737437997
 44
-371.783163070515
 45
10.95204383447483
 46
0.0000798601498432
 79
     2
 49
7.399774995313283
 49
-4560.119085052519
 53
83.25300000000003
 43
12079.16737437997
 44
-408.6602616725867
 45
10.95204383447483
 46
0.0000798601498432
 79
     2
 49
7.399774995313283
 49
-4560.119085052519
 53
83.25300000000003
 43
12079.16737437997
 44
-445.5373602746585
 45
10.95204383447483
 46
0.0000798601498432
 79
     2
 49
7.399774995313283
 49
-4560.119085052519
 53
83.25300000000003
 43
12079.16737437997
 44
-482.4144588767303
 45
10.95204383447483
 46
0.0000798601498432
 79
     2
 49
7.399774995313283
 49
-4560.119085052519
 53
83.25300000000003
 43
12079.16737437997
 44
-519.2915574788021
 45
10.95204383447483
 46
0.0000798601498432
 79
     2
 49
7.399774995313283
 49
-4560.119085052519
 53
83.25300000000003
 43
12079.16737437997
 44
-556.1686560808738
 45
10.95204383447483
 46
0.0000798601498432
 79
     2
 49
7.399774995313283
 49
-4560.119085052519
 53
83.25300000000003
 43
12079.16737437997
 44
-593.0457546829456
 45
10.95204383447483
 46
0.0000798601498432
 79
     2
 49
7.399774995313283
 49
-4560.119085052519
 53
83.25300000000003
 43
12079.16737437997
 44
-629.9228532850138
 45
10.95204383447483
 46
0.0000798601498432
 79
     2
 49
7.399774995313283
 49
-4560.119085052519
 53
83.25300000000003
 43
12079.16737437997
 44
-666.7999518870892
 45
10.95204383447483
 46
0.0000798601498432
 79
     2
 49
7.399774995313283
 49
-4560.119085052519
 53
83.25300000000003
 43
12079.16737437997
 44
-703.677050489161
 45
10.95204383447483
 46
0.0000798601498432
 79
     2
 49
7.399774995313283
 49
-4560.119085052519
 53
83.25300000000003
 43
12079.16737437997
 44
-740.5541490912328
 45
10.95204383447483
 46
0.0000798601498432
 79
     2
 49
7.399774995313283
 49
-4560.119085052519
 53
83.25300000000003
 43
12079.16737437997
 44
-777.4312476933009
 45
10.95204383447483
 46
0.0000798601498432
 79
     2
 49
7.399774995313283
 49
-4560.119085052519
 53
83.25300000000003
 43
12079.16737437997
 44
-814.3083462953727
 45
10.95204383447483
 46
0.0000798601498432
 79
     2
 49
7.399774995313283
 49
-4560.119085052519
 53
83.25300000000003
 43
12079.16737437997
 44
-851.1854448974444
 45
10.95204383447483
 46
0.0000798601498432
 79
     2
 49
7.399774995313283
 49
-4560.119085052519
 53
83.25300000000003
 43
12079.16737437997
 44
-888.0625434995199
 45
10.95204383447483
 46
0.0000798601498432
 79
     2
 49
7.399774995313283
 49
-4560.119085052519
 53
83.25300000000003
 43
12079.16737437997
 44
-924.939642101588
 45
10.95204383447483
 46
0.0000798601498432
 79
     2
 49
7.399774995313283
 49
-4560.119085052519
 53
83.25300000000003
 43
12079.16737437997
 44
-961.8167407036562
 45
10.95204383447483
 46
0.0000798601498432
 79
     2
 49
7.399774995313283
 49
-4560.119085052519
 53
83.25300000000003
 43
12079.16737437997
 44
-998.6938393057316
 45
10.95204383447483
 46
0.0000798601498432
 79
     2
 49
7.399774995313283
 49
-4560.119085052519
 53
83.25300000000003
 43
12079.16737437997
 44
-1035.570937907803
 45
10.95204383447483
 46
0.0000798601498432
 79
     2
 49
7.399774995313283
 49
-4560.119085052519
 53
83.25300000000003
 43
12079.16737437997
 44
-1072.448036509875
 45
10.95204383447483
 46
0.0000798601498432
 79
     2
 49
7.399774995313283
 49
-4560.119085052519
 53
83.25300000000003
 43
12079.16737437997
 44
-1109.325135111947
 45
10.95204383447483
 46
0.0000798601498432
 79
     2
 49
7.399774995313283
 49
-4560.119085052519
 53
83.25300000000003
 43
12079.16737437997
 44
-1146.202233714019
 45
10.95204383447483
 46
0.0000798601498432
 79
     2
 49
7.399774995313283
 49
-4560.119085052519
 53
83.25300000000003
 43
12079.16737437997
 44
-1183.07933231609
 45
10.95204383447483
 46
0.0000798601498432
 79
     2
 49
7.399774995313283
 49
-4560.119085052519
 53
83.25300000000003
 43
12079.16737437997
 44
-1219.956430918162
 45
10.95204383447483
 46
0.0000798601498432
 79
     2
 49
7.399774995313283
 49
-4560.119085052519
 53
83.25300000000003
 43
12079.16737437997
 44
-1256.833529520234
 45
10.95204383447483
 46
0.0000798601498432
 79
     2
 49
7.399774995313283
 49
-4560.119085052519
 53
83.25300000000003
 43
12079.16737437997
 44
-1293.710628122302
 45
10.95204383447483
 46
0.0000798601498432
 79
     2
 49
7.399774995313283
 49
-4560.119085052519
 53
83.25300000000003
 43
12079.16737437997
 44
-1330.587726724378
 45
10.95204383447483
 46
0.0000798601498432
 79
     2
 49
7.399774995313283
 49
-4560.119085052519
 53
83.25300000000003
 43
12079.16737437997
 44
-1367.464825326449
 45
10.95204383447483
 46
0.0000798601498432
 79
     2
 49
7.399774995313283
 49
-4560.119085052519
 53
83.25300000000003
 43
12079.16737437997
 44
-1404.341923928518
 45
10.95204383447483
 46
0.0000798601498432
 79
     2
 49
7.399774995313283
 49
-4560.119085052519
 53
83.25300000000003
 43
12079.16737437997
 44
-1441.219022530589
 45
10.95204383447483
 46
0.0000798601498432
 79
     2
 49
7.399774995313283
 49
-4560.119085052519
 53
83.25300000000003
 43
12079.16737437997
 44
-1478.096121132661
 45
10.95204383447483
 46
0.0000798601498432
 79
     2
 49
7.399774995313283
 49
-4560.119085052519
 53
83.25300000000003
 43
12079.16737437997
 44
-1514.976497699055
 45
10.95204383447483
 46
0.0000798601498432
 79
     2
 49
7.399774995313283
 49
-4560.119085052519
 53
83.25300000000003
 43
12079.16737437997
 44
-1551.853596301127
 45
10.95204383447483
 46
0.0000798601498432
 79
     2
 49
7.399774995313283
 49
-4560.119085052519
 53
83.25300000000003
 43
12079.16737437997
 44
-1588.730694903199
 45
10.95204383447483
 46
0.0000798601498432
 79
     2
 49
7.399774995313283
 49
-4560.119085052519
 53
83.25300000000003
 43
12079.16737437997
 44
-1625.607793505267
 45
10.95204383447483
 46
0.0000798601498432
 79
     2
 49
7.399774995313283
 49
-4560.119085052519
 53
83.25300000000003
 43
12079.16737437997
 44
-1662.484892107339
 45
10.95204383447483
 46
0.0000798601498432
 79
     2
 49
7.399774995313283
 49
-4560.119085052519
 53
83.25300000000003
 43
12079.16737437997
 44
-1699.361990709414
 45
10.95204383447483
 46
0.0000798601498432
 79
     2
 49
7.399774995313283
 49
-4560.119085052519
 53
83.25300000000003
 43
12079.16737437997
 44
-1736.239089311486
 45
10.95204383447483
 46
0.0000798601498432
 79
     2
 49
7.399774995313283
 49
-4560.119085052519
 53
83.25300000000003
 43
12079.16737437997
 44
-1773.116187913558
 45
10.95204383447483
 46
0.0000798601498432
 79
     2
 49
7.399774995313283
 49
-4560.119085052519
 53
83.25300000000003
 43
12079.16737437997
 44
-1809.99328651563
 45
10.95204383447483
 46
0.0000798601498432
 79
     2
 49
7.399774995313283
 49
-4560.119085052519
 53
83.25300000000003
 43
12079.16737437997
 44
-1846.870385117698
 45
10.95204383447483
 46
0.0000798601498432
 79
     2
 49
7.399774995313283
 49
-4560.119085052519
 53
83.25300000000003
 43
12079.16737437997
 44
-1883.747483719769
 45
10.95204383447483
 46
0.0000798601498432
 79
     2
 49
7.399774995313283
 49
-4560.119085052519
 53
83.25300000000003
 43
12079.16737437997
 44
-1920.624582321845
 45
10.95204383447483
 46
0.0000798601498432
 79
     2
 49
7.399774995313283
 49
-4560.119085052519
 53
83.25300000000003
 43
12079.16737437997
 44
-1957.501680923913
 45
10.95204383447483
 46
0.0000798601498432
 79
     2
 49
7.399774995313283
 49
-4560.119085052519
 53
83.25300000000003
 43
12079.16737437997
 44
-1994.378779525985
 45
10.95204383447483
 46
0.0000798601498432
 79
     2
 49
7.399774995313283
 49
-4560.119085052519
 53
83.25300000000003
 43
12079.16737437997
 44
-2031.255878128057
 45
10.95204383447483
 46
0.0000798601498432
 79
     2
 49
7.399774995313283
 49
-4560.119085052519
 53
83.25300000000003
 43
12079.16737437997
 44
-2068.132976730129
 45
10.95204383447483
 46
0.0000798601498432
 79
     2
 49
7.399774995313283
 49
-4560.119085052519
 53
83.25300000000003
 43
12079.16737437997
 44
-2105.0100753322
 45
10.95204383447483
 46
0.0000798601498432
 79
     2
 49
7.399774995313283
 49
-4560.119085052519
 53
83.25300000000003
 43
12079.16737437997
 44
-2141.887173934272
 45
10.95204383447483
 46
0.0000798601498432
 79
     2
 49
7.399774995313283
 49
-4560.119085052519
 53
83.25300000000003
 43
12079.16737437997
 44
-2178.764272536344
 45
10.95204383447483
 46
0.0000798601498432
 79
     2
 49
7.399774995313283
 49
-4560.119085052519
 53
83.25300000000003
 43
12079.16737437997
 44
-2215.641371138416
 45
10.95204383447483
 46
0.0000798601498432
 79
     2
 49
7.399774995313283
 49
-4560.119085052519
 53
83.25300000000003
 43
12079.16737437997
 44
-2252.518469740491
 45
10.95204383447483
 46
0.0000798601498432
 79
     2
 49
7.399774995313283
 49
-4560.119085052519
 53
83.25300000000003
 43
12079.16737437997
 44
-2289.395568342559
 45
10.95204383447483
 46
0.0000798601498432
 79
     2
 49
7.399774995313283
 49
-4560.119085052519
 53
83.25300000000003
 43
12079.16737437997
 44
-2326.272666944631
 45
10.95204383447483
 46
0.0000798601498432
 79
     2
 49
7.399774995313283
 49
-4560.119085052519
 53
83.25300000000003
 43
12079.16737437997
 44
-2363.149765546703
 45
10.95204383447483
 46
0.0000798601498432
 79
     2
 49
7.399774995313283
 49
-4560.119085052519
 53
83.25300000000003
 43
12079.16737437997
 44
-2400.026864148775
 45
10.95204383447483
 46
0.0000798601498432
 79
     2
 49
7.399774995313283
 49
-4560.119085052519
 53
83.25300000000003
 43
12079.16737437997
 44
-2436.903962750847
 45
10.95204383447483
 46
0.0000798601498432
 79
     2
 49
7.399774995313283
 49
-4560.119085052519
 53
83.25300000000003
 43
12079.16737437997
 44
-2473.781061352918
 45
10.95204383447483
 46
0.0000798601498432
 79
     2
 49
7.399774995313283
 49
-4560.119085052519
 53
83.25300000000003
 43
12079.16737437997
 44
-2510.658159954986
 45
10.95204383447483
 46
0.0000798601498432
 79
     2
 49
7.399774995313283
 49
-4560.119085052519
 53
83.25300000000003
 43
12079.16737437997
 44
-2547.535258557058
 45
10.95204383447483
 46
0.0000798601498432
 79
     2
 49
7.399774995313283
 49
-4560.119085052519
 53
83.25300000000003
 43
12079.16737437997
 44
-2584.412357159134
 45
10.95204383447483
 46
0.0000798601498432
 79
     2
 49
7.399774995313283
 49
-4560.119085052519
 53
83.25300000000003
 43
12079.16737437997
 44
-2621.289455761202
 45
10.95204383447483
 46
0.0000798601498432
 79
     2
 49
7.399774995313283
 49
-4560.119085052519
 53
83.25300000000003
 43
12079.16737437997
 44
-2658.166554363273
 45
10.95204383447483
 46
0.0000798601498432
 79
     2
 49
7.399774995313283
 49
-4560.119085052519
 53
83.25300000000003
 43
12079.16737437997
 44
-2695.043652965345
 45
10.95204383447483
 46
0.0000798601498432
 79
     2
 49
7.399774995313283
 49
-4560.119085052519
 53
83.25300000000003
 43
12079.16737437997
 44
-2731.920751567417
 45
10.95204383447483
 46
0.0000798601498432
 79
     2
 49
7.399774995313283
 49
-4560.119085052519
 53
74.89100000000004
 43
12077.5639253531
 44
1763.573594709106
 45
10.95202665113163
 46
-0.000003043705463
 79
     2
 49
3.63896653076602
 49
-416.5337124354707
 53
74.89100000000004
 43
12077.5639253531
 44
1726.696496107031
 45
10.95202665113163
 46
-0.000003043705463
 79
     2
 49
3.63896653076602
 49
-416.5337124354707
 53
74.89100000000004
 43
12077.5639253531
 44
1689.819397504962
 45
10.95202665113163
 46
-0.000003043705463
 79
     2
 49
3.63896653076602
 49
-416.5337124354707
 53
74.89100000000004
 43
12077.5639253531
 44
1652.942298902887
 45
10.95202665113163
 46
-0.000003043705463
 79
     2
 49
3.63896653076602
 49
-416.5337124354707
 53
74.89100000000004
 43
12077.5639253531
 44
1616.065200300815
 45
10.95202665113163
 46
-0.000003043705463
 79
     2
 49
3.63896653076602
 49
-416.5337124354707
 53
74.89100000000004
 43
12077.5639253531
 44
1579.188101698743
 45
10.95202665113163
 46
-0.000003043705463
 79
     2
 49
3.63896653076602
 49
-416.5337124354707
 53
74.89100000000004
 43
12077.5639253531
 44
1542.311003096675
 45
10.95202665113163
 46
-0.000003043705463
 79
     2
 49
3.63896653076602
 49
-416.5337124354707
 53
74.89100000000004
 43
12077.5639253531
 44
1505.4339044946
 45
10.95202665113163
 46
-0.000003043705463
 79
     2
 49
3.63896653076602
 49
-416.5337124354707
 53
74.89100000000004
 43
12077.5639253531
 44
1468.55778928183
 45
10.95202665113163
 46
-0.000003043705463
 79
     2
 49
3.63896653076602
 49
-416.5337124354707
 53
74.89100000000004
 43
12077.5639253531
 44
1431.680690679755
 45
10.95202665113163
 46
-0.000003043705463
 79
     2
 49
3.63896653076602
 49
-416.5337124354707
 53
74.89100000000004
 43
12077.5639253531
 44
1394.803592077683
 45
10.95202665113163
 46
-0.000003043705463
 79
     2
 49
3.63896653076602
 49
-416.5337124354707
 53
67.06200000000002
 43
12080.03842783877
 44
1774.435424500819
 45
10.95204222691618
 46
0.0000810236171289
 79
     2
 49
8.386475035331908
 49
-1593.356600854788
 53
67.06200000000002
 43
12080.03842783877
 44
1737.558358678395
 45
10.95204222691618
 46
0.0000810236171289
 79
     2
 49
8.386475035331908
 49
-1593.356600854788
 53
67.06200000000002
 43
12080.03842783877
 44
1700.681260076323
 45
10.95204222691618
 46
0.0000810236171289
 79
     2
 49
8.386475035331908
 49
-1593.356600854788
 53
67.06200000000002
 43
12080.03842783877
 44
1663.804161474251
 45
10.95204222691618
 46
0.0000810236171289
 79
     2
 49
8.386475035331908
 49
-1593.356600854788
 53
67.06200000000002
 43
12080.03842783877
 44
1626.927062872176
 45
10.95204222691618
 46
0.0000810236171289
 79
     2
 49
8.386475035331908
 49
-1593.356600854788
 53
67.06200000000002
 43
12080.03842783877
 44
1590.049964270108
 45
10.95204222691618
 46
0.0000810236171289
 79
     2
 49
8.386475035331908
 49
-1593.356600854788
 53
67.06200000000002
 43
12080.03842783877
 44
1553.172865668036
 45
10.95204222691618
 46
0.0000810236171289
 79
     2
 49
8.386475035331908
 49
-1593.356600854788
 53
67.06200000000002
 43
12080.03842783877
 44
1516.295767065964
 45
10.95204222691618
 46
0.0000810236171289
 79
     2
 49
8.386475035331908
 49
-1593.356600854788
 53
67.06200000000002
 43
12080.03842783877
 44
1479.418668463896
 45
10.95204222691618
 46
0.0000810236171289
 79
     2
 49
8.386475035331908
 49
-1593.356600854788
 53
67.06200000000002
 43
12080.03842783877
 44
1442.540586472522
 45
10.95204222691618
 46
0.0000810236171289
 79
     2
 49
8.386475035331908
 49
-1593.356600854788
 53
67.06200000000002
 43
12080.03842783877
 44
1405.663487870454
 45
10.95204222691618
 46
0.0000810236171289
 79
     2
 49
8.386475035331908
 49
-1593.356600854788
 53
67.06200000000002
 43
12080.03842783877
 44
1368.786389268379
 45
10.95204222691618
 46
0.0000810236171289
 79
     2
 49
8.386475035331908
 49
-1593.356600854788
 53
67.06200000000002
 43
12080.03842783877
 44
1331.909290666311
 45
10.95204222691618
 46
0.0000810236171289
 79
     2
 49
8.386475035331908
 49
-1593.356600854788
 53
67.06200000000002
 43
12080.03842783877
 44
1295.032192064242
 45
10.95204222691618
 46
0.0000810236171289
 79
     2
 49
8.386475035331908
 49
-1593.356600854788
 53
67.06200000000002
 43
12080.03842783877
 44
1258.155093462167
 45
10.95204222691618
 46
0.0000810236171289
 79
     2
 49
8.386475035331908
 49
-1593.356600854788
 53
67.06200000000002
 43
12080.03842783877
 44
1221.277994860099
 45
10.95204222691618
 46
0.0000810236171289
 79
     2
 49
8.386475035331908
 49
-1593.356600854788
 53
67.06200000000002
 43
12080.03842783877
 44
1184.400896258024
 45
10.95204222691618
 46
0.0000810236171289
 79
     2
 49
8.386475035331908
 49
-1593.356600854788
 53
67.06200000000002
 43
12080.03842783877
 44
1147.523797655948
 45
10.95204222691618
 46
0.0000810236171289
 79
     2
 49
8.386475035331908
 49
-1593.356600854788
 53
67.06200000000002
 43
12080.03842783877
 44
1110.64669905388
 45
10.95204222691618
 46
0.0000810236171289
 79
     2
 49
8.386475035331908
 49
-1593.356600854788
 53
67.06200000000002
 43
12080.03842783877
 44
1073.769600451812
 45
10.95204222691618
 46
0.0000810236171289
 79
     2
 49
8.386475035331908
 49
-1593.356600854788
 53
67.06200000000002
 43
12080.03842783877
 44
1036.892501849736
 45
10.95204222691618
 46
0.0000810236171289
 79
     2
 49
8.386475035331908
 49
-1593.356600854788
 53
67.06200000000002
 43
12080.03842783877
 44
1000.015403247665
 45
10.95204222691618
 46
0.0000810236171289
 79
     2
 49
8.386475035331908
 49
-1593.356600854788
 53
67.06200000000002
 43
12080.03842783877
 44
963.138304645593
 45
10.95204222691618
 46
0.0000810236171289
 79
     2
 49
8.386475035331908
 49
-1593.356600854788
 53
67.06200000000002
 43
12080.03842783877
 44
926.2612060435213
 45
10.95204222691618
 46
0.0000810236171289
 79
     2
 49
8.386475035331908
 49
-1593.356600854788
 53
67.06200000000002
 43
12080.03842783877
 44
889.3841074414531
 45
10.95204222691618
 46
0.0000810236171289
 79
     2
 49
8.386475035331908
 49
-1593.356600854788
 53
67.06200000000002
 43
12080.03842783877
 44
852.5070088393814
 45
10.95204222691618
 46
0.0000810236171289
 79
     2
 49
8.386475035331908
 49
-1593.356600854788
 53
67.06200000000002
 43
12080.03842783877
 44
815.6299102373059
 45
10.95204222691618
 46
0.0000810236171289
 79
     2
 49
8.386475035331908
 49
-1593.356600854788
 53
67.06200000000002
 43
12080.03842783877
 44
778.7528116352377
 45
10.95204222691618
 46
0.0000810236171289
 79
     2
 49
8.386475035331908
 49
-1593.356600854788
 53
67.06200000000002
 43
12080.03842783877
 44
741.875713033166
 45
10.95204222691618
 46
0.0000810236171289
 79
     2
 49
8.386475035331908
 49
-1593.356600854788
 53
67.06200000000002
 43
12080.03842783877
 44
704.9986144310942
 45
10.95204222691618
 46
0.0000810236171289
 79
     2
 49
8.386475035331908
 49
-1593.356600854788
 53
67.06200000000002
 43
12080.03842783877
 44
668.1215158290187
 45
10.95204222691618
 46
0.0000810236171289
 79
     2
 49
8.386475035331908
 49
-1593.356600854788
 53
67.06200000000002
 43
12080.03842783877
 44
631.2444172269506
 45
10.95204222691618
 46
0.0000810236171289
 79
     2
 49
8.386475035331908
 49
-1593.356600854788
 53
67.06200000000002
 43
12080.03842783877
 44
594.3673186248788
 45
10.95204222691618
 46
0.0000810236171289
 79
     2
 49
8.386475035331908
 49
-1593.356600854788
 53
67.06200000000002
 43
12080.03842783877
 44
557.4902200228071
 45
10.95204222691618
 46
0.0000810236171289
 79
     2
 49
8.386475035331908
 49
-1593.356600854788
 53
67.06200000000002
 43
12080.03842783877
 44
520.6131214207353
 45
10.95204222691618
 46
0.0000810236171289
 79
     2
 49
8.386475035331908
 49
-1593.356600854788
 53
67.06200000000002
 43
12080.03842783877
 44
483.7360228186635
 45
10.95204222691618
 46
0.0000810236171289
 79
     2
 49
8.386475035331908
 49
-1593.356600854788
 53
67.06200000000002
 43
12080.03842783877
 44
446.8589242165917
 45
10.95204222691618
 46
0.0000810236171289
 79
     2
 49
8.386475035331908
 49
-1593.356600854788
 53
67.06200000000002
 43
12080.03842783877
 44
409.9818256145235
 45
10.95204222691618
 46
0.0000810236171289
 79
     2
 49
8.386475035331908
 49
-1593.356600854788
 53
67.06200000000002
 43
12080.03842783877
 44
373.1047270124518
 45
10.95204222691618
 46
0.0000810236171289
 79
     2
 49
8.386475035331908
 49
-1593.356600854788
 53
67.06200000000002
 43
12080.03842783877
 44
336.2276284103764
 45
10.95204222691618
 46
0.0000810236171289
 79
     2
 49
8.386475035331908
 49
-1593.356600854788
 53
52.43499999999998
 43
12073.51014391049
 44
1790.173160659532
 45
10.95203172552474
 46
-0.000054871588512
 79
     2
 49
4.503300162712174
 49
-1809.889024393906
 53
52.43499999999998
 43
12073.51014391049
 44
1753.296193176034
 45
10.95203172552474
 46
-0.000054871588512
 79
     2
 49
4.503300162712174
 49
-1809.889024393906
 53
52.43499999999998
 43
12073.51014391049
 44
1716.419094573958
 45
10.95203172552474
 46
-0.000054871588512
 79
     2
 49
4.503300162712174
 49
-1809.889024393906
 53
52.43499999999998
 43
12073.51014391049
 44
1679.541995971883
 45
10.95203172552474
 46
-0.000054871588512
 79
     2
 49
4.503300162712174
 49
-1809.889024393906
 53
52.43499999999998
 43
12073.51014391049
 44
1642.664897369814
 45
10.95203172552474
 46
-0.000054871588512
 79
     2
 49
4.503300162712174
 49
-1809.889024393906
 53
52.43499999999998
 43
12073.51014391049
 44
1605.787798767746
 45
10.95203172552474
 46
-0.000054871588512
 79
     2
 49
4.503300162712174
 49
-1809.889024393906
 53
52.43499999999998
 43
12073.51014391049
 44
1568.910700165675
 45
10.95203172552474
 46
-0.000054871588512
 79
     2
 49
4.503300162712174
 49
-1809.889024393906
 53
52.43499999999998
 43
12073.51014391049
 44
1532.033601563603
 45
10.95203172552474
 46
-0.000054871588512
 79
     2
 49
4.503300162712174
 49
-1809.889024393906
 53
52.43499999999998
 43
12073.51014391049
 44
1495.156502961527
 45
10.95203172552474
 46
-0.000054871588512
 79
     2
 49
4.503300162712174
 49
-1809.889024393906
 53
52.43499999999998
 43
12073.51014391049
 44
1458.278093173726
 45
10.95203172552474
 46
-0.000054871588512
 79
     2
 49
4.503300162712174
 49
-1809.889024393906
 53
52.43499999999998
 43
12073.51014391049
 44
1421.400994571658
 45
10.95203172552474
 46
-0.000054871588512
 79
     2
 49
4.503300162712174
 49
-1809.889024393906
 53
52.43499999999998
 43
12073.51014391049
 44
1384.52389596959
 45
10.95203172552474
 46
-0.000054871588512
 79
     2
 49
4.503300162712174
 49
-1809.889024393906
 53
52.43499999999998
 43
12073.51014391049
 44
1347.646797367514
 45
10.95203172552474
 46
-0.000054871588512
 79
     2
 49
4.503300162712174
 49
-1809.889024393906
 53
52.43499999999998
 43
12073.51014391049
 44
1310.769698765439
 45
10.95203172552474
 46
-0.000054871588512
 79
     2
 49
4.503300162712174
 49
-1809.889024393906
 53
52.43499999999998
 43
12073.51014391049
 44
1273.892600163371
 45
10.95203172552474
 46
-0.000054871588512
 79
     2
 49
4.503300162712174
 49
-1809.889024393906
 53
52.43499999999998
 43
12073.51014391049
 44
1237.015501561303
 45
10.95203172552474
 46
-0.000054871588512
 79
     2
 49
4.503300162712174
 49
-1809.889024393906
 53
52.43499999999998
 43
12073.51014391049
 44
1200.138402959227
 45
10.95203172552474
 46
-0.000054871588512
 79
     2
 49
4.503300162712174
 49
-1809.889024393906
 53
52.43499999999998
 43
12073.51014391049
 44
1163.261304357159
 45
10.95203172552474
 46
-0.000054871588512
 79
     2
 49
4.503300162712174
 49
-1809.889024393906
 53
52.43499999999998
 43
12073.51014391049
 44
1126.384205755083
 45
10.95203172552474
 46
-0.000054871588512
 79
     2
 49
4.503300162712174
 49
-1809.889024393906
 53
52.43499999999998
 43
12073.51014391049
 44
1089.507107153015
 45
10.95203172552474
 46
-0.000054871588512
 79
     2
 49
4.503300162712174
 49
-1809.889024393906
 53
52.43499999999998
 43
12073.51014391049
 44
1052.630008550947
 45
10.95203172552474
 46
-0.000054871588512
 79
     2
 49
4.503300162712174
 49
-1809.889024393906
 53
52.43499999999998
 43
12073.51014391049
 44
1015.752909948872
 45
10.95203172552474
 46
-0.000054871588512
 79
     2
 49
4.503300162712174
 49
-1809.889024393906
 53
52.43499999999998
 43
12073.51014391049
 44
978.8758113467965
 45
10.95203172552474
 46
-0.000054871588512
 79
     2
 49
4.503300162712174
 49
-1809.889024393906
 53
52.43499999999998
 43
12073.51014391049
 44
941.9987127447283
 45
10.95203172552474
 46
-0.000054871588512
 79
     2
 49
4.503300162712174
 49
-1809.889024393906
 53
52.43499999999998
 43
12073.51014391049
 44
905.1216141426531
 45
10.95203172552474
 46
-0.000054871588512
 79
     2
 49
4.503300162712174
 49
-1809.889024393906
 53
52.43499999999998
 43
12073.51014391049
 44
868.2445155405849
 45
10.95203172552474
 46
-0.000054871588512
 79
     2
 49
4.503300162712174
 49
-1809.889024393906
 53
52.43499999999998
 43
12073.51014391049
 44
831.3674169385095
 45
10.95203172552474
 46
-0.000054871588512
 79
     2
 49
4.503300162712174
 49
-1809.889024393906
 53
52.43499999999998
 43
12073.51014391049
 44
794.4903183364413
 45
10.95203172552474
 46
-0.000054871588512
 79
     2
 49
4.503300162712174
 49
-1809.889024393906
 53
52.43499999999998
 43
12073.51014391049
 44
757.6132197343695
 45
10.95203172552474
 46
-0.000054871588512
 79
     2
 49
4.503300162712174
 49
-1809.889024393906
 53
52.43499999999998
 43
12073.51014391049
 44
720.7361211322977
 45
10.95203172552474
 46
-0.000054871588512
 79
     2
 49
4.503300162712174
 49
-1809.889024393906
 53
52.43499999999998
 43
12073.51014391049
 44
683.8590225302259
 45
10.95203172552474
 46
-0.000054871588512
 79
     2
 49
4.503300162712174
 49
-1809.889024393906
 53
52.43499999999998
 43
12073.51014391049
 44
646.9819239281541
 45
10.95203172552474
 46
-0.000054871588512
 79
     2
 49
4.503300162712174
 49
-1809.889024393906
 53
52.43499999999998
 43
12073.51014391049
 44
610.104825326086
 45
10.95203172552474
 46
-0.000054871588512
 79
     2
 49
4.503300162712174
 49
-1809.889024393906
 53
52.43499999999998
 43
12073.51014391049
 44
573.2277267240106
 45
10.95203172552474
 46
-0.000054871588512
 79
     2
 49
4.503300162712174
 49
-1809.889024393906
 53
52.43499999999998
 43
12073.51014391049
 44
536.3506281219424
 45
10.95203172552474
 46
-0.000054871588512
 79
     2
 49
4.503300162712174
 49
-1809.889024393906
 53
52.43499999999998
 43
12073.51014391049
 44
499.473529519867
 45
10.95203172552474
 46
-0.000054871588512
 79
     2
 49
4.503300162712174
 49
-1809.889024393906
 53
52.43499999999998
 43
12073.51014391049
 44
462.5964309177952
 45
10.95203172552474
 46
-0.000054871588512
 79
     2
 49
4.503300162712174
 49
-1809.889024393906
 53
52.43499999999998
 43
12073.51014391049
 44
425.7193323157235
 45
10.95203172552474
 46
-0.000054871588512
 79
     2
 49
4.503300162712174
 49
-1809.889024393906
 53
52.43499999999998
 43
12073.51014391049
 44
388.8422337136553
 45
10.95203172552474
 46
-0.000054871588512
 79
     2
 49
4.503300162712174
 49
-1809.889024393906
 53
25.04599999999999
 43
12073.36357465286
 44
1761.611077470611
 45
10.95203652759968
 46
0.0000881814618674
 79
     2
 49
4.636287175181983
 49
-2957.102061108969
 53
25.04599999999999
 43
12073.36357465286
 44
1724.733978868539
 45
10.95203652759968
 46
0.0000881814618674
 79
     2
 49
4.636287175181983
 49
-2957.102061108969
 53
25.04599999999999
 43
12073.36357465286
 44
1687.856880266464
 45
10.95203652759968
 46
0.0000881814618674
 79
     2
 49
4.636287175181983
 49
-2957.102061108969
 53
25.04599999999999
 43
12073.36357465286
 44
1650.979781664396
 45
10.95203652759968
 46
0.0000881814618674
 79
     2
 49
4.636287175181983
 49
-2957.102061108969
 53
25.04599999999999
 43
12073.36357465286
 44
1614.10268306232
 45
10.95203652759968
 46
0.0000881814618674
 79
     2
 49
4.636287175181983
 49
-2957.102061108969
 53
25.04599999999999
 43
12073.36357465286
 44
1577.225584460252
 45
10.95203652759968
 46
0.0000881814618674
 79
     2
 49
4.636287175181983
 49
-2957.102061108969
 53
25.04599999999999
 43
12073.36357465286
 44
1540.34848585818
 45
10.95203652759968
 46
0.0000881814618674
 79
     2
 49
4.636287175181983
 49
-2957.102061108969
 53
25.04599999999999
 43
12073.36357465286
 44
1503.471387256109
 45
10.95203652759968
 46
0.0000881814618674
 79
     2
 49
4.636287175181983
 49
-2957.102061108969
 53
25.04599999999999
 43
12073.36357465286
 44
1466.594288654033
 45
10.95203652759968
 46
0.0000881814618674
 79
     2
 49
4.636287175181983
 49
-2957.102061108969
 53
25.04599999999999
 43
12073.36357465286
 44
1429.717190051965
 45
10.95203652759968
 46
0.0000881814618674
 79
     2
 49
4.636287175181983
 49
-2957.102061108969
 53
25.04599999999999
 43
12073.36357465286
 44
1392.84009144989
 45
10.95203652759968
 46
0.0000881814618674
 79
     2
 49
4.636287175181983
 49
-2957.102061108969
 53
25.04599999999999
 43
12073.36357465286
 44
1355.962992847821
 45
10.95203652759968
 46
0.0000881814618674
 79
     2
 49
4.636287175181983
 49
-2957.102061108969
 53
25.04599999999999
 43
12073.36357465286
 44
1319.085894245753
 45
10.95203652759968
 46
0.0000881814618674
 79
     2
 49
4.636287175181983
 49
-2957.102061108969
 53
25.04599999999999
 43
12073.36357465286
 44
1282.208795643678
 45
10.95203652759968
 46
0.0000881814618674
 79
     2
 49
4.636287175181983
 49
-2957.102061108969
 53
25.04599999999999
 43
12073.36357465286
 44
1245.33169704161
 45
10.95203652759968
 46
0.0000881814618674
 79
     2
 49
4.636287175181983
 49
-2957.102061108969
 53
25.04599999999999
 43
12073.36357465286
 44
1208.454598439534
 45
10.95203652759968
 46
0.0000881814618674
 79
     2
 49
4.636287175181983
 49
-2957.102061108969
 53
25.04599999999999
 43
12073.36357465286
 44
1171.577499837459
 45
10.95203652759968
 46
0.0000881814618674
 79
     2
 49
4.636287175181983
 49
-2957.102061108969
 53
25.04599999999999
 43
12073.36357465286
 44
1134.700401235391
 45
10.95203652759968
 46
0.0000881814618674
 79
     2
 49
4.636287175181983
 49
-2957.102061108969
 53
25.04599999999999
 43
12073.36357465286
 44
1097.823302633323
 45
10.95203652759968
 46
0.0000881814618674
 79
     2
 49
4.636287175181983
 49
-2957.102061108969
 53
25.04599999999999
 43
12073.36357465286
 44
1060.946204031247
 45
10.95203652759968
 46
0.0000881814618674
 79
     2
 49
4.636287175181983
 49
-2957.102061108969
 53
25.04599999999999
 43
12073.36357465286
 44
1024.069105429179
 45
10.95203652759968
 46
0.0000881814618674
 79
     2
 49
4.636287175181983
 49
-2957.102061108969
 53
25.04599999999999
 43
12073.36357465286
 44
987.1920068271037
 45
10.95203652759968
 46
0.0000881814618674
 79
     2
 49
4.636287175181983
 49
-2957.102061108969
 53
25.04599999999999
 43
12073.36357465286
 44
950.314908225032
 45
10.95203652759968
 46
0.0000881814618674
 79
     2
 49
4.636287175181983
 49
-2957.102061108969
 53
25.04599999999999
 43
12073.36357465286
 44
913.4378096229639
 45
10.95203652759968
 46
0.0000881814618674
 79
     2
 49
4.636287175181983
 49
-2957.102061108969
 53
25.04599999999999
 43
12073.36357465286
 44
876.560711020892
 45
10.95203652759968
 46
0.0000881814618674
 79
     2
 49
4.636287175181983
 49
-2957.102061108969
 53
25.04599999999999
 43
12073.36357465286
 44
839.6836124188165
 45
10.95203652759968
 46
0.0000881814618674
 79
     2
 49
4.636287175181983
 49
-2957.102061108969
 53
25.04599999999999
 43
12073.36357465286
 44
802.8065138167486
 45
10.95203652759968
 46
0.0000881814618674
 79
     2
 49
4.636287175181983
 49
-2957.102061108969
 53
25.04599999999999
 43
12073.36357465286
 44
765.9294152146767
 45
10.95203652759968
 46
0.0000881814618674
 79
     2
 49
4.636287175181983
 49
-2957.102061108969
 53
25.04599999999999
 43
12073.36357465286
 44
729.052316612605
 45
10.95203652759968
 46
0.0000881814618674
 79
     2
 49
4.636287175181983
 49
-2957.102061108969
 53
25.04599999999999
 43
12073.36357465286
 44
692.1752180105295
 45
10.95203652759968
 46
0.0000881814618674
 79
     2
 49
4.636287175181983
 49
-2957.102061108969
 53
25.04599999999999
 43
12073.36357465286
 44
655.2981194084614
 45
10.95203652759968
 46
0.0000881814618674
 79
     2
 49
4.636287175181983
 49
-2957.102061108969
 53
25.04599999999999
 43
12073.36357465286
 44
618.4210208063896
 45
10.95203652759968
 46
0.0000881814618674
 79
     2
 49
4.636287175181983
 49
-2957.102061108969
 53
25.04599999999999
 43
12073.36357465286
 44
581.5439222043178
 45
10.95203652759968
 46
0.0000881814618674
 79
     2
 49
4.636287175181983
 49
-2957.102061108969
 53
25.04599999999999
 43
12073.36357465286
 44
544.666823602246
 45
10.95203652759968
 46
0.0000881814618674
 79
     2
 49
4.636287175181983
 49
-2957.102061108969
 53
14.07599999999998
 43
12076.25565045734
 44
1793.742732685639
 45
10.95202660951167
 46
-0.0000805056871684
 79
     2
 49
2.663936043727242
 49
-1058.697838380728
 53
14.07599999999998
 43
12076.25565045734
 44
1756.865568524278
 45
10.95202660951167
 46
-0.0000805056871684
 79
     2
 49
2.663936043727242
 49
-1058.697838380728
 53
14.07599999999998
 43
12076.25565045734
 44
1719.988469922206
 45
10.95202660951167
 46
-0.0000805056871684
 79
     2
 49
2.663936043727242
 49
-1058.697838380728
 53
14.07599999999998
 43
12076.25565045734
 44
1683.111371320138
 45
10.95202660951167
 46
-0.0000805056871684
 79
     2
 49
2.663936043727242
 49
-1058.697838380728
 53
14.07599999999998
 43
12076.25565045734
 44
1646.234272718063
 45
10.95202660951167
 46
-0.0000805056871684
 79
     2
 49
2.663936043727242
 49
-1058.697838380728
 53
14.07599999999998
 43
12076.25565045734
 44
1609.357174115987
 45
10.95202660951167
 46
-0.0000805056871684
 79
     2
 49
2.663936043727242
 49
-1058.697838380728
 53
14.07599999999998
 43
12076.25565045734
 44
1572.480075513919
 45
10.95202660951167
 46
-0.0000805056871684
 79
     2
 49
2.663936043727242
 49
-1058.697838380728
 98
        1
 10
1598.098104672005
 20
630.8781142829293
  0
LWPOLYLINE
  5
78A0
330
67
100
AcDbEntity
  8
F_01 sichtbar
370
    13
100
AcDbPolyline
 90
       28
 70
     1
 43
0.0
 10
456.8861513759848
 20
357.1600380130667
 10
453.7585778307338
 20
357.1600376842916
 42
0.3394542588633794
 10
453.6619852559024
 20
357.0859195786479
 10
453.6213202817825
 20
356.9341557653506
 42
-0.3394542588633798
 10
453.5247277069511
 20
356.8600376597069
 10
453.4781931045444
 20
356.8600376548175
 42
-0.3394542588633751
 10
453.3816005141207
 20
356.934155740154
 10
453.340935508103
 20
357.0859195448984
 42
0.3394542588633729
 10
453.2443429176864
 20
357.1600376302349
 10
453.1210756164809
 20
357.1600376172764
 10
452.9978083152754
 20
357.1600376043179
 42
0.3394542588633786
 10
452.901215740444
 20
357.0859194986742
 10
452.8605507663241
 20
356.9341556853806
 42
-0.3394542588633769
 10
452.7639581914927
 20
356.8600375797369
 10
452.7174235890861
 20
356.8600375748438
 42
-0.3394542588633807
 10
452.6208309986623
 20
356.9341556601803
 10
452.5801659926446
 20
357.0859194649247
 42
0.3394542588633759
 10
452.4835734022281
 20
357.1600375502612
 10
449.3559998569699
 20
357.1600372214862
 42
0.6681786379192993
 10
449.1792232065427
 20
356.7332605076054
 10
451.3534991126662
 20
354.5589850586048
 42
-0.3679559611094144
 10
451.8187937402045
 20
354.1077552832439
 10
452.2710758897964
 20
354.5600375279219
 10
453.121075889795
 20
354.5600376172779
 10
453.9710758897935
 20
354.5600377066303
 10
454.3596798275766
 20
354.171433850549
 42
0.4142135623730948
 10
454.501101183815
 20
354.1714338654137
 10
457.0629281161464
 20
356.7332613363515
 42
0.6681786379192982
  0
POLYLINE
  5
78A1
330
67
100
AcDbEntity
  8
F_31 Ansichtsfenster
370
    13
100
AcDb2dPolyline
 66
     1
 10
0.0
 20
0.0
 30
0.0
  0
VERTEX
  5
78A2
330
78A1
100
AcDbEntity
  8
F_31 Ansichtsfenster
370
    13
100
AcDbVertex
100
AcDb2dVertex
 10
665.4634252054538
 20
302.6600358835867
 30
0.0
  0
VERTEX
  5
78A3
330
78A1
100
AcDbEntity
  8
F_31 Ansichtsfenster
370
    13
100
AcDbVertex
100
AcDb2dVertex
 10
665.4634252054538
 20
630.6600360412858
 30
0.0
  0
SEQEND
  5
78A4
330
78A1
100
AcDbEntity
  8
F_31 Ansichtsfenster
370
    13
  0
LWPOLYLINE
  5
78A5
330
67
100
AcDbEntity
  8
F_01 sichtbar
370
    13
100
AcDbPolyline
 90
       10
 70
     1
 43
0.0
 10
446.1210659443977
 20
339.6600354041447
 10
446.1210670572409
 20
358.1600367237452
 10
451.1210670572409
 20
358.1600372493531
 10
451.1210662162711
 20
366.1600372493531
 10
455.1210662162711
 20
366.160037669838
 10
455.1210670572409
 20
358.1600376698379
 10
459.1210670572409
 20
358.1600380903228
 10
459.1220840010582
 20
630.6600360412894
 10
434.1210398295961
 20
630.6600360412894
 10
434.1210685035484
 20
339.6600358835867
  0
LWPOLYLINE
  5
78A6
330
67
100
AcDbEntity
  8
F_01 sichtbar
370
    13
100
AcDbPolyline
 90
        7
 70
     0
 43
0.0
 10
665.4634252054538
 20
317.6600717283045
 10
448.6053187860388
 20
317.6600717283045
 10
448.6053187860388
 20
322.6600717283045
 10
450.2053187860301
 20
354.1600717283045
 10
467.6053187860389
 20
354.1600717283045
 10
467.6053232536951
 20
359.6598236761029
 10
665.4634252054538
 20
359.6598238242013
  0
LWPOLYLINE
  5
78A7
330
67
100
AcDbEntity
  8
F_01 sichtbar
370
    13
100
AcDbPolyline
 90
        4
 70
     1
 43
0.0
 10
446.1210659443977
 20
339.6600358835867
 10
446.1210678222496
 20
317.6600358835867
 10
391.1210678222496
 20
317.6600358835867
 10
391.1210678222496
 20
339.6600358835867
  0
POLYLINE
  5
78A8
330
67
100
AcDbEntity
  8
F_01 sichtbar
370
    13
100
AcDb2dPolyline
 66
     1
 10
0.0
 20
0.0
 30
0.0
  0
VERTEX
  5
78A9
330
78A8
100
AcDbEntity
  8
F_01 sichtbar
370
    13
100
AcDbVertex
100
AcDb2dVertex
 10
446.1210659443977
 20
339.6600354041447
 30
0.0
  0
VERTEX
  5
78AA
330
78A8
100
AcDbEntity
  8
F_01 sichtbar
370
    13
100
AcDbVertex
100
AcDb2dVertex
 10
391.1210677804711
 20
317.6600358835867
 30
0.0
  0
SEQEND
  5
78AB
330
78A8
100
AcDbEntity
  8
F_01 sichtbar
370
    13
  0
POLYLINE
  5
78AC
330
67
100
AcDbEntity
  8
F_01 sichtbar
370
    13
100
AcDb2dPolyline
 66
     1
 10
0.0
 20
0.0
 30
0.0
  0
VERTEX
  5
78AD
330
78AC
100
AcDbEntity
  8
F_01 sichtbar
370
    13
100
AcDbVertex
100
AcDb2dVertex
 10
391.1210678222496
 20
339.6600358835867
 30
0.0
  0
VERTEX
  5
78AE
330
78AC
100
AcDbEntity
  8
F_01 sichtbar
370
    13
100
AcDbVertex
100
AcDb2dVertex
 10
446.1210678222496
 20
317.6600358835867
 30
0.0
  0
SEQEND
  5
78AF
330
78AC
100
AcDbEntity
  8
F_01 sichtbar
370
    13
  0
LWPOLYLINE
  5
78B0
330
67
100
AcDbEntity
  8
F_01 sichtbar
370
    13
100
AcDbPolyline
 90
        6
 70
     1
 43
0.0
 10
446.1210677804711
 20
317.6600358835867
 10
446.1210677804711
 20
302.6600358835867
 10
444.121067780471
 20
302.6600358835867
 10
444.121067780471
 20
315.6600358835867
 10
431.1210677804711
 20
315.6600358835867
 10
431.1210677804711
 20
317.6600358835867
  0
LWPOLYLINE
  5
78B1
330
67
100
AcDbEntity
  8
F_01 sichtbar
370
    13
100
AcDbPolyline
 90
        6
 70
     1
 43
0.0
 10
448.6053187860388
 20
317.6600358835867
 10
448.6053187860388
 20
302.6600358835867
 10
450.6053187860389
 20
302.6600358835867
 10
450.6053187860389
 20
315.6600358835867
 10
463.6053187860389
 20
315.6600358835867
 10
463.6053187860389
 20
317.6600358835867
  0
POLYLINE
  5
78B2
330
67
100
AcDbEntity
  8
F_01 sichtbar
370
    13
100
AcDb2dPolyline
 66
     1
 10
0.0
 20
0.0
 30
0.0
  0
VERTEX
  5
78B3
330
78B2
100
AcDbEntity
  8
F_01 sichtbar
370
    13
100
AcDbVertex
100
AcDb2dVertex
 10
267.1774279990213
 20
317.6600358835867
 30
0.0
  0
VERTEX
  5
78B4
330
78B2
100
AcDbEntity
  8
F_01 sichtbar
370
    13
100
AcDbVertex
100
AcDb2dVertex
 10
431.1210677804711
 20
317.6600358835867
 30
0.0
  0
VERTEX
  5
78B5
330
78B2
100
AcDbEntity
  8
F_01 sichtbar
370
    13
100
AcDbVertex
100
AcDb2dVertex
 10
431.1210677804711
 20
315.6600358835867
 30
0.0
  0
VERTEX
  5
78B6
330
78B2
100
AcDbEntity
  8
F_01 sichtbar
370
    13
100
AcDbVertex
100
AcDb2dVertex
 10
444.121067780471
 20
315.6600358835867
 30
0.0
  0
VERTEX
  5
78B7
330
78B2
100
AcDbEntity
  8
F_01 sichtbar
370
    13
100
AcDbVertex
100
AcDb2dVertex
 10
444.121067780471
 20
302.6600358835867
 30
0.0
  0
VERTEX
  5
78B8
330
78B2
100
AcDbEntity
  8
F_01 sichtbar
370
    13
100
AcDbVertex
100
AcDb2dVertex
 10
267.1774279990213
 20
302.6600358835867
 30
0.0
  0
SEQEND
  5
78B9
330
78B2
100
AcDbEntity
  8
F_01 sichtbar
370
    13
  0
POLYLINE
  5
78BA
330
67
100
AcDbEntity
  8
F_01 sichtbar
370
    13
100
AcDb2dPolyline
 66
     1
 10
0.0
 20
0.0
 30
0.0
  0
VERTEX
  5
78BB
330
78BA
100
AcDbEntity
  8
F_01 sichtbar
370
    13
100
AcDbVertex
100
AcDb2dVertex
 10
665.4634252054538
 20
302.6600358835867
 30
0.0
  0
VERTEX
  5
78BC
330
78BA
100
AcDbEntity
  8
F_01 sichtbar
370
    13
100
AcDbVertex
100
AcDb2dVertex
 10
450.6053187860389
 20
302.6600358835867
 30
0.0
  0
VERTEX
  5
78BD
330
78BA
100
AcDbEntity
  8
F_01 sichtbar
370
    13
100
AcDbVertex
100
AcDb2dVertex
 10
450.6053187860389
 20
315.6600358835867
 30
0.0
  0
VERTEX
  5
78BE
330
78BA
100
AcDbEntity
  8
F_01 sichtbar
370
    13
100
AcDbVertex
100
AcDb2dVertex
 10
463.6053187860389
 20
315.6600358835867
 30
0.0
  0
VERTEX
  5
78BF
330
78BA
100
AcDbEntity
  8
F_01 sichtbar
370
    13
100
AcDbVertex
100
AcDb2dVertex
 10
463.6053187860389
 20
317.6600358835867
 30
0.0
  0
VERTEX
  5
78C0
330
78BA
100
AcDbEntity
  8
F_01 sichtbar
370
    13
100
AcDbVertex
100
AcDb2dVertex
 10
665.4634252054538
 20
317.6600358835831
 30
0.0
  0
SEQEND
  5
78C1
330
78BA
100
AcDbEntity
  8
F_01 sichtbar
370
    13
  0
LINE
  5
78C2
330
67
100
AcDbEntity
  8
F_01 sichtbar
370
    13
100
AcDbLine
 10
665.4634252054538
 20
305.1600358835867
 30
0.0
 11
450.6053187860389
 21
305.1600358835867
 31
0.0
  0
LINE
  5
78C3
330
67
100
AcDbEntity
  8
F_01 sichtbar
370
    13
100
AcDbLine
 10
444.121067780471
 20
305.1600358835867
 30
0.0
 11
267.1774279990213
 21
305.1600358835867
 31
0.0
  0
MTEXT
  5
78C4
330
67
100
AcDbEntity
  8
F_01 sichtbar
370
    13
100
AcDbMText
 10
415.2642695032272
 20
250.639678176195
 30
0.0
 40
15.0
 41
108.4947364348918
 71
     1
 72
     5
  1
\A1;{\fArial Narrow|b0|i0|c0|p34;Alu-Winkelrahmen}
 73
     1
 44
1.0
  0
LINE
  5
78C5
330
67
100
AcDbEntity
  8
F_01 sichtbar
370
    13
100
AcDbLine
 10
445.121067780471
 20
287.6600358835867
 30
0.0
 11
445.121067780471
 21
254.3371407017339
 31
0.0
  0
SOLID
  5
78C6
330
67
100
AcDbEntity
  8
F_01 sichtbar
370
    13
100
AcDbTrace
 10
442.6210677804711
 20
287.6600358835867
 30
0.0
 11
447.6210677804711
 21
287.6600358835867
 31
0.0
 12
445.121067780471
 22
302.6600358835867
 32
0.0
 13
445.121067780471
 23
302.6600358835867
 33
0.0
  0
LINE
  5
78C7
330
67
100
AcDbEntity
  8
F_01 sichtbar
370
    13
100
AcDbLine
 10
544.7535336006121
 20
287.6600358835867
 30
0.0
 11
544.7535336006121
 21
254.3371407017339
 31
0.0
  0
SOLID
  5
78C8
330
67
100
AcDbEntity
  8
F_01 sichtbar
370
    13
100
AcDbTrace
 10
542.2535336006121
 20
287.6600358835867
 30
0.0
 11
547.2535336006122
 21
287.6600358835867
 31
0.0
 12
544.7535336006121
 22
302.6600358835867
 32
0.0
 13
544.7535336006121
 23
302.6600358835867
 33
0.0
  0
LINE
  5
78C9
330
67
100
AcDbEntity
  8
F_01 sichtbar
370
    13
100
AcDbLine
 10
544.7535336006121
 20
332.6600717283045
 30
0.0
 11
544.7535336006121
 21
365.9829669101537
 31
0.0
  0
SOLID
  5
78CA
330
67
100
AcDbEntity
  8
F_01 sichtbar
370
    13
100
AcDbTrace
 10
542.2535336006121
 20
332.6600717283045
 30
0.0
 11
547.2535336006122
 21
332.6600717283045
 31
0.0
 12
544.7535336006121
 22
317.6600717283045
 32
0.0
 13
544.7535336006121
 23
317.6600717283045
 33
0.0
  0
TEXT
  5
78CB
330
67
100
AcDbEntity
  8
F_01 sichtbar
370
    13
100
AcDbText
 10
539.7535336006122
 20
266.1121573613755
 30
0.0
 40
15.0
  1
Z
 50
90.0
  7
Arial
100
AcDbText
  0
LINE
  5
78CC
330
67
100
AcDbEntity
  8
F_01 sichtbar
370
    13
100
AcDbLine
 10
378.8924820134207
 20
623.1600360412858
 30
0.0
 11
378.8924820134207
 21
310.1600358835831
 31
0.0
  0
SOLID
  5
78CD
330
67
100
AcDbEntity
  8
F_01 sichtbar
370
    13
100
AcDbTrace
 10
376.3924820134207
 20
317.6600358835831
 30
0.0
 11
381.3924820134207
 21
317.6600358835831
 31
0.0
 12
378.8924820134207
 22
302.6600358835831
 32
0.0
 13
378.8924820134207
 23
302.6600358835831
 33
0.0
  0
SOLID
  5
78CE
330
67
100
AcDbEntity
  8
F_01 sichtbar
370
    13
100
AcDbTrace
 10
376.3924820134207
 20
615.6600360412858
 30
0.0
 11
381.3924820134207
 21
615.6600360412858
 31
0.0
 12
378.8924820134207
 22
630.6600360412858
 32
0.0
 13
378.8924820134207
 23
630.6600360412858
 33
0.0
  0
TEXT
  5
78CF
330
67
100
AcDbEntity
  8
F_01 sichtbar
370
    13
100
AcDbText
 10
373.8924820134207
 20
227.3930229864563
 30
0.0
 40
15.0
  1
RH
 50
90.0
  7
Arial
100
AcDbText
  0
LINE
  5
78D0
330
67
100
AcDbEntity
  8
F_01 sichtbar
370
    13
100
AcDbLine
 10
329.8039997461101
 20
623.1600360412858
 30
0.0
 11
329.8039997461101
 21
108.5720196177644
 31
0.0
  0
SOLID
  5
78D1
330
67
100
AcDbEntity
  8
F_01 sichtbar
370
    13
100
AcDbTrace
 10
327.3039997461101
 20
615.6600360412858
 30
0.0
 11
332.3039997461101
 21
615.6600360412858
 31
0.0
 12
329.8039997461101
 22
630.6600360412858
 32
0.0
 13
329.8039997461101
 23
630.6600360412858
 33
0.0
  0
LINE
  5
78D2
330
67
100
AcDbEntity
  8
F_01 sichtbar
370
    13
100
AcDbLine
 10
378.8924820134207
 20
295.1600358835831
 30
0.0
 11
378.8924820134207
 21
108.5720196177644
 31
0.0
  0
TEXT
  5
78D3
330
67
100
AcDbEntity
  8
F_01 sichtbar
370
    13
100
AcDbText
 10
324.420302611049
 20
233.3757153533225
 30
0.0
 40
15.0
  1
C
 50
90.0
  7
Arial
100
AcDbText
  0
SOLID
  5
78D4
330
67
100
AcDbEntity
  8
F_01 sichtbar
370
    13
100
AcDbTrace
 10
376.3924820134207
 20
287.6600358835831
 30
0.0
 11
381.3924820134207
 21
287.6600358835831
 31
0.0
 12
378.8924820134207
 22
302.6600358835831
 32
0.0
 13
378.8924820134207
 23
302.6600358835831
 33
0.0
  0
TEXT
  5
78D5
330
67
100
AcDbEntity
  8
F_01 sichtbar
370
    13
100
AcDbText
 10
373.8924820134207
 20
463.8428462519377
 30
0.0
 40
15.0
  1
D
 50
90.0
  7
Arial
100
AcDbText
  0
HATCH
  5
78D6
330
67
100
AcDbEntity
  8
F_01 sichtbar
370
    13
100
AcDbHatch
 10
0.0
 20
0.0
 30
0.0
210
0.0
220
0.0
230
1.0
  2
HEX
 70
     0
 71
     0
 91
        1
 92
        7
 72
     0
 73
     1
 93
        4
 10
429.1210805628589
 20
630.6600360411766
 10
267.1774279990213
 20
630.6600360411766
 10
267.1774279990213
 20
540.6600360411767
 10
429.1210805628516
 20
540.6600360411767
 97
        0
 75
     0
 76
     1
 52
0.0
 41
2.0
 77
     0
 78
     3
 53
0.0
 43
-35206.92857622306
 44
-14093.38835819366
 45
0.0
 46
10.99852
 79
     2
 49
6.349999999999999
 49
-12.7
 53
120.0
 43
-35206.92857622306
 44
-14093.38835819366
 45
-9.524997724031223
 46
-5.499259999999996
 79
     2
 49
6.349999999999994
 49
-12.69999999999999
 53
60.0
 43
-35200.57857622306
 44
-14093.38835819366
 45
-9.524997724031223
 46
5.49926
 79
     2
 49
6.349999999999999
 49
-12.7
 47
0.536036505142345
 98
        1
 10
351.3731612174606
 20
585.0790605691299
1001
ACAD
1010
0.0
1020
0.0
1030
0.0
  0
HATCH
  5
78D7
330
67
100
AcDbEntity
  8
F_01 sichtbar
370
    13
100
AcDbHatch
 10
0.0
 20
0.0
 30
0.0
210
0.0
220
0.0
230
1.0
  2
CROSS
 70
     0
 71
     0
 91
        1
 92
        1
 93
        6
 72
     1
 10
431.1210677804711
 20
317.6600358835867
 11
267.1774279990213
 21
317.6600358835867
 72
     1
 10
267.1774279990213
 20
317.6600358835867
 11
267.1774279990213
 21
305.1600358835885
 72
     1
 10
267.1774279990213
 20
305.1600358835867
 11
444.121067780471
 21
305.1600358835849
 72
     1
 10
444.121067780471
 20
305.1600358835867
 11
444.121067780471
 21
315.6600358835867
 72
     1
 10
444.121067780471
 20
315.6600358835867
 11
431.1210677804711
 21
315.6600358835867
 72
     1
 10
431.1210677804711
 20
315.6600358835867
 11
431.1210677804711
 21
317.6600358835867
 97
        0
 75
     0
 76
     1
 52
0.0
 41
1.0
 77
     0
 78
     2
 53
0.0
 43
-33410.35658181019
 44
-14093.38835819366
 45
6.349999999999999
 46
6.349999999999999
 79
     2
 49
3.174999999999999
 49
-9.525
 53
90.0
 43
-33408.76908181019
 44
-14094.97585819366
 45
-6.349999999999999
 46
6.349999999999999
 79
     2
 49
3.174999999999999
 49
-9.525
 98
        2
 10
343.7531257851306
 20
307.6790385593858
 10
315.8838383018601
 20
307.0530885572198
1001
ACAD
1010
0.0
1020
0.0
1030
0.0
  0
HATCH
  5
78D8
330
67
100
AcDbEntity
  8
F_01 sichtbar
370
    13
100
AcDbHatch
 10
0.0
 20
0.0
 30
0.0
210
0.0
220
0.0
230
1.0
  2
CROSS
 70
     0
 71
     0
 91
        1
 92
        1
 93
        6
 72
     1
 10
463.6053187860316
 20
317.6600358835867
 11
665.4634252054538
 21
317.6600358835849
 72
     1
 10
665.4634252054538
 20
317.6600358835831
 11
665.4634252054538
 21
305.1600358835849
 72
     1
 10
665.4634252054538
 20
305.1600358835867
 11
450.6053187860389
 21
305.1600358835867
 72
     1
 10
450.6053187860389
 20
305.1600358835867
 11
450.6053187860316
 21
315.6600358835867
 72
     1
 10
450.6053187860316
 20
315.6600358835867
 11
463.6053187860316
 21
315.6600358835867
 72
     1
 10
463.6053187860316
 20
315.6600358835867
 11
463.6053187860316
 21
317.6600358835867
 97
        0
 75
     0
 76
     1
 52
0.0
 41
1.0
 77
     0
 78
     2
 53
180.0
 43
34305.0829683767
 44
-14093.38835819366
 45
-6.349999999999999
 46
6.349999999999999
 79
     2
 49
3.174999999999999
 49
-9.525
 53
90.0
 43
34303.4954683767
 44
-14094.97585819366
 45
6.349999999999999
 46
6.349999999999999
 79
     2
 49
3.174999999999999
 49
-9.525
 98
        2
 10
550.9732607813721
 20
307.6790385593858
 10
578.8425482646426
 20
307.0530885572198
1001
ACAD
1010
0.0
1020
0.0
1030
0.0
  0
MTEXT
  5
78D9
330
67
100
AcDbEntity
  8
F_01 sichtbar
370
    13
100
AcDbMText
 10
317.1774279990213
 20
730.6600360412894
 30
0.0
 40
30.0
 41
187.1747820159653
 71
     1
 72
     5
  1
\A1;{\fArial Narrow|b1|i0|c0|p34;D}
 73
     1
 44
1.0
  0
ENDSEC
  0
SECTION
  2
OBJECTS
  0
DICTIONARY
  5
C
330
0
100
AcDbDictionary
281
     1
  3
ACAD_2007HEADERVARS_RT
350
78EA
  3
ACAD_COLOR
350
5E
  3
ACAD_GROUP
350
D
  3
ACAD_LAYOUT
350
5D
  3
ACAD_MATERIAL
350
10
  3
ACAD_MLEADERSTYLE
350
61
  3
ACAD_MLINESTYLE
350
5A
  3
ACAD_PLOTSETTINGS
350
5C
  3
ACAD_PLOTSTYLENAME
350
E
  3
ACAD_SCALELIST
350
3D
  3
ACAD_TABLESTYLE
350
5F
  3
ACAD_VISUALSTYLE
350
29
  3
ACDB_RECOMPOSE_DATA
350
78E9
  3
AcDbVariableDictionary
350
78DE
  3
AEC_PROPERTY_SET_DEFS
350
7876
  0
DICTIONARY
  5
780D
330
2
100
AcDbDictionary
280
     1
281
     1
  3
ACAD_LAYERSTATES
360
780E
  0
DICTIONARY
  5
77F7
330
77F6
100
AcDbDictionary
280
     1
281
     1
  3
ACAD_SORTENTS
360
77F8
  0
DICTIONARY
  5
78EA
102
{ACAD_REACTORS
330
C
102
}
330
C
100
AcDbDictionary
281
     1
  3
DIMJOGANG
350
78EB
  0
DICTIONARY
  5
5E
102
{ACAD_REACTORS
330
C
102
}
330
C
100
AcDbDictionary
281
     1
  0
DICTIONARY
  5
D
102
{ACAD_REACTORS
330
C
102
}
330
C
100
AcDbDictionary
281
     1
  0
DICTIONARY
  5
5D
102
{ACAD_REACTORS
330
C
102
}
330
C
100
AcDbDictionary
281
     1
  3
Layout1
350
66
  3
Layout2
350
6E
  3
Model
350
6A
  0
DICTIONARY
  5
10
102
{ACAD_REACTORS
330
C
102
}
330
C
100
AcDbDictionary
281
     1
  3
ByBlock
350
19
  3
ByLayer
350
11
  3
Global
350
21
  0
DICTIONARY
  5
61
102
{ACAD_REACTORS
330
C
102
}
330
C
100
AcDbDictionary
281
     1
  3
Standard
350
62
  0
DICTIONARY
  5
5A
102
{ACAD_REACTORS
330
C
102
}
330
C
100
AcDbDictionary
281
     1
  3
Standard
350
5B
  0
DICTIONARY
  5
5C
102
{ACAD_REACTORS
330
C
102
}
330
C
100
AcDbDictionary
281
     1
  0
ACDBDICTIONARYWDFLT
  5
E
102
{ACAD_REACTORS
330
C
102
}
330
C
100
AcDbDictionary
281
     1
  3
Normal
350
F
100
AcDbDictionaryWithDefault
340
F
  0
DICTIONARY
  5
3D
102
{ACAD_REACTORS
330
C
102
}
330
C
100
AcDbDictionary
281
     1
  3
A0
350
3E
  3
A1
350
3F
  3
A2
350
40
  3
A3
350
41
  3
A4
350
42
  3
A5
350
43
  3
A6
350
44
  3
A7
350
45
  3
A8
350
46
  3
A9
350
47
  3
B0
350
48
  3
B1
350
49
  3
B2
350
4A
  3
B3
350
4B
  3
B4
350
4C
  3
B5
350
4D
  3
B6
350
4E
  0
DICTIONARY
  5
5F
102
{ACAD_REACTORS
330
C
102
}
330
C
100
AcDbDictionary
281
     1
  3
Standard
350
60
  0
DICTIONARY
  5
29
102
{ACAD_REACTORS
330
C
102
}
330
C
100
AcDbDictionary
281
     1
  3
2dWireframe
350
2F
  3
3D Hidden
350
31
  3
3dWireframe
350
30
  3
Basic
350
2E
  3
Brighten
350
35
  3
ColorChange
350
39
  3
Conceptual
350
32
  3
Dim
350
34
  3
EdgeColorOff
350
3C
  3
Facepattern
350
38
  3
Flat
350
2A
  3
FlatWithEdges
350
2B
  3
Gouraud
350
2C
  3
GouraudWithEdges
350
2D
  3
JitterOff
350
3A
  3
Linepattern
350
37
  3
OverhangOff
350
3B
  3
Realistic
350
33
  3
Thicken
350
36
  0
XRECORD
  5
78E9
102
{ACAD_REACTORS
330
C
102
}
330
C
100
AcDbXrecord
280
     1
 90
        1
330
60
  0
DICTIONARY
  5
78DE
102
{ACAD_REACTORS
330
C
102
}
330
C
100
AcDbDictionary
281
     1
  3
CANNOSCALE
350
78E2
  3
CMLEADERSTYLE
350
78E0
  3
CTABLESTYLE
350
78DF
  3
LAYEREVAL
350
78E4
  3
LAYERNOTIFY
350
78E5
  3
LIGHTINGUNITS
350
78E3
  3
MSLTSCALE
350
78E1
  3
XCLIPFRAME
350
78E6
  0
DICTIONARY
  5
7876
102
{ACAD_REACTORS
330
C
102
}
330
C
100
AcDbDictionary
281
     1
  0
DICTIONARY
  5
780E
102
{ACAD_REACTORS
330
780D
102
}
330
780D
100
AcDbDictionary
281
     1
  0
SORTENTSTABLE
  5
77F8
102
{ACAD_REACTORS
330
77F7
102
}
330
77F7
100
AcDbSortentsTable
330
77F6
  0
XRECORD
  5
78EB
102
{ACAD_REACTORS
330
78EA
102
}
330
78EA
100
AcDbXrecord
280
     1
 40
1.570796326794896
  0
LAYOUT
  5
66
102
{ACAD_REACTORS
330
5D
102
}
330
5D
100
AcDbPlotSettings
  1

  2
HP Deskjet 1280 series
  4

  6

 40
0.0
 41
0.0
 42
0.0
 43
0.0
 44
0.0
 45
0.0
 46
0.0
 47
0.0
 48
0.0
 49
0.0
140
0.0
141
0.0
142
1.0
143
1.0
 70
   688
 72
     0
 73
     0
 74
     5
  7

 75
    16
147
1.0
 76
     0
 77
     2
 78
   300
148
0.0
149
0.0
100
AcDbLayout
  1
Layout1
 70
     1
 71
     1
 10
0.0
 20
0.0
 11
420.0
 21
297.0
 12
0.0
 22
0.0
 32
0.0
 14
1.000000000000000E+20
 24
1.000000000000000E+20
 34
1.000000000000000E+20
 15
-1.000000000000000E+20
 25
-1.000000000000000E+20
 35
-1.000000000000000E+20
146
0.0
 13
0.0
 23
0.0
 33
0.0
 16
1.0
 26
0.0
 36
0.0
 17
0.0
 27
1.0
 37
0.0
 76
     0
330
63
  0
LAYOUT
  5
6E
102
{ACAD_REACTORS
330
5D
102
}
330
5D
100
AcDbPlotSettings
  1

  2
HP Deskjet 1280 series
  4

  6

 40
0.0
 41
0.0
 42
0.0
 43
0.0
 44
0.0
 45
0.0
 46
0.0
 47
0.0
 48
0.0
 49
0.0
140
0.0
141
0.0
142
1.0
143
1.0
 70
   688
 72
     0
 73
     0
 74
     5
  7

 75
    16
147
1.0
 76
     0
 77
     2
 78
   300
148
0.0
149
0.0
100
AcDbLayout
  1
Layout2
 70
     1
 71
     2
 10
0.0
 20
0.0
 11
12.0
 21
9.0
 12
0.0
 22
0.0
 32
0.0
 14
0.0
 24
0.0
 34
0.0
 15
0.0
 25
0.0
 35
0.0
146
0.0
 13
0.0
 23
0.0
 33
0.0
 16
1.0
 26
0.0
 36
0.0
 17
0.0
 27
1.0
 37
0.0
 76
     0
330
6B
  0
LAYOUT
  5
6A
102
{ACAD_REACTORS
330
5D
102
}
330
5D
100
AcDbPlotSettings
  1

  2
HP Deskjet 1280 series
  4

  6

 40
0.0
 41
0.0
 42
0.0
 43
0.0
 44
0.0
 45
0.0
 46
0.0
 47
0.0
 48
0.0
 49
0.0
140
0.0
141
0.0
142
1.0
143
1.0
 70
  1712
 72
     0
 73
     0
 74
     0
  7

 75
     0
147
1.0
 76
     0
 77
     2
 78
   300
148
0.0
149
0.0
100
AcDbLayout
  1
Model
 70
     1
 71
     0
 10
0.0
 20
0.0
 11
12.0
 21
9.0
 12
0.0
 22
0.0
 32
0.0
 14
0.0
 24
0.0
 34
0.0
 15
0.0
 25
0.0
 35
0.0
146
0.0
 13
0.0
 23
0.0
 33
0.0
 16
1.0
 26
0.0
 36
0.0
 17
0.0
 27
1.0
 37
0.0
 76
     0
330
67
331
52
  0
MATERIAL
  5
19
102
{ACAD_XDICTIONARY
360
1A
102
}
102
{ACAD_REACTORS
330
10
102
}
330
10
100
AcDbMaterial
  1
ByBlock
 72
     0
 43
0.0208333333333333
 43
0.0
 43
0.0
 43
0.0
 43
0.0
 43
0.0208333333333333
 43
0.0
 43
0.0
 43
0.0
 43
0.0
 43
1.0
 43
0.0
 43
0.0
 43
0.0
 43
0.0
 43
1.0
 77
     0
 47
0.0208333333333333
 47
0.0
 47
0.0
 47
0.0
 47
0.0
 47
0.0208333333333333
 47
0.0
 47
0.0
 47
0.0
 47
0.0
 47
1.0
 47
0.0
 47
0.0
 47
0.0
 47
0.0
 47
1.0
171
     0
 49
0.0208333333333333
 49
0.0
 49
0.0
 49
0.0
 49
0.0
 49
0.0208333333333333
 49
0.0
 49
0.0
 49
0.0
 49
0.0
 49
1.0
 49
0.0
 49
0.0
 49
0.0
 49
0.0
 49
1.0
175
     0
142
0.0208333333333333
142
0.0
142
0.0
142
0.0
142
0.0
142
0.0208333333333333
142
0.0
142
0.0
142
0.0
142
0.0
142
1.0
142
0.0
142
0.0
142
0.0
142
0.0
142
1.0
179
     0
144
0.0208333333333333
144
0.0
144
0.0
144
0.0
144
0.0
144
0.0208333333333333
144
0.0
144
0.0
144
0.0
144
0.0
144
1.0
144
0.0
144
0.0
144
0.0
144
0.0
144
1.0
147
0.0208333333333333
147
0.0
147
0.0
147
0.0
147
0.0
147
0.0208333333333333
147
0.0
147
0.0
147
0.0
147
0.0
147
1.0
147
0.0
147
0.0
147
0.0
147
0.0
147
1.0
  0
MATERIAL
  5
11
102
{ACAD_XDICTIONARY
360
12
102
}
102
{ACAD_REACTORS
330
10
102
}
330
10
100
AcDbMaterial
  1
ByLayer
 72
     0
 43
0.0208333333333333
 43
0.0
 43
0.0
 43
0.0
 43
0.0
 43
0.0208333333333333
 43
0.0
 43
0.0
 43
0.0
 43
0.0
 43
1.0
 43
0.0
 43
0.0
 43
0.0
 43
0.0
 43
1.0
 77
     0
 47
0.0208333333333333
 47
0.0
 47
0.0
 47
0.0
 47
0.0
 47
0.0208333333333333
 47
0.0
 47
0.0
 47
0.0
 47
0.0
 47
1.0
 47
0.0
 47
0.0
 47
0.0
 47
0.0
 47
1.0
171
     0
 49
0.0208333333333333
 49
0.0
 49
0.0
 49
0.0
 49
0.0
 49
0.0208333333333333
 49
0.0
 49
0.0
 49
0.0
 49
0.0
 49
1.0
 49
0.0
 49
0.0
 49
0.0
 49
0.0
 49
1.0
175
     0
142
0.0208333333333333
142
0.0
142
0.0
142
0.0
142
0.0
142
0.0208333333333333
142
0.0
142
0.0
142
0.0
142
0.0
142
1.0
142
0.0
142
0.0
142
0.0
142
0.0
142
1.0
179
     0
144
0.0208333333333333
144
0.0
144
0.0
144
0.0
144
0.0
144
0.0208333333333333
144
0.0
144
0.0
144
0.0
144
0.0
144
1.0
144
0.0
144
0.0
144
0.0
144
0.0
144
1.0
147
0.0208333333333333
147
0.0
147
0.0
147
0.0
147
0.0
147
0.0208333333333333
147
0.0
147
0.0
147
0.0
147
0.0
147
1.0
147
0.0
147
0.0
147
0.0
147
0.0
147
1.0
  0
MATERIAL
  5
21
102
{ACAD_XDICTIONARY
360
22
102
}
102
{ACAD_REACTORS
330
10
102
}
330
10
100
AcDbMaterial
  1
Global
 72
     0
 43
0.0208333333333333
 43
0.0
 43
0.0
 43
0.0
 43
0.0
 43
0.0208333333333333
 43
0.0
 43
0.0
 43
0.0
 43
0.0
 43
1.0
 43
0.0
 43
0.0
 43
0.0
 43
0.0
 43
1.0
 77
     0
 47
0.0208333333333333
 47
0.0
 47
0.0
 47
0.0
 47
0.0
 47
0.0208333333333333
 47
0.0
 47
0.0
 47
0.0
 47
0.0
 47
1.0
 47
0.0
 47
0.0
 47
0.0
 47
0.0
 47
1.0
171
     0
 49
0.0208333333333333
 49
0.0
 49
0.0
 49
0.0
 49
0.0
 49
0.0208333333333333
 49
0.0
 49
0.0
 49
0.0
 49
0.0
 49
1.0
 49
0.0
 49
0.0
 49
0.0
 49
0.0
 49
1.0
175
     0
142
0.0208333333333333
142
0.0
142
0.0
142
0.0
142
0.0
142
0.0208333333333333
142
0.0
142
0.0
142
0.0
142
0.0
142
1.0
142
0.0
142
0.0
142
0.0
142
0.0
142
1.0
179
     0
144
0.0208333333333333
144
0.0
144
0.0
144
0.0
144
0.0
144
0.0208333333333333
144
0.0
144
0.0
144
0.0
144
0.0
144
1.0
144
0.0
144
0.0
144
0.0
144
0.0
144
1.0
147
0.0208333333333333
147
0.0
147
0.0
147
0.0
147
0.0
147
0.0208333333333333
147
0.0
147
0.0
147
0.0
147
0.0
147
1.0
147
0.0
147
0.0
147
0.0
147
0.0
147
1.0
  0
MLEADERSTYLE
  5
62
102
{ACAD_REACTORS
330
61
102
}
330
61
100
AcDbMLeaderStyle
170
     2
171
     1
172
     0
 90
        2
 40
0.0
 41
0.0
173
     1
 91
-1056964608
340
56
 92
       -2
290
     1
 42
0.09
291
     1
 43
0.36
  3
Standard
 44
0.18
300

342
50
174
     1
178
     6
175
     1
176
     0
 93
-1056964608
 45
0.18
292
     0
297
     0
 46
0.18
 94
-1056964608
 47
1.0
 49
1.0
140
1.0
293
     1
141
0.0
294
     1
177
     0
142
1.0
295
     0
296
     0
143
0.125
1001
ACAD_MLEADERVER
1070
     2
  0
MLINESTYLE
  5
5B
102
{ACAD_REACTORS
330
5A
102
}
330
5A
100
AcDbMlineStyle
  2
STANDARD
 70
     0
  3

 62
   256
 51
90.0
 52
90.0
 71
     2
 49
0.5
 62
   256
  6
BYLAYER
 49
-0.5
 62
   256
  6
BYLAYER
  0
ACDBPLACEHOLDER
  5
F
102
{ACAD_REACTORS
330
E
102
}
330
E
  0
SCALE
  5
3E
102
{ACAD_REACTORS
330
3D
102
}
330
3D
100
AcDbScale
 70
     0
300
1:1
140
1.0
141
1.0
290
     1
  0
SCALE
  5
3F
102
{ACAD_REACTORS
330
3D
102
}
330
3D
100
AcDbScale
 70
     0
300
1:2
140
1.0
141
2.0
290
     0
  0
SCALE
  5
40
102
{ACAD_REACTORS
330
3D
102
}
330
3D
100
AcDbScale
 70
     0
300
1:4
140
1.0
141
4.0
290
     0
  0
SCALE
  5
41
102
{ACAD_REACTORS
330
3D
102
}
330
3D
100
AcDbScale
 70
     0
300
1:5
140
1.0
141
5.0
290
     0
  0
SCALE
  5
42
102
{ACAD_REACTORS
330
3D
102
}
330
3D
100
AcDbScale
 70
     0
300
1:8
140
1.0
141
8.0
290
     0
  0
SCALE
  5
43
102
{ACAD_REACTORS
330
3D
102
}
330
3D
100
AcDbScale
 70
     0
300
1:10
140
1.0
141
10.0
290
     0
  0
SCALE
  5
44
102
{ACAD_REACTORS
330
3D
102
}
330
3D
100
AcDbScale
 70
     0
300
1:16
140
1.0
141
16.0
290
     0
  0
SCALE
  5
45
102
{ACAD_REACTORS
330
3D
102
}
330
3D
100
AcDbScale
 70
     0
300
1:20
140
1.0
141
20.0
290
     0
  0
SCALE
  5
46
102
{ACAD_REACTORS
330
3D
102
}
330
3D
100
AcDbScale
 70
     0
300
1:30
140
1.0
141
30.0
290
     0
  0
SCALE
  5
47
102
{ACAD_REACTORS
330
3D
102
}
330
3D
100
AcDbScale
 70
     0
300
1:40
140
1.0
141
40.0
290
     0
  0
SCALE
  5
48
102
{ACAD_REACTORS
330
3D
102
}
330
3D
100
AcDbScale
 70
     0
300
1:50
140
1.0
141
50.0
290
     0
  0
SCALE
  5
49
102
{ACAD_REACTORS
330
3D
102
}
330
3D
100
AcDbScale
 70
     0
300
1:100
140
1.0
141
100.0
290
     0
  0
SCALE
  5
4A
102
{ACAD_REACTORS
330
3D
102
}
330
3D
100
AcDbScale
 70
     0
300
2:1
140
2.0
141
1.0
290
     0
  0
SCALE
  5
4B
102
{ACAD_REACTORS
330
3D
102
}
330
3D
100
AcDbScale
 70
     0
300
4:1
140
4.0
141
1.0
290
     0
  0
SCALE
  5
4C
102
{ACAD_REACTORS
330
3D
102
}
330
3D
100
AcDbScale
 70
     0
300
8:1
140
8.0
141
1.0
290
     0
  0
SCALE
  5
4D
102
{ACAD_REACTORS
330
3D
102
}
330
3D
100
AcDbScale
 70
     0
300
10:1
140
10.0
141
1.0
290
     0
  0
SCALE
  5
4E
102
{ACAD_REACTORS
330
3D
102
}
330
3D
100
AcDbScale
 70
     0
300
100:1
140
100.0
141
1.0
290
     0
  0
TABLESTYLE
  5
60
102
{ACAD_XDICTIONARY
360
78E7
102
}
102
{ACAD_REACTORS
330
5F
102
}
330
5F
100
AcDbTableStyle
  3
Standard
 70
     0
 71
     0
 40
1.5
 41
1.5
280
     0
281
     0
  7
Standard
140
4.5
170
     2
 62
     0
 63
     7
283
     0
274
    -2
284
     1
 64
     0
275
    -2
285
     1
 65
     0
276
    -2
286
     1
 66
     0
277
    -2
287
     1
 67
     0
278
    -2
288
     1
 68
     0
279
    -2
289
     1
 69
     0
  7
Standard
140
6.0
170
     5
 62
     0
 63
     7
283
     0
274
    -2
284
     1
 64
     0
275
    -2
285
     1
 65
     0
276
    -2
286
     1
 66
     0
277
    -2
287
     1
 67
     0
278
    -2
288
     1
 68
     0
279
    -2
289
     1
 69
     0
  7
Standard
140
4.5
170
     5
 62
     0
 63
     7
283
     0
274
    -2
284
     1
 64
     0
275
    -2
285
     1
 65
     0
276
    -2
286
     1
 66
     0
277
    -2
287
     1
 67
     0
278
    -2
288
     1
 68
     0
279
    -2
289
     1
 69
     0
  0
VISUALSTYLE
  5
2F
102
{ACAD_XDICTIONARY
360
78F9
102
}
102
{ACAD_REACTORS
330
29
102
}
330
29
100
AcDbVisualStyle
  2
2dWireframe
 70
     4
 71
     0
 72
     2
 73
     0
 90
        0
 40
-0.6
 41
-30.0
 62
     5
 63
     7
421
 16777215
 74
     1
 91
        4
 64
     7
 65
   257
 75
     1
175
     1
 42
1.0
 92
        0
 66
   257
 43
1.0
 76
     1
 77
     6
 78
     2
 67
     7
 79
     5
170
     0
171
     0
290
     0
174
     0
 93
        1
 44
0.0
173
     0
291
     0
 45
0.0
1001
ACAD
1000
AcDbSavedByObjectVersion
1070
     0
  0
VISUALSTYLE
  5
31
102
{ACAD_XDICTIONARY
360
78FD
102
}
102
{ACAD_REACTORS
330
29
102
}
330
29
100
AcDbVisualStyle
  2
3D Hidden
 70
     6
 71
     1
 72
     2
 73
     2
 90
        0
 40
-0.6
 41
-30.0
 62
     5
 63
     7
421
 16777215
 74
     2
 91
        2
 64
     7
 65
   257
 75
     2
175
     1
 42
179.0
 92
        0
 66
   257
 43
1.0
 76
     1
 77
     6
 78
     2
 67
     7
 79
     3
170
     0
171
     0
290
     0
174
     0
 93
        1
 44
0.0
173
     0
291
     0
 45
0.0
1001
ACAD
1000
AcDbSavedByObjectVersion
1070
     0
  0
VISUALSTYLE
  5
30
102
{ACAD_XDICTIONARY
360
78FB
102
}
102
{ACAD_REACTORS
330
29
102
}
330
29
100
AcDbVisualStyle
  2
3dWireframe
 70
     5
 71
     0
 72
     2
 73
     0
 90
        0
 40
-0.6
 41
-30.0
 62
     5
 63
     7
421
 16777215
 74
     1
 91
        4
 64
     7
 65
   257
 75
     1
175
     1
 42
1.0
 92
        0
 66
   257
 43
1.0
 76
     1
 77
     6
 78
     2
 67
     7
 79
     5
170
     0
171
     0
290
     0
174
     0
 93
        1
 44
0.0
173
     0
291
     0
 45
0.0
1001
ACAD
1000
AcDbSavedByObjectVersion
1070
     0
  0
VISUALSTYLE
  5
2E
102
{ACAD_XDICTIONARY
360
78F7
102
}
102
{ACAD_REACTORS
330
29
102
}
330
29
100
AcDbVisualStyle
  2
Basic
 70
     7
 71
     1
 72
     0
 73
     1
 90
        0
 40
-0.6
 41
-30.0
 62
     5
 63
     7
421
 16777215
 74
     0
 91
        4
 64
     7
 65
   257
 75
     1
175
     1
 42
1.0
 92
        8
 66
     7
 43
1.0
 76
     1
 77
     6
 78
     2
 67
     7
 79
     5
170
     0
171
     0
290
     0
174
     0
 93
        1
 44
0.0
173
     0
291
     1
 45
0.0
1001
ACAD
1000
AcDbSavedByObjectVersion
1070
     0
  0
VISUALSTYLE
  5
35
102
{ACAD_XDICTIONARY
360
7905
102
}
102
{ACAD_REACTORS
330
29
102
}
330
29
100
AcDbVisualStyle
  2
Brighten
 70
    12
 71
     2
 72
     2
 73
     0
 90
        0
 40
-0.6
 41
-30.0
 62
     5
 63
     7
421
 16777215
 74
     1
 91
        4
 64
     7
 65
   257
 75
     1
175
     1
 42
1.0
 92
        8
 66
     7
 43
1.0
 76
     1
 77
     6
 78
     2
 67
     7
 79
     5
170
     0
171
     0
290
     0
174
     0
 93
        1
 44
50.0
173
     0
291
     1
 45
0.0
1001
ACAD
1000
AcDbSavedByObjectVersion
1070
     0
  0
VISUALSTYLE
  5
39
102
{ACAD_XDICTIONARY
360
790D
102
}
102
{ACAD_REACTORS
330
29
102
}
330
29
100
AcDbVisualStyle
  2
ColorChange
 70
    16
 71
     2
 72
     2
 73
     3
 90
        0
 40
-0.6
 41
-30.0
 62
     5
 63
     8
421
  8421504
 74
     1
 91
        4
 64
     7
 65
   257
 75
     1
175
     1
 42
1.0
 92
        8
 66
     8
424
  8421504
 43
1.0
 76
     1
 77
     6
 78
     2
 67
     7
 79
     5
170
     0
171
     0
290
     0
174
     0
 93
        1
 44
0.0
173
     0
291
     1
 45
0.0
1001
ACAD
1000
AcDbSavedByObjectVersion
1070
     0
  0
VISUALSTYLE
  5
32
102
{ACAD_XDICTIONARY
360
78FF
102
}
102
{ACAD_REACTORS
330
29
102
}
330
29
100
AcDbVisualStyle
  2
Conceptual
 70
     9
 71
     3
 72
     2
 73
     0
 90
        0
 40
-0.6
 41
-30.0
 62
     5
 63
     7
421
 16777215
 74
     2
 91
        2
 64
     7
 65
   257
 75
     1
175
     1
 42
179.0
 92
        8
 66
     7
 43
1.0
 76
     1
 77
     6
 78
     2
 67
     7
 79
     3
170
     0
171
     0
290
     0
174
     0
 93
        1
 44
0.0
173
     0
291
     0
 45
0.0
1001
ACAD
1000
AcDbSavedByObjectVersion
1070
     0
  0
VISUALSTYLE
  5
34
102
{ACAD_XDICTIONARY
360
7903
102
}
102
{ACAD_REACTORS
330
29
102
}
330
29
100
AcDbVisualStyle
  2
Dim
 70
    11
 71
     2
 72
     2
 73
     0
 90
        0
 40
-0.6
 41
-30.0
 62
     5
 63
     7
421
 16777215
 74
     1
 91
        4
 64
     7
 65
   257
 75
     1
175
     1
 42
1.0
 92
        8
 66
     7
 43
1.0
 76
     1
 77
     6
 78
     2
 67
     7
 79
     5
170
     0
171
     0
290
     0
174
     0
 93
        1
 44
-50.0
173
     0
291
     1
 45
0.0
1001
ACAD
1000
AcDbSavedByObjectVersion
1070
     0
  0
VISUALSTYLE
  5
3C
102
{ACAD_XDICTIONARY
360
7913
102
}
102
{ACAD_REACTORS
330
29
102
}
330
29
100
AcDbVisualStyle
  2
EdgeColorOff
 70
    22
 71
     2
 72
     2
 73
     0
 90
        0
 40
-0.6
 41
-30.0
 62
     5
 63
     7
421
 16777215
 74
     1
 91
        4
 64
     7
 65
   257
 75
     1
175
     1
 42
1.0
 92
        8
 66
     7
 43
1.0
 76
     1
 77
     6
 78
     2
 67
     7
 79
     5
170
     0
171
     0
290
     0
174
     0
 93
        1
 44
0.0
173
     0
291
     1
 45
0.0
1001
ACAD
1000
AcDbSavedByObjectVersion
1070
     0
  0
VISUALSTYLE
  5
38
102
{ACAD_XDICTIONARY
360
790B
102
}
102
{ACAD_REACTORS
330
29
102
}
330
29
100
AcDbVisualStyle
  2
Facepattern
 70
    15
 71
     2
 72
     2
 73
     0
 90
        0
 40
-0.6
 41
-30.0
 62
     5
 63
     7
421
 16777215
 74
     1
 91
        4
 64
     7
 65
   257
 75
     1
175
     1
 42
1.0
 92
        8
 66
     7
 43
1.0
 76
     1
 77
     6
 78
     2
 67
     7
 79
     5
170
     0
171
     0
290
     0
174
     0
 93
        1
 44
0.0
173
     0
291
     1
 45
0.0
1001
ACAD
1000
AcDbSavedByObjectVersion
1070
     0
  0
VISUALSTYLE
  5
2A
102
{ACAD_XDICTIONARY
360
78EF
102
}
102
{ACAD_REACTORS
330
29
102
}
330
29
100
AcDbVisualStyle
  2
Flat
 70
     0
 71
     2
 72
     1
 73
     1
 90
        2
 40
-0.6
 41
30.0
 62
     5
 63
     7
421
 16777215
 74
     0
 91
        4
 64
     7
 65
   257
 75
     1
175
     1
 42
1.0
 92
        8
 66
     7
 43
1.0
 76
     1
 77
     6
 78
     2
 67
     7
 79
     5
170
     0
171
     0
290
     0
174
     0
 93
       13
 44
0.0
173
     0
291
     1
 45
0.0
1001
ACAD
1000
AcDbSavedByObjectVersion
1070
     0
  0
VISUALSTYLE
  5
2B
102
{ACAD_XDICTIONARY
360
78F1
102
}
102
{ACAD_REACTORS
330
29
102
}
330
29
100
AcDbVisualStyle
  2
FlatWithEdges
 70
     1
 71
     2
 72
     1
 73
     1
 90
        2
 40
-0.6
 41
30.0
 62
     5
 63
     7
421
 16777215
 74
     1
 91
        4
 64
     7
 65
   257
 75
     1
175
     1
 42
1.0
 92
        0
 66
   257
 43
1.0
 76
     1
 77
     6
 78
     2
 67
     7
 79
     5
170
     0
171
     0
290
     0
174
     0
 93
       13
 44
0.0
173
     0
291
     1
 45
0.0
1001
ACAD
1000
AcDbSavedByObjectVersion
1070
     0
  0
VISUALSTYLE
  5
2C
102
{ACAD_XDICTIONARY
360
78F3
102
}
102
{ACAD_REACTORS
330
29
102
}
330
29
100
AcDbVisualStyle
  2
Gouraud
 70
     2
 71
     2
 72
     2
 73
     1
 90
        2
 40
-0.6
 41
30.0
 62
     5
 63
     7
421
 16777215
 74
     0
 91
        4
 64
     7
 65
   257
 75
     1
175
     1
 42
1.0
 92
        0
 66
     7
 43
1.0
 76
     1
 77
     6
 78
     2
 67
     7
 79
     5
170
     0
171
     0
290
     0
174
     0
 93
       13
 44
0.0
173
     0
291
     1
 45
0.0
1001
ACAD
1000
AcDbSavedByObjectVersion
1070
     0
  0
VISUALSTYLE
  5
2D
102
{ACAD_XDICTIONARY
360
78F5
102
}
102
{ACAD_REACTORS
330
29
102
}
330
29
100
AcDbVisualStyle
  2
GouraudWithEdges
 70
     3
 71
     2
 72
     2
 73
     1
 90
        2
 40
-0.6
 41
30.0
 62
     5
 63
     7
421
 16777215
 74
     1
 91
        4
 64
     7
 65
   257
 75
     1
175
     1
 42
1.0
 92
        0
 66
   257
 43
1.0
 76
     1
 77
     6
 78
     2
 67
     7
 79
     5
170
     0
171
     0
290
     0
174
     0
 93
       13
 44
0.0
173
     0
291
     1
 45
0.0
1001
ACAD
1000
AcDbSavedByObjectVersion
1070
     0
  0
VISUALSTYLE
  5
3A
102
{ACAD_XDICTIONARY
360
790F
102
}
102
{ACAD_REACTORS
330
29
102
}
330
29
100
AcDbVisualStyle
  2
JitterOff
 70
    20
 71
     2
 72
     2
 73
     0
 90
        0
 40
-0.6
 41
-30.0
 62
     5
 63
     7
421
 16777215
 74
     1
 91
        4
 64
     7
 65
   257
 75
     1
175
     1
 42
1.0
 92
       10
 66
     7
 43
1.0
 76
     1
 77
     6
 78
     2
 67
     7
 79
     5
170
     0
171
     0
290
     0
174
     0
 93
        1
 44
0.0
173
     0
291
     1
 45
0.0
1001
ACAD
1000
AcDbSavedByObjectVersion
1070
     0
  0
VISUALSTYLE
  5
37
102
{ACAD_XDICTIONARY
360
7909
102
}
102
{ACAD_REACTORS
330
29
102
}
330
29
100
AcDbVisualStyle
  2
Linepattern
 70
    14
 71
     2
 72
     2
 73
     0
 90
        0
 40
-0.6
 41
-30.0
 62
     5
 63
     7
421
 16777215
 74
     1
 91
        4
 64
     7
 65
   257
 75
     7
175
     7
 42
1.0
 92
        8
 66
     7
 43
1.0
 76
     1
 77
     6
 78
     2
 67
     7
 79
     5
170
     0
171
     0
290
     0
174
     0
 93
        1
 44
0.0
173
     0
291
     1
 45
0.0
1001
ACAD
1000
AcDbSavedByObjectVersion
1070
     0
  0
VISUALSTYLE
  5
3B
102
{ACAD_XDICTIONARY
360
7911
102
}
102
{ACAD_REACTORS
330
29
102
}
330
29
100
AcDbVisualStyle
  2
OverhangOff
 70
    21
 71
     2
 72
     2
 73
     0
 90
        0
 40
-0.6
 41
-30.0
 62
     5
 63
     7
421
 16777215
 74
     1
 91
        4
 64
     7
 65
   257
 75
     1
175
     1
 42
1.0
 92
        9
 66
     7
 43
1.0
 76
     1
 77
     6
 78
     2
 67
     7
 79
     5
170
     0
171
     0
290
     0
174
     0
 93
        1
 44
0.0
173
     0
291
     1
 45
0.0
1001
ACAD
1000
AcDbSavedByObjectVersion
1070
     0
  0
VISUALSTYLE
  5
33
102
{ACAD_XDICTIONARY
360
7901
102
}
102
{ACAD_REACTORS
330
29
102
}
330
29
100
AcDbVisualStyle
  2
Realistic
 70
     8
 71
     2
 72
     2
 73
     0
 90
        0
 40
-0.6
 41
-30.0
 62
     5
 63
     7
421
 16777215
 74
     1
 91
        0
 64
     7
 65
   257
 75
     1
175
     1
 42
1.0
 92
        8
 66
     8
424
  7895160
 43
1.0
 76
     1
 77
     6
 78
     2
 67
     7
 79
     5
170
     0
171
     0
290
     0
174
     0
 93
       13
 44
0.0
173
     0
291
     0
 45
0.0
1001
ACAD
1000
AcDbSavedByObjectVersion
1070
     0
  0
VISUALSTYLE
  5
36
102
{ACAD_XDICTIONARY
360
7907
102
}
102
{ACAD_REACTORS
330
29
102
}
330
29
100
AcDbVisualStyle
  2
Thicken
 70
    13
 71
     2
 72
     2
 73
     0
 90
        0
 40
-0.6
 41
-30.0
 62
     5
 63
     7
421
 16777215
 74
     1
 91
        4
 64
     7
 65
   257
 75
     1
175
     1
 42
1.0
 92
       12
 66
     7
 43
1.0
 76
     1
 77
     6
 78
     2
 67
     7
 79
     5
170
     0
171
     0
290
     0
174
     0
 93
        1
 44
0.0
173
     0
291
     1
 45
0.0
1001
ACAD
1000
AcDbSavedByObjectVersion
1070
     0
  0
DICTIONARYVAR
  5
78E2
102
{ACAD_REACTORS
330
78DE
102
}
330
78DE
100
DictionaryVariables
280
     0
  1
1:1
  0
DICTIONARYVAR
  5
78E0
102
{ACAD_REACTORS
330
78DE
102
}
330
78DE
100
DictionaryVariables
280
     0
  1
STANDARD
  0
DICTIONARYVAR
  5
78DF
102
{ACAD_REACTORS
330
78DE
102
}
330
78DE
100
DictionaryVariables
280
     0
  1
STANDARD
  0
DICTIONARYVAR
  5
78E4
102
{ACAD_REACTORS
330
78DE
102
}
330
78DE
100
DictionaryVariables
280
     0
  1
0
  0
DICTIONARYVAR
  5
78E5
102
{ACAD_REACTORS
330
78DE
102
}
330
78DE
100
DictionaryVariables
280
     0
  1
0
  0
DICTIONARYVAR
  5
78E3
102
{ACAD_REACTORS
330
78DE
102
}
330
78DE
100
DictionaryVariables
280
     0
  1
2
  0
DICTIONARYVAR
  5
78E1
102
{ACAD_REACTORS
330
78DE
102
}
330
78DE
100
DictionaryVariables
280
     0
  1
1
  0
DICTIONARYVAR
  5
78E6
102
{ACAD_REACTORS
330
78DE
102
}
330
78DE
100
DictionaryVariables
280
     0
  1
2
  0
DICTIONARY
  5
1A
330
19
100
AcDbDictionary
280
     1
281
     1
  3
ACAD_XREC_ROUNDTRIP
360
78ED
  3
BUMPTILE
360
1C
  3
DIFFUSETILE
360
1B
  3
OPACITYTILE
360
1F
  3
REFLECTIONTILE
360
1E
  3
REFRACTIONTILE
360
20
  3
SPECULARTILE
360
1D
  0
DICTIONARY
  5
12
330
11
100
AcDbDictionary
280
     1
281
     1
  3
ACAD_XREC_ROUNDTRIP
360
78EC
  3
BUMPTILE
360
14
  3
DIFFUSETILE
360
13
  3
OPACITYTILE
360
17
  3
REFLECTIONTILE
360
16
  3
REFRACTIONTILE
360
18
  3
SPECULARTILE
360
15
  0
DICTIONARY
  5
22
330
21
100
AcDbDictionary
280
     1
281
     1
  3
ACAD_XREC_ROUNDTRIP
360
78EE
  3
BUMPTILE
360
24
  3
DIFFUSETILE
360
23
  3
OPACITYTILE
360
27
  3
REFLECTIONTILE
360
26
  3
REFRACTIONTILE
360
28
  3
SPECULARTILE
360
25
  0
DICTIONARY
  5
78E7
330
60
100
AcDbDictionary
280
     1
281
     1
  3
ACAD_ROUNDTRIP_2008_TABLESTYLE_CELLSTYLEMAP
360
78E8
  3
ACAD_XREC_ROUNDTRIP
360
7916
  0
DICTIONARY
  5
78F9
330
2F
100
AcDbDictionary
280
     1
281
     1
  3
ACAD_XREC_ROUNDTRIP
360
78FA
  0
DICTIONARY
  5
78FD
330
31
100
AcDbDictionary
280
     1
281
     1
  3
ACAD_XREC_ROUNDTRIP
360
78FE
  0
DICTIONARY
  5
78FB
330
30
100
AcDbDictionary
280
     1
281
     1
  3
ACAD_XREC_ROUNDTRIP
360
78FC
  0
DICTIONARY
  5
78F7
330
2E
100
AcDbDictionary
280
     1
281
     1
  3
ACAD_XREC_ROUNDTRIP
360
78F8
  0
DICTIONARY
  5
7905
330
35
100
AcDbDictionary
280
     1
281
     1
  3
ACAD_XREC_ROUNDTRIP
360
7906
  0
DICTIONARY
  5
790D
330
39
100
AcDbDictionary
280
     1
281
     1
  3
ACAD_XREC_ROUNDTRIP
360
790E
  0
DICTIONARY
  5
78FF
330
32
100
AcDbDictionary
280
     1
281
     1
  3
ACAD_XREC_ROUNDTRIP
360
7900
  0
DICTIONARY
  5
7903
330
34
100
AcDbDictionary
280
     1
281
     1
  3
ACAD_XREC_ROUNDTRIP
360
7904
  0
DICTIONARY
  5
7913
330
3C
100
AcDbDictionary
280
     1
281
     1
  3
ACAD_XREC_ROUNDTRIP
360
7914
  0
DICTIONARY
  5
790B
330
38
100
AcDbDictionary
280
     1
281
     1
  3
ACAD_XREC_ROUNDTRIP
360
790C
  0
DICTIONARY
  5
78EF
330
2A
100
AcDbDictionary
280
     1
281
     1
  3
ACAD_XREC_ROUNDTRIP
360
78F0
  0
DICTIONARY
  5
78F1
330
2B
100
AcDbDictionary
280
     1
281
     1
  3
ACAD_XREC_ROUNDTRIP
360
78F2
  0
DICTIONARY
  5
78F3
330
2C
100
AcDbDictionary
280
     1
281
     1
  3
ACAD_XREC_ROUNDTRIP
360
78F4
  0
DICTIONARY
  5
78F5
330
2D
100
AcDbDictionary
280
     1
281
     1
  3
ACAD_XREC_ROUNDTRIP
360
78F6
  0
DICTIONARY
  5
790F
330
3A
100
AcDbDictionary
280
     1
281
     1
  3
ACAD_XREC_ROUNDTRIP
360
7910
  0
DICTIONARY
  5
7909
330
37
100
AcDbDictionary
280
     1
281
     1
  3
ACAD_XREC_ROUNDTRIP
360
790A
  0
DICTIONARY
  5
7911
330
3B
100
AcDbDictionary
280
     1
281
     1
  3
ACAD_XREC_ROUNDTRIP
360
7912
  0
DICTIONARY
  5
7901
330
33
100
AcDbDictionary
280
     1
281
     1
  3
ACAD_XREC_ROUNDTRIP
360
7902
  0
DICTIONARY
  5
7907
330
36
100
AcDbDictionary
280
     1
281
     1
  3
ACAD_XREC_ROUNDTRIP
360
7908
  0
XRECORD
  5
78ED
102
{ACAD_REACTORS
330
1A
102
}
330
1A
100
AcDbXrecord
280
     1
102
MATERIAL
148
0.0
149
0.0
149
0.0
 93
        0
 94
      127
282
     0
 72
     0
 77
     0
171
     0
175
     0
179
     0
273
     0
  0
XRECORD
  5
1C
102
{ACAD_REACTORS
330
1A
102
}
330
1A
100
AcDbXrecord
280
     1
270
     1
271
     1
  0
XRECORD
  5
1B
102
{ACAD_REACTORS
330
1A
102
}
330
1A
100
AcDbXrecord
280
     1
270
     1
271
     1
  0
XRECORD
  5
1F
102
{ACAD_REACTORS
330
1A
102
}
330
1A
100
AcDbXrecord
280
     1
270
     1
271
     1
  0
XRECORD
  5
1E
102
{ACAD_REACTORS
330
1A
102
}
330
1A
100
AcDbXrecord
280
     1
270
     1
271
     1
  0
XRECORD
  5
20
102
{ACAD_REACTORS
330
1A
102
}
330
1A
100
AcDbXrecord
280
     1
270
     1
271
     1
  0
XRECORD
  5
1D
102
{ACAD_REACTORS
330
1A
102
}
330
1A
100
AcDbXrecord
280
     1
270
     1
271
     1
  0
XRECORD
  5
78EC
102
{ACAD_REACTORS
330
12
102
}
330
12
100
AcDbXrecord
280
     1
102
MATERIAL
148
0.0
149
0.0
149
0.0
 93
        0
 94
      127
282
     0
 72
     0
 77
     0
171
     0
175
     0
179
     0
273
     0
  0
XRECORD
  5
14
102
{ACAD_REACTORS
330
12
102
}
330
12
100
AcDbXrecord
280
     1
270
     1
271
     1
  0
XRECORD
  5
13
102
{ACAD_REACTORS
330
12
102
}
330
12
100
AcDbXrecord
280
     1
270
     1
271
     1
  0
XRECORD
  5
17
102
{ACAD_REACTORS
330
12
102
}
330
12
100
AcDbXrecord
280
     1
270
     1
271
     1
  0
XRECORD
  5
16
102
{ACAD_REACTORS
330
12
102
}
330
12
100
AcDbXrecord
280
     1
270
     1
271
     1
  0
XRECORD
  5
18
102
{ACAD_REACTORS
330
12
102
}
330
12
100
AcDbXrecord
280
     1
270
     1
271
     1
  0
XRECORD
  5
15
102
{ACAD_REACTORS
330
12
102
}
330
12
100
AcDbXrecord
280
     1
270
     1
271
     1
  0
XRECORD
  5
78EE
102
{ACAD_REACTORS
330
22
102
}
330
22
100
AcDbXrecord
280
     1
102
MATERIAL
148
0.0
149
0.0
149
0.0
 93
        0
 94
      127
282
     0
 72
     0
 77
     0
171
     0
175
     0
179
     0
273
     0
  0
XRECORD
  5
24
102
{ACAD_REACTORS
330
22
102
}
330
22
100
AcDbXrecord
280
     1
270
     1
271
     1
  0
XRECORD
  5
23
102
{ACAD_REACTORS
330
22
102
}
330
22
100
AcDbXrecord
280
     1
270
     1
271
     1
  0
XRECORD
  5
27
102
{ACAD_REACTORS
330
22
102
}
330
22
100
AcDbXrecord
280
     1
270
     1
271
     1
  0
XRECORD
  5
26
102
{ACAD_REACTORS
330
22
102
}
330
22
100
AcDbXrecord
280
     1
270
     1
271
     1
  0
XRECORD
  5
28
102
{ACAD_REACTORS
330
22
102
}
330
22
100
AcDbXrecord
280
     1
270
     1
271
     1
  0
XRECORD
  5
25
102
{ACAD_REACTORS
330
22
102
}
330
22
100
AcDbXrecord
280
     1
270
     1
271
     1
  0
CELLSTYLEMAP
  5
78E8
102
{ACAD_REACTORS
330
78E7
102
}
330
78E7
100
AcDbCellStyleMap
 90
        3
300
CELLSTYLE
  1
TABLEFORMAT_BEGIN
 90
        5
170
     1
 91
        0
 92
    32768
 62
   257
 93
        1
300
CONTENTFORMAT
  1
CONTENTFORMAT_BEGIN
 90
        0
 91
        0
 92
      512
 93
        0
300

 40
0.0
140
1.0
 94
        5
 62
     0
340
50
144
6.0
309
CONTENTFORMAT_END
171
     1
301
MARGIN
  1
CELLMARGIN_BEGIN
 40
1.5
 40
1.5
 40
1.5
 40
1.5
 40
4.5
 40
4.5
309
CELLMARGIN_END
 94
        6
 95
        1
302
GRIDFORMAT
  1
GRIDFORMAT_BEGIN
 90
        0
 91
        1
 62
     0
 92
       -2
340
0
 93
        0
 40
1.125
309
GRIDFORMAT_END
 95
        2
302
GRIDFORMAT
  1
GRIDFORMAT_BEGIN
 90
        0
 91
        1
 62
     0
 92
       -2
340
0
 93
        0
 40
1.125
309
GRIDFORMAT_END
 95
        4
302
GRIDFORMAT
  1
GRIDFORMAT_BEGIN
 90
        0
 91
        1
 62
     0
 92
       -2
340
0
 93
        0
 40
1.125
309
GRIDFORMAT_END
 95
        8
302
GRIDFORMAT
  1
GRIDFORMAT_BEGIN
 90
        0
 91
        1
 62
     0
 92
       -2
340
0
 93
        0
 40
1.125
309
GRIDFORMAT_END
 95
       16
302
GRIDFORMAT
  1
GRIDFORMAT_BEGIN
 90
        0
 91
        1
 62
     0
 92
       -2
340
0
 93
        0
 40
1.125
309
GRIDFORMAT_END
 95
       32
302
GRIDFORMAT
  1
GRIDFORMAT_BEGIN
 90
        0
 91
        1
 62
     0
 92
       -2
340
0
 93
        0
 40
1.125
309
GRIDFORMAT_END
309
TABLEFORMAT_END
  1
CELLSTYLE_BEGIN
 90
        1
 91
        1
300
_TITLE
309
CELLSTYLE_END
300
CELLSTYLE
  1
TABLEFORMAT_BEGIN
 90
        5
170
     1
 91
        0
 92
        0
 62
   257
 93
        1
300
CONTENTFORMAT
  1
CONTENTFORMAT_BEGIN
 90
        0
 91
        0
 92
      512
 93
        0
300

 40
0.0
140
1.0
 94
        5
 62
     0
340
50
144
4.5
309
CONTENTFORMAT_END
171
     1
301
MARGIN
  1
CELLMARGIN_BEGIN
 40
1.5
 40
1.5
 40
1.5
 40
1.5
 40
4.5
 40
4.5
309
CELLMARGIN_END
 94
        6
 95
        1
302
GRIDFORMAT
  1
GRIDFORMAT_BEGIN
 90
        0
 91
        1
 62
     0
 92
       -2
340
0
 93
        0
 40
1.125
309
GRIDFORMAT_END
 95
        2
302
GRIDFORMAT
  1
GRIDFORMAT_BEGIN
 90
        0
 91
        1
 62
     0
 92
       -2
340
0
 93
        0
 40
1.125
309
GRIDFORMAT_END
 95
        4
302
GRIDFORMAT
  1
GRIDFORMAT_BEGIN
 90
        0
 91
        1
 62
     0
 92
       -2
340
0
 93
        0
 40
1.125
309
GRIDFORMAT_END
 95
        8
302
GRIDFORMAT
  1
GRIDFORMAT_BEGIN
 90
        0
 91
        1
 62
     0
 92
       -2
340
0
 93
        0
 40
1.125
309
GRIDFORMAT_END
 95
       16
302
GRIDFORMAT
  1
GRIDFORMAT_BEGIN
 90
        0
 91
        1
 62
     0
 92
       -2
340
0
 93
        0
 40
1.125
309
GRIDFORMAT_END
 95
       32
302
GRIDFORMAT
  1
GRIDFORMAT_BEGIN
 90
        0
 91
        1
 62
     0
 92
       -2
340
0
 93
        0
 40
1.125
309
GRIDFORMAT_END
309
TABLEFORMAT_END
  1
CELLSTYLE_BEGIN
 90
        2
 91
        1
300
_HEADER
309
CELLSTYLE_END
300
CELLSTYLE
  1
TABLEFORMAT_BEGIN
 90
        5
170
     1
 91
        0
 92
        0
 62
   257
 93
        1
300
CONTENTFORMAT
  1
CONTENTFORMAT_BEGIN
 90
        0
 91
        0
 92
      512
 93
        0
300

 40
0.0
140
1.0
 94
        2
 62
     0
340
50
144
4.5
309
CONTENTFORMAT_END
171
     1
301
MARGIN
  1
CELLMARGIN_BEGIN
 40
1.5
 40
1.5
 40
1.5
 40
1.5
 40
4.5
 40
4.5
309
CELLMARGIN_END
 94
        6
 95
        1
302
GRIDFORMAT
  1
GRIDFORMAT_BEGIN
 90
        0
 91
        1
 62
     0
 92
       -2
340
0
 93
        0
 40
1.125
309
GRIDFORMAT_END
 95
        2
302
GRIDFORMAT
  1
GRIDFORMAT_BEGIN
 90
        0
 91
        1
 62
     0
 92
       -2
340
0
 93
        0
 40
1.125
309
GRIDFORMAT_END
 95
        4
302
GRIDFORMAT
  1
GRIDFORMAT_BEGIN
 90
        0
 91
        1
 62
     0
 92
       -2
340
0
 93
        0
 40
1.125
309
GRIDFORMAT_END
 95
        8
302
GRIDFORMAT
  1
GRIDFORMAT_BEGIN
 90
        0
 91
        1
 62
     0
 92
       -2
340
0
 93
        0
 40
1.125
309
GRIDFORMAT_END
 95
       16
302
GRIDFORMAT
  1
GRIDFORMAT_BEGIN
 90
        0
 91
        1
 62
     0
 92
       -2
340
0
 93
        0
 40
1.125
309
GRIDFORMAT_END
 95
       32
302
GRIDFORMAT
  1
GRIDFORMAT_BEGIN
 90
        0
 91
        1
 62
     0
 92
       -2
340
0
 93
        0
 40
1.125
309
GRIDFORMAT_END
309
TABLEFORMAT_END
  1
CELLSTYLE_BEGIN
 90
        3
 91
        2
300
_DATA
309
CELLSTYLE_END
  0
XRECORD
  5
7916
102
{ACAD_REACTORS
330
78E7
102
}
330
78E7
100
AcDbXrecord
280
     1
102
ACAD_ROUNDTRIP_PRE2007_TABLESTYLE
 90
      512
 91
        0
  1

 92
      512
 93
        0
  2

 94
      512
 95
        0
  3

  0
XRECORD
  5
78FA
102
{ACAD_REACTORS
330
78F9
102
}
330
78F9
100
AcDbXrecord
280
     1
102
RTVSPropertyOp0
 70
     1
102
RTVSPropertyOp1
 70
     1
102
RTVSPropertyOp2
 70
     1
102
RTVSPropertyOp3
 70
     1
102
RTVSPropertyOp4
 70
     1
102
RTVSPropertyOp5
 70
     1
102
RTVSPropertyOp6
 70
     1
102
RTVSPropertyOp7
 70
     1
102
RTVSPropertyOp8
 70
     1
102
RTVSPropertyOp9
 70
     1
102
RTVSPropertyOp10
 70
     1
102
RTVSPropertyOp11
 70
     1
102
RTVSPropertyOp12
 70
     1
102
RTVSPropertyOp13
 70
     1
102
RTVSPropertyOp14
 70
     1
102
RTVSPropertyOp15
 70
     1
102
RTVSPropertyOp16
 70
     1
102
RTVSPropertyOp17
 70
     1
102
RTVSPropertyOp18
 70
     1
102
RTVSPropertyOp19
 70
     1
102
RTVSPropertyOp20
 70
     1
102
RTVSPropertyOp21
 70
     1
102
RTVSPropertyOp22
 70
     1
102
RTVSPropertyOp23
 70
     1
102
RTVSPropertyOp24
 70
     1
102
RTVSPropertyOp25
 70
     1
102
RTVSPropertyOp26
 70
     1
102
RTVSPropertyOp27
 70
     1
  0
XRECORD
  5
78FE
102
{ACAD_REACTORS
330
78FD
102
}
330
78FD
100
AcDbXrecord
280
     1
102
RTVSPropertyOp0
 70
     1
102
RTVSPropertyOp1
 70
     1
102
RTVSPropertyOp2
 70
     1
102
RTVSPropertyOp3
 70
     1
102
RTVSPropertyOp4
 70
     1
102
RTVSPropertyOp5
 70
     1
102
RTVSPropertyOp6
 70
     1
102
RTVSPropertyOp7
 70
     1
102
RTVSPropertyOp8
 70
     1
102
RTVSPropertyOp9
 70
     1
102
RTVSPropertyOp10
 70
     1
102
RTVSPropertyOp11
 70
     1
102
RTVSPropertyOp12
 70
     1
102
RTVSPropertyOp13
 70
     1
102
RTVSPropertyOp14
 70
     1
102
RTVSPropertyOp15
 70
     1
102
RTVSPropertyOp16
 70
     1
102
RTVSPropertyOp17
 70
     1
102
RTVSPropertyOp18
 70
     1
102
RTVSPropertyOp19
 70
     1
102
RTVSPropertyOp20
 70
     1
102
RTVSPropertyOp21
 70
     1
102
RTVSPropertyOp22
 70
     1
102
RTVSPropertyOp23
 70
     1
102
RTVSPropertyOp24
 70
     1
102
RTVSPropertyOp25
 70
     1
102
RTVSPropertyOp26
 70
     1
102
RTVSPropertyOp27
 70
     1
  0
XRECORD
  5
78FC
102
{ACAD_REACTORS
330
78FB
102
}
330
78FB
100
AcDbXrecord
280
     1
102
RTVSPropertyOp0
 70
     1
102
RTVSPropertyOp1
 70
     1
102
RTVSPropertyOp2
 70
     1
102
RTVSPropertyOp3
 70
     1
102
RTVSPropertyOp4
 70
     1
102
RTVSPropertyOp5
 70
     1
102
RTVSPropertyOp6
 70
     1
102
RTVSPropertyOp7
 70
     1
102
RTVSPropertyOp8
 70
     1
102
RTVSPropertyOp9
 70
     1
102
RTVSPropertyOp10
 70
     1
102
RTVSPropertyOp11
 70
     1
102
RTVSPropertyOp12
 70
     1
102
RTVSPropertyOp13
 70
     1
102
RTVSPropertyOp14
 70
     1
102
RTVSPropertyOp15
 70
     1
102
RTVSPropertyOp16
 70
     1
102
RTVSPropertyOp17
 70
     1
102
RTVSPropertyOp18
 70
     1
102
RTVSPropertyOp19
 70
     1
102
RTVSPropertyOp20
 70
     1
102
RTVSPropertyOp21
 70
     1
102
RTVSPropertyOp22
 70
     1
102
RTVSPropertyOp23
 70
     1
102
RTVSPropertyOp24
 70
     1
102
RTVSPropertyOp25
 70
     1
102
RTVSPropertyOp26
 70
     1
102
RTVSPropertyOp27
 70
     1
  0
XRECORD
  5
78F8
102
{ACAD_REACTORS
330
78F7
102
}
330
78F7
100
AcDbXrecord
280
     1
102
RTVSPropertyOp0
 70
     1
102
RTVSPropertyOp1
 70
     1
102
RTVSPropertyOp2
 70
     1
102
RTVSPropertyOp3
 70
     1
102
RTVSPropertyOp4
 70
     1
102
RTVSPropertyOp5
 70
     1
102
RTVSPropertyOp6
 70
     1
102
RTVSPropertyOp7
 70
     1
102
RTVSPropertyOp8
 70
     1
102
RTVSPropertyOp9
 70
     1
102
RTVSPropertyOp10
 70
     1
102
RTVSPropertyOp11
 70
     1
102
RTVSPropertyOp12
 70
     1
102
RTVSPropertyOp13
 70
     1
102
RTVSPropertyOp14
 70
     1
102
RTVSPropertyOp15
 70
     1
102
RTVSPropertyOp16
 70
     1
102
RTVSPropertyOp17
 70
     1
102
RTVSPropertyOp18
 70
     1
102
RTVSPropertyOp19
 70
     1
102
RTVSPropertyOp20
 70
     1
102
RTVSPropertyOp21
 70
     1
102
RTVSPropertyOp22
 70
     1
102
RTVSPropertyOp23
 70
     1
102
RTVSPropertyOp24
 70
     1
102
RTVSPropertyOp25
 70
     1
102
RTVSPropertyOp26
 70
     1
102
RTVSPropertyOp27
 70
     1
  0
XRECORD
  5
7906
102
{ACAD_REACTORS
330
7905
102
}
330
7905
100
AcDbXrecord
280
     1
102
RTVSPropertyOp0
 70
     1
102
RTVSPropertyOp1
 70
     1
102
RTVSPropertyOp2
 70
     1
102
RTVSPropertyOp3
 70
     1
102
RTVSPropertyOp4
 70
     1
102
RTVSPropertyOp5
 70
     1
102
RTVSPropertyOp6
 70
     1
102
RTVSPropertyOp7
 70
     1
102
RTVSPropertyOp8
 70
     1
102
RTVSPropertyOp9
 70
     1
102
RTVSPropertyOp10
 70
     1
102
RTVSPropertyOp11
 70
     1
102
RTVSPropertyOp12
 70
     1
102
RTVSPropertyOp13
 70
     1
102
RTVSPropertyOp14
 70
     1
102
RTVSPropertyOp15
 70
     1
102
RTVSPropertyOp16
 70
     1
102
RTVSPropertyOp17
 70
     1
102
RTVSPropertyOp18
 70
     1
102
RTVSPropertyOp19
 70
     1
102
RTVSPropertyOp20
 70
     1
102
RTVSPropertyOp21
 70
     1
102
RTVSPropertyOp22
 70
     1
102
RTVSPropertyOp23
 70
     1
102
RTVSPropertyOp24
 70
     1
102
RTVSPropertyOp25
 70
     1
102
RTVSPropertyOp26
 70
     1
102
RTVSPropertyOp27
 70
     1
  0
XRECORD
  5
790E
102
{ACAD_REACTORS
330
790D
102
}
330
790D
100
AcDbXrecord
280
     1
102
RTVSPropertyOp0
 70
     1
102
RTVSPropertyOp1
 70
     1
102
RTVSPropertyOp2
 70
     1
102
RTVSPropertyOp3
 70
     1
102
RTVSPropertyOp4
 70
     1
102
RTVSPropertyOp5
 70
     1
102
RTVSPropertyOp6
 70
     1
102
RTVSPropertyOp7
 70
     1
102
RTVSPropertyOp8
 70
     1
102
RTVSPropertyOp9
 70
     1
102
RTVSPropertyOp10
 70
     1
102
RTVSPropertyOp11
 70
     1
102
RTVSPropertyOp12
 70
     1
102
RTVSPropertyOp13
 70
     1
102
RTVSPropertyOp14
 70
     1
102
RTVSPropertyOp15
 70
     1
102
RTVSPropertyOp16
 70
     1
102
RTVSPropertyOp17
 70
     1
102
RTVSPropertyOp18
 70
     1
102
RTVSPropertyOp19
 70
     1
102
RTVSPropertyOp20
 70
     1
102
RTVSPropertyOp21
 70
     1
102
RTVSPropertyOp22
 70
     1
102
RTVSPropertyOp23
 70
     1
102
RTVSPropertyOp24
 70
     1
102
RTVSPropertyOp25
 70
     1
102
RTVSPropertyOp26
 70
     1
102
RTVSPropertyOp27
 70
     1
  0
XRECORD
  5
7900
102
{ACAD_REACTORS
330
78FF
102
}
330
78FF
100
AcDbXrecord
280
     1
102
RTVSPropertyOp0
 70
     1
102
RTVSPropertyOp1
 70
     1
102
RTVSPropertyOp2
 70
     1
102
RTVSPropertyOp3
 70
     1
102
RTVSPropertyOp4
 70
     1
102
RTVSPropertyOp5
 70
     1
102
RTVSPropertyOp6
 70
     1
102
RTVSPropertyOp7
 70
     1
102
RTVSPropertyOp8
 70
     1
102
RTVSPropertyOp9
 70
     1
102
RTVSPropertyOp10
 70
     1
102
RTVSPropertyOp11
 70
     1
102
RTVSPropertyOp12
 70
     1
102
RTVSPropertyOp13
 70
     1
102
RTVSPropertyOp14
 70
     1
102
RTVSPropertyOp15
 70
     1
102
RTVSPropertyOp16
 70
     1
102
RTVSPropertyOp17
 70
     1
102
RTVSPropertyOp18
 70
     1
102
RTVSPropertyOp19
 70
     1
102
RTVSPropertyOp20
 70
     1
102
RTVSPropertyOp21
 70
     1
102
RTVSPropertyOp22
 70
     1
102
RTVSPropertyOp23
 70
     1
102
RTVSPropertyOp24
 70
     1
102
RTVSPropertyOp25
 70
     1
102
RTVSPropertyOp26
 70
     1
102
RTVSPropertyOp27
 70
     1
  0
XRECORD
  5
7904
102
{ACAD_REACTORS
330
7903
102
}
330
7903
100
AcDbXrecord
280
     1
102
RTVSPropertyOp0
 70
     1
102
RTVSPropertyOp1
 70
     1
102
RTVSPropertyOp2
 70
     1
102
RTVSPropertyOp3
 70
     1
102
RTVSPropertyOp4
 70
     1
102
RTVSPropertyOp5
 70
     1
102
RTVSPropertyOp6
 70
     1
102
RTVSPropertyOp7
 70
     1
102
RTVSPropertyOp8
 70
     1
102
RTVSPropertyOp9
 70
     1
102
RTVSPropertyOp10
 70
     1
102
RTVSPropertyOp11
 70
     1
102
RTVSPropertyOp12
 70
     1
102
RTVSPropertyOp13
 70
     1
102
RTVSPropertyOp14
 70
     1
102
RTVSPropertyOp15
 70
     1
102
RTVSPropertyOp16
 70
     1
102
RTVSPropertyOp17
 70
     1
102
RTVSPropertyOp18
 70
     1
102
RTVSPropertyOp19
 70
     1
102
RTVSPropertyOp20
 70
     1
102
RTVSPropertyOp21
 70
     1
102
RTVSPropertyOp22
 70
     1
102
RTVSPropertyOp23
 70
     1
102
RTVSPropertyOp24
 70
     1
102
RTVSPropertyOp25
 70
     1
102
RTVSPropertyOp26
 70
     1
102
RTVSPropertyOp27
 70
     1
  0
XRECORD
  5
7914
102
{ACAD_REACTORS
330
7913
102
}
330
7913
100
AcDbXrecord
280
     1
102
RTVSPropertyOp0
 70
     0
102
RTVSPropertyOp1
 70
     0
102
RTVSPropertyOp2
 70
     0
102
RTVSPropertyOp3
 70
     0
102
RTVSPropertyOp4
 70
     0
102
RTVSPropertyOp5
 70
     0
102
RTVSPropertyOp6
 70
     0
102
RTVSPropertyOp7
 70
     0
102
RTVSPropertyOp8
 70
     0
102
RTVSPropertyOp9
 70
     0
102
RTVSPropertyOp10
 70
     0
102
RTVSPropertyOp11
 70
     0
102
RTVSPropertyOp12
 70
     0
102
RTVSPropertyOp13
 70
     0
102
RTVSPropertyOp14
 70
     2
102
RTVSPropertyOp15
 70
     0
102
RTVSPropertyOp16
 70
     0
102
RTVSPropertyOp17
 70
     0
102
RTVSPropertyOp18
 70
     0
102
RTVSPropertyOp19
 70
     0
102
RTVSPropertyOp20
 70
     0
102
RTVSPropertyOp21
 70
     0
102
RTVSPropertyOp22
 70
     0
102
RTVSPropertyOp23
 70
     0
102
RTVSPropertyOp24
 70
     0
102
RTVSPropertyOp25
 70
     0
102
RTVSPropertyOp26
 70
     0
102
RTVSPropertyOp27
 70
     0
  0
XRECORD
  5
790C
102
{ACAD_REACTORS
330
790B
102
}
330
790B
100
AcDbXrecord
280
     1
102
RTVSPropertyOp0
 70
     1
102
RTVSPropertyOp1
 70
     1
102
RTVSPropertyOp2
 70
     1
102
RTVSPropertyOp3
 70
     1
102
RTVSPropertyOp4
 70
     1
102
RTVSPropertyOp5
 70
     1
102
RTVSPropertyOp6
 70
     1
102
RTVSPropertyOp7
 70
     1
102
RTVSPropertyOp8
 70
     1
102
RTVSPropertyOp9
 70
     1
102
RTVSPropertyOp10
 70
     1
102
RTVSPropertyOp11
 70
     1
102
RTVSPropertyOp12
 70
     1
102
RTVSPropertyOp13
 70
     1
102
RTVSPropertyOp14
 70
     1
102
RTVSPropertyOp15
 70
     1
102
RTVSPropertyOp16
 70
     1
102
RTVSPropertyOp17
 70
     1
102
RTVSPropertyOp18
 70
     1
102
RTVSPropertyOp19
 70
     1
102
RTVSPropertyOp20
 70
     1
102
RTVSPropertyOp21
 70
     1
102
RTVSPropertyOp22
 70
     1
102
RTVSPropertyOp23
 70
     1
102
RTVSPropertyOp24
 70
     1
102
RTVSPropertyOp25
 70
     1
102
RTVSPropertyOp26
 70
     1
102
RTVSPropertyOp27
 70
     1
  0
XRECORD
  5
78F0
102
{ACAD_REACTORS
330
78EF
102
}
330
78EF
100
AcDbXrecord
280
     1
102
RTVSPropertyOp0
 70
     1
102
RTVSPropertyOp1
 70
     1
102
RTVSPropertyOp2
 70
     1
102
RTVSPropertyOp3
 70
     1
102
RTVSPropertyOp4
 70
     1
102
RTVSPropertyOp5
 70
     1
102
RTVSPropertyOp6
 70
     1
102
RTVSPropertyOp7
 70
     1
102
RTVSPropertyOp8
 70
     1
102
RTVSPropertyOp9
 70
     1
102
RTVSPropertyOp10
 70
     1
102
RTVSPropertyOp11
 70
     1
102
RTVSPropertyOp12
 70
     1
102
RTVSPropertyOp13
 70
     1
102
RTVSPropertyOp14
 70
     1
102
RTVSPropertyOp15
 70
     1
102
RTVSPropertyOp16
 70
     1
102
RTVSPropertyOp17
 70
     1
102
RTVSPropertyOp18
 70
     1
102
RTVSPropertyOp19
 70
     1
102
RTVSPropertyOp20
 70
     1
102
RTVSPropertyOp21
 70
     1
102
RTVSPropertyOp22
 70
     1
102
RTVSPropertyOp23
 70
     1
102
RTVSPropertyOp24
 70
     1
102
RTVSPropertyOp25
 70
     1
102
RTVSPropertyOp26
 70
     1
102
RTVSPropertyOp27
 70
     1
  0
XRECORD
  5
78F2
102
{ACAD_REACTORS
330
78F1
102
}
330
78F1
100
AcDbXrecord
280
     1
102
RTVSPropertyOp0
 70
     1
102
RTVSPropertyOp1
 70
     1
102
RTVSPropertyOp2
 70
     1
102
RTVSPropertyOp3
 70
     1
102
RTVSPropertyOp4
 70
     1
102
RTVSPropertyOp5
 70
     1
102
RTVSPropertyOp6
 70
     1
102
RTVSPropertyOp7
 70
     1
102
RTVSPropertyOp8
 70
     1
102
RTVSPropertyOp9
 70
     1
102
RTVSPropertyOp10
 70
     1
102
RTVSPropertyOp11
 70
     1
102
RTVSPropertyOp12
 70
     1
102
RTVSPropertyOp13
 70
     1
102
RTVSPropertyOp14
 70
     1
102
RTVSPropertyOp15
 70
     1
102
RTVSPropertyOp16
 70
     1
102
RTVSPropertyOp17
 70
     1
102
RTVSPropertyOp18
 70
     1
102
RTVSPropertyOp19
 70
     1
102
RTVSPropertyOp20
 70
     1
102
RTVSPropertyOp21
 70
     1
102
RTVSPropertyOp22
 70
     1
102
RTVSPropertyOp23
 70
     1
102
RTVSPropertyOp24
 70
     1
102
RTVSPropertyOp25
 70
     1
102
RTVSPropertyOp26
 70
     1
102
RTVSPropertyOp27
 70
     1
  0
XRECORD
  5
78F4
102
{ACAD_REACTORS
330
78F3
102
}
330
78F3
100
AcDbXrecord
280
     1
102
RTVSPropertyOp0
 70
     1
102
RTVSPropertyOp1
 70
     1
102
RTVSPropertyOp2
 70
     1
102
RTVSPropertyOp3
 70
     1
102
RTVSPropertyOp4
 70
     1
102
RTVSPropertyOp5
 70
     1
102
RTVSPropertyOp6
 70
     1
102
RTVSPropertyOp7
 70
     1
102
RTVSPropertyOp8
 70
     1
102
RTVSPropertyOp9
 70
     1
102
RTVSPropertyOp10
 70
     1
102
RTVSPropertyOp11
 70
     1
102
RTVSPropertyOp12
 70
     1
102
RTVSPropertyOp13
 70
     1
102
RTVSPropertyOp14
 70
     1
102
RTVSPropertyOp15
 70
     1
102
RTVSPropertyOp16
 70
     1
102
RTVSPropertyOp17
 70
     1
102
RTVSPropertyOp18
 70
     1
102
RTVSPropertyOp19
 70
     1
102
RTVSPropertyOp20
 70
     1
102
RTVSPropertyOp21
 70
     1
102
RTVSPropertyOp22
 70
     1
102
RTVSPropertyOp23
 70
     1
102
RTVSPropertyOp24
 70
     1
102
RTVSPropertyOp25
 70
     1
102
RTVSPropertyOp26
 70
     1
102
RTVSPropertyOp27
 70
     1
  0
XRECORD
  5
78F6
102
{ACAD_REACTORS
330
78F5
102
}
330
78F5
100
AcDbXrecord
280
     1
102
RTVSPropertyOp0
 70
     1
102
RTVSPropertyOp1
 70
     1
102
RTVSPropertyOp2
 70
     1
102
RTVSPropertyOp3
 70
     1
102
RTVSPropertyOp4
 70
     1
102
RTVSPropertyOp5
 70
     1
102
RTVSPropertyOp6
 70
     1
102
RTVSPropertyOp7
 70
     1
102
RTVSPropertyOp8
 70
     1
102
RTVSPropertyOp9
 70
     1
102
RTVSPropertyOp10
 70
     1
102
RTVSPropertyOp11
 70
     1
102
RTVSPropertyOp12
 70
     1
102
RTVSPropertyOp13
 70
     1
102
RTVSPropertyOp14
 70
     1
102
RTVSPropertyOp15
 70
     1
102
RTVSPropertyOp16
 70
     1
102
RTVSPropertyOp17
 70
     1
102
RTVSPropertyOp18
 70
     1
102
RTVSPropertyOp19
 70
     1
102
RTVSPropertyOp20
 70
     1
102
RTVSPropertyOp21
 70
     1
102
RTVSPropertyOp22
 70
     1
102
RTVSPropertyOp23
 70
     1
102
RTVSPropertyOp24
 70
     1
102
RTVSPropertyOp25
 70
     1
102
RTVSPropertyOp26
 70
     1
102
RTVSPropertyOp27
 70
     1
  0
XRECORD
  5
7910
102
{ACAD_REACTORS
330
790F
102
}
330
790F
100
AcDbXrecord
280
     1
102
RTVSPropertyOp0
 70
     0
102
RTVSPropertyOp1
 70
     0
102
RTVSPropertyOp2
 70
     0
102
RTVSPropertyOp3
 70
     0
102
RTVSPropertyOp4
 70
     0
102
RTVSPropertyOp5
 70
     0
102
RTVSPropertyOp6
 70
     0
102
RTVSPropertyOp7
 70
     0
102
RTVSPropertyOp8
 70
     0
102
RTVSPropertyOp9
 70
     0
102
RTVSPropertyOp10
 70
     0
102
RTVSPropertyOp11
 70
     0
102
RTVSPropertyOp12
 70
     0
102
RTVSPropertyOp13
 70
     0
102
RTVSPropertyOp14
 70
     2
102
RTVSPropertyOp15
 70
     0
102
RTVSPropertyOp16
 70
     0
102
RTVSPropertyOp17
 70
     0
102
RTVSPropertyOp18
 70
     0
102
RTVSPropertyOp19
 70
     0
102
RTVSPropertyOp20
 70
     0
102
RTVSPropertyOp21
 70
     0
102
RTVSPropertyOp22
 70
     0
102
RTVSPropertyOp23
 70
     0
102
RTVSPropertyOp24
 70
     0
102
RTVSPropertyOp25
 70
     0
102
RTVSPropertyOp26
 70
     0
102
RTVSPropertyOp27
 70
     0
  0
XRECORD
  5
790A
102
{ACAD_REACTORS
330
7909
102
}
330
7909
100
AcDbXrecord
280
     1
102
RTVSPropertyOp0
 70
     1
102
RTVSPropertyOp1
 70
     1
102
RTVSPropertyOp2
 70
     1
102
RTVSPropertyOp3
 70
     1
102
RTVSPropertyOp4
 70
     1
102
RTVSPropertyOp5
 70
     1
102
RTVSPropertyOp6
 70
     1
102
RTVSPropertyOp7
 70
     1
102
RTVSPropertyOp8
 70
     1
102
RTVSPropertyOp9
 70
     1
102
RTVSPropertyOp10
 70
     1
102
RTVSPropertyOp11
 70
     1
102
RTVSPropertyOp12
 70
     1
102
RTVSPropertyOp13
 70
     1
102
RTVSPropertyOp14
 70
     1
102
RTVSPropertyOp15
 70
     1
102
RTVSPropertyOp16
 70
     1
102
RTVSPropertyOp17
 70
     1
102
RTVSPropertyOp18
 70
     1
102
RTVSPropertyOp19
 70
     1
102
RTVSPropertyOp20
 70
     1
102
RTVSPropertyOp21
 70
     1
102
RTVSPropertyOp22
 70
     1
102
RTVSPropertyOp23
 70
     1
102
RTVSPropertyOp24
 70
     1
102
RTVSPropertyOp25
 70
     1
102
RTVSPropertyOp26
 70
     1
102
RTVSPropertyOp27
 70
     1
  0
XRECORD
  5
7912
102
{ACAD_REACTORS
330
7911
102
}
330
7911
100
AcDbXrecord
280
     1
102
RTVSPropertyOp0
 70
     0
102
RTVSPropertyOp1
 70
     0
102
RTVSPropertyOp2
 70
     0
102
RTVSPropertyOp3
 70
     0
102
RTVSPropertyOp4
 70
     0
102
RTVSPropertyOp5
 70
     0
102
RTVSPropertyOp6
 70
     0
102
RTVSPropertyOp7
 70
     0
102
RTVSPropertyOp8
 70
     0
102
RTVSPropertyOp9
 70
     0
102
RTVSPropertyOp10
 70
     0
102
RTVSPropertyOp11
 70
     0
102
RTVSPropertyOp12
 70
     0
102
RTVSPropertyOp13
 70
     0
102
RTVSPropertyOp14
 70
     2
102
RTVSPropertyOp15
 70
     0
102
RTVSPropertyOp16
 70
     0
102
RTVSPropertyOp17
 70
     0
102
RTVSPropertyOp18
 70
     0
102
RTVSPropertyOp19
 70
     0
102
RTVSPropertyOp20
 70
     0
102
RTVSPropertyOp21
 70
     0
102
RTVSPropertyOp22
 70
     0
102
RTVSPropertyOp23
 70
     0
102
RTVSPropertyOp24
 70
     0
102
RTVSPropertyOp25
 70
     0
102
RTVSPropertyOp26
 70
     0
102
RTVSPropertyOp27
 70
     0
  0
XRECORD
  5
7902
102
{ACAD_REACTORS
330
7901
102
}
330
7901
100
AcDbXrecord
280
     1
102
RTVSPropertyOp0
 70
     1
102
RTVSPropertyOp1
 70
     1
102
RTVSPropertyOp2
 70
     1
102
RTVSPropertyOp3
 70
     1
102
RTVSPropertyOp4
 70
     1
102
RTVSPropertyOp5
 70
     1
102
RTVSPropertyOp6
 70
     1
102
RTVSPropertyOp7
 70
     1
102
RTVSPropertyOp8
 70
     1
102
RTVSPropertyOp9
 70
     1
102
RTVSPropertyOp10
 70
     1
102
RTVSPropertyOp11
 70
     1
102
RTVSPropertyOp12
 70
     1
102
RTVSPropertyOp13
 70
     1
102
RTVSPropertyOp14
 70
     1
102
RTVSPropertyOp15
 70
     1
102
RTVSPropertyOp16
 70
     1
102
RTVSPropertyOp17
 70
     1
102
RTVSPropertyOp18
 70
     1
102
RTVSPropertyOp19
 70
     1
102
RTVSPropertyOp20
 70
     1
102
RTVSPropertyOp21
 70
     1
102
RTVSPropertyOp22
 70
     1
102
RTVSPropertyOp23
 70
     1
102
RTVSPropertyOp24
 70
     1
102
RTVSPropertyOp25
 70
     1
102
RTVSPropertyOp26
 70
     1
102
RTVSPropertyOp27
 70
     1
  0
XRECORD
  5
7908
102
{ACAD_REACTORS
330
7907
102
}
330
7907
100
AcDbXrecord
280
     1
102
RTVSPropertyOp0
 70
     1
102
RTVSPropertyOp1
 70
     1
102
RTVSPropertyOp2
 70
     1
102
RTVSPropertyOp3
 70
     1
102
RTVSPropertyOp4
 70
     1
102
RTVSPropertyOp5
 70
     1
102
RTVSPropertyOp6
 70
     1
102
RTVSPropertyOp7
 70
     1
102
RTVSPropertyOp8
 70
     1
102
RTVSPropertyOp9
 70
     1
102
RTVSPropertyOp10
 70
     1
102
RTVSPropertyOp11
 70
     1
102
RTVSPropertyOp12
 70
     1
102
RTVSPropertyOp13
 70
     1
102
RTVSPropertyOp14
 70
     1
102
RTVSPropertyOp15
 70
     1
102
RTVSPropertyOp16
 70
     1
102
RTVSPropertyOp17
 70
     1
102
RTVSPropertyOp18
 70
     1
102
RTVSPropertyOp19
 70
     1
102
RTVSPropertyOp20
 70
     1
102
RTVSPropertyOp21
 70
     1
102
RTVSPropertyOp22
 70
     1
102
RTVSPropertyOp23
 70
     1
102
RTVSPropertyOp24
 70
     1
102
RTVSPropertyOp25
 70
     1
102
RTVSPropertyOp26
 70
     1
102
RTVSPropertyOp27
 70
     1
  0
ENDSEC
  0
EOF
