  0
SECTION
  2
HEADER
  9
$ACADVER
  1
AC1018
  9
$ACADMAINTVER
 70
   104
  9
$DWGCODEPAGE
  3
ANSI_1252
  9
$LASTSAVEDBY
  1
admin
  9
$INSBASE
 10
0.0
 20
0.0
 30
0.0
  9
$EXTMIN
 10
267.1600325622514
 20
88.88594609032589
 30
-0.0015258207003583
  9
$EXTMAX
 10
665.5117089740015
 20
720.1206338826596
 30
0.0000000349246037
  9
$LIMMIN
 10
0.0
 20
0.0
  9
$LIMMAX
 10
420.0
 20
297.0
  9
$ORTHOMODE
 70
     0
  9
$REGENMODE
 70
     1
  9
$FILLMODE
 70
     1
  9
$QTEXTMODE
 70
     0
  9
$MIRRTEXT
 70
     0
  9
$LTSCALE
 40
1.0
  9
$ATTMODE
 70
     1
  9
$TEXTSIZE
 40
2.5
  9
$TRACEWID
 40
1.0
  9
$TEXTSTYLE
  7
Standard
  9
$CLAYER
  8
0
  9
$CELTYPE
  6
ByLayer
  9
$CECOLOR
 62
   256
  9
$CELTSCALE
 40
1.0
  9
$DISPSILH
 70
     0
  9
$DIMSCALE
 40
1.0
  9
$DIMASZ
 40
2.5
  9
$DIMEXO
 40
0.625
  9
$DIMDLI
 40
3.75
  9
$DIMRND
 40
0.0
  9
$DIMDLE
 40
0.0
  9
$DIMEXE
 40
1.25
  9
$DIMTP
 40
0.0
  9
$DIMTM
 40
0.0
  9
$DIMTXT
 40
2.5
  9
$DIMCEN
 40
2.5
  9
$DIMTSZ
 40
0.0
  9
$DIMTOL
 70
     0
  9
$DIMLIM
 70
     0
  9
$DIMTIH
 70
     0
  9
$DIMTOH
 70
     0
  9
$DIMSE1
 70
     0
  9
$DIMSE2
 70
     0
  9
$DIMTAD
 70
     1
  9
$DIMZIN
 70
     8
  9
$DIMBLK
  1

  9
$DIMASO
 70
     1
  9
$DIMSHO
 70
     1
  9
$DIMPOST
  1

  9
$DIMAPOST
  1

  9
$DIMALT
 70
     0
  9
$DIMALTD
 70
     3
  9
$DIMALTF
 40
0.03937007874016
  9
$DIMLFAC
 40
1.0
  9
$DIMTOFL
 70
     1
  9
$DIMTVP
 40
0.0
  9
$DIMTIX
 70
     0
  9
$DIMSOXD
 70
     0
  9
$DIMSAH
 70
     0
  9
$DIMBLK1
  1

  9
$DIMBLK2
  1

  9
$DIMSTYLE
  2
ISO-25
  9
$DIMCLRD
 70
     0
  9
$DIMCLRE
 70
     0
  9
$DIMCLRT
 70
     0
  9
$DIMTFAC
 40
1.0
  9
$DIMGAP
 40
0.625
  9
$DIMJUST
 70
     0
  9
$DIMSD1
 70
     0
  9
$DIMSD2
 70
     0
  9
$DIMTOLJ
 70
     0
  9
$DIMTZIN
 70
     8
  9
$DIMALTZ
 70
     0
  9
$DIMALTTZ
 70
     0
  9
$DIMUPT
 70
     0
  9
$DIMDEC
 70
     2
  9
$DIMTDEC
 70
     2
  9
$DIMALTU
 70
     2
  9
$DIMALTTD
 70
     3
  9
$DIMTXSTY
  7
Standard
  9
$DIMAUNIT
 70
     0
  9
$DIMADEC
 70
     0
  9
$DIMALTRND
 40
0.0
  9
$DIMAZIN
 70
     0
  9
$DIMDSEP
 70
    44
  9
$DIMATFIT
 70
     3
  9
$DIMFRAC
 70
     0
  9
$DIMLDRBLK
  1

  9
$DIMLUNIT
 70
     2
  9
$DIMLWD
 70
    -2
  9
$DIMLWE
 70
    -2
  9
$DIMTMOVE
 70
     0
  9
$LUNITS
 70
     2
  9
$LUPREC
 70
     4
  9
$SKETCHINC
 40
1.0
  9
$FILLETRAD
 40
0.0
  9
$AUNITS
 70
     0
  9
$AUPREC
 70
     0
  9
$MENU
  1
.
  9
$ELEVATION
 40
0.0
  9
$PELEVATION
 40
0.0
  9
$THICKNESS
 40
0.0
  9
$LIMCHECK
 70
     0
  9
$CHAMFERA
 40
0.0
  9
$CHAMFERB
 40
0.0
  9
$CHAMFERC
 40
0.0
  9
$CHAMFERD
 40
0.0
  9
$SKPOLY
 70
     0
  9
$TDCREATE
 40
2457869.280614120
  9
$TDUCREATE
 40
2457869.197280787
  9
$TDUPDATE
 40
2457869.347998021
  9
$TDUUPDATE
 40
2457869.264664688
  9
$TDINDWG
 40
0.0673842824
  9
$TDUSRTIMER
 40
0.0673840972
  9
$USRTIMER
 70
     1
  9
$ANGBASE
 50
0.0
  9
$ANGDIR
 70
     0
  9
$PDMODE
 70
     0
  9
$PDSIZE
 40
0.0
  9
$PLINEWID
 40
0.0
  9
$SPLFRAME
 70
     0
  9
$SPLINETYPE
 70
     6
  9
$SPLINESEGS
 70
     8
  9
$HANDSEED
  5
7A21
  9
$SURFTAB1
 70
     6
  9
$SURFTAB2
 70
     6
  9
$SURFTYPE
 70
     6
  9
$SURFU
 70
     6
  9
$SURFV
 70
     6
  9
$UCSBASE
  2

  9
$UCSNAME
  2

  9
$UCSORG
 10
0.0
 20
0.0
 30
0.0
  9
$UCSXDIR
 10
1.0
 20
0.0
 30
0.0
  9
$UCSYDIR
 10
0.0
 20
1.0
 30
0.0
  9
$UCSORTHOREF
  2

  9
$UCSORTHOVIEW
 70
     0
  9
$UCSORGTOP
 10
0.0
 20
0.0
 30
0.0
  9
$UCSORGBOTTOM
 10
0.0
 20
0.0
 30
0.0
  9
$UCSORGLEFT
 10
0.0
 20
0.0
 30
0.0
  9
$UCSORGRIGHT
 10
0.0
 20
0.0
 30
0.0
  9
$UCSORGFRONT
 10
0.0
 20
0.0
 30
0.0
  9
$UCSORGBACK
 10
0.0
 20
0.0
 30
0.0
  9
$PUCSBASE
  2

  9
$PUCSNAME
  2

  9
$PUCSORG
 10
0.0
 20
0.0
 30
0.0
  9
$PUCSXDIR
 10
1.0
 20
0.0
 30
0.0
  9
$PUCSYDIR
 10
0.0
 20
1.0
 30
0.0
  9
$PUCSORTHOREF
  2

  9
$PUCSORTHOVIEW
 70
     0
  9
$PUCSORGTOP
 10
0.0
 20
0.0
 30
0.0
  9
$PUCSORGBOTTOM
 10
0.0
 20
0.0
 30
0.0
  9
$PUCSORGLEFT
 10
0.0
 20
0.0
 30
0.0
  9
$PUCSORGRIGHT
 10
0.0
 20
0.0
 30
0.0
  9
$PUCSORGFRONT
 10
0.0
 20
0.0
 30
0.0
  9
$PUCSORGBACK
 10
0.0
 20
0.0
 30
0.0
  9
$USERI1
 70
     0
  9
$USERI2
 70
     0
  9
$USERI3
 70
     0
  9
$USERI4
 70
     0
  9
$USERI5
 70
     0
  9
$USERR1
 40
0.0
  9
$USERR2
 40
0.0
  9
$USERR3
 40
0.0
  9
$USERR4
 40
0.0
  9
$USERR5
 40
0.0
  9
$WORLDVIEW
 70
     1
  9
$SHADEDGE
 70
     3
  9
$SHADEDIF
 70
    70
  9
$TILEMODE
 70
     1
  9
$MAXACTVP
 70
    64
  9
$PINSBASE
 10
0.0
 20
0.0
 30
0.0
  9
$PLIMCHECK
 70
     0
  9
$PEXTMIN
 10
1.000000000000000E+20
 20
1.000000000000000E+20
 30
1.000000000000000E+20
  9
$PEXTMAX
 10
-1.000000000000000E+20
 20
-1.000000000000000E+20
 30
-1.000000000000000E+20
  9
$PLIMMIN
 10
0.0
 20
0.0
  9
$PLIMMAX
 10
420.0
 20
297.0
  9
$UNITMODE
 70
     0
  9
$VISRETAIN
 70
     1
  9
$PLINEGEN
 70
     0
  9
$PSLTSCALE
 70
     1
  9
$TREEDEPTH
 70
  3020
  9
$CMLSTYLE
  2
Standard
  9
$CMLJUST
 70
     0
  9
$CMLSCALE
 40
20.0
  9
$PROXYGRAPHICS
 70
     1
  9
$MEASUREMENT
 70
     1
  9
$CELWEIGHT
370
    -1
  9
$ENDCAPS
280
     0
  9
$JOINSTYLE
280
     0
  9
$LWDISPLAY
290
     0
  9
$INSUNITS
 70
     4
  9
$HYPERLINKBASE
  1

  9
$STYLESHEET
  1

  9
$XEDIT
290
     1
  9
$CEPSNTYPE
380
     0
  9
$PSTYLEMODE
290
     1
  9
$FINGERPRINTGUID
  2
{9DFB5F12-FE38-410F-B4C1-738DA96BFA2A}
  9
$VERSIONGUID
  2
{15CC6F3C-D765-4664-A50E-EC5381BD8781}
  9
$EXTNAMES
290
     1
  9
$PSVPSCALE
 40
0.0
  9
$OLESTARTUP
290
     0
  9
$SORTENTS
280
   127
  9
$INDEXCTL
280
     0
  9
$HIDETEXT
280
     1
  9
$XCLIPFRAME
290
     0
  9
$HALOGAP
280
     0
  9
$OBSCOLOR
 70
   257
  9
$OBSLTYPE
280
     0
  9
$INTERSECTIONDISPLAY
280
     0
  9
$INTERSECTIONCOLOR
 70
   257
  9
$DIMASSOC
280
     2
  9
$PROJECTNAME
  1

  0
ENDSEC
  0
SECTION
  2
CLASSES
  0
CLASS
  1
ACDBDICTIONARYWDFLT
  2
AcDbDictionaryWithDefault
  3
ObjectDBX Classes
 90
        0
 91
        1
280
     0
281
     0
  0
CLASS
  1
MATERIAL
  2
AcDbMaterial
  3
ObjectDBX Classes
 90
     1153
 91
        3
280
     0
281
     0
  0
CLASS
  1
VISUALSTYLE
  2
AcDbVisualStyle
  3
ObjectDBX Classes
 90
     4095
 91
       19
280
     0
281
     0
  0
CLASS
  1
SCALE
  2
AcDbScale
  3
ObjectDBX Classes
 90
     1153
 91
       17
280
     0
281
     0
  0
CLASS
  1
TABLESTYLE
  2
AcDbTableStyle
  3
ObjectDBX Classes
 90
     4095
 91
        1
280
     0
281
     0
  0
CLASS
  1
MLEADERSTYLE
  2
AcDbMLeaderStyle
  3
ACDB_MLEADERSTYLE_CLASS
 90
     4095
 91
        1
280
     0
281
     0
  0
CLASS
  1
SORTENTSTABLE
  2
AcDbSortentsTable
  3
ObjectDBX Classes
 90
        0
 91
      125
280
     0
281
     0
  0
CLASS
  1
AEC_REFEDIT_STATUS_TRACKER
  2
AecDbRefEditStatusTracker
  3
AecArchBase60|Product Desc: Autodesk Architectural Desktop 2007 |Company: Autodesk,Inc. |WEB Address: www.autodesk.com
 90
      129
 91
        1
280
     0
281
     0
  0
CLASS
  1
NPOCOLLECTION
  2
AcDbImpNonPersistentObjectsCollection
  3
ObjectDBX Classes
 90
     1153
 91
        1
280
     0
281
     0
  0
CLASS
  1
DICTIONARYVAR
  2
AcDbDictionaryVar
  3
ObjectDBX Classes
 90
        0
 91
      155
280
     0
281
     0
  0
CLASS
  1
CELLSTYLEMAP
  2
AcDbCellStyleMap
  3
ObjectDBX Classes
 90
     1152
 91
       18
280
     0
281
     0
  0
CLASS
  1
DIMASSOC
  2
AcDbDimAssoc
  3
"AcDbDimAssoc|Product Desc:     AcDim ARX App For Dimension|Company:          Autodesk, Inc.|WEB Address:      www.autodesk.com"
 90
        0
 91
        2
280
     0
281
     0
  0
ENDSEC
  0
SECTION
  2
TABLES
  0
TABLE
  2
VPORT
  5
8
330
0
100
AcDbSymbolTable
 70
     1
  0
VPORT
  5
52
330
8
100
AcDbSymbolTableRecord
100
AcDbViewportTableRecord
  2
*Active
 70
     0
 10
0.0
 20
0.0
 11
1.0
 21
1.0
 12
466.3358707681265
 22
404.5032899864927
 13
0.0
 23
0.0
 14
10.0
 24
10.0
 15
10.0
 25
10.0
 16
0.0
 26
0.0
 36
1.0
 17
0.0
 27
0.0
 37
0.0
 40
635.3380552102687
 41
1.888286334056399
 42
50.0
 43
0.0
 44
0.0
 50
0.0
 51
0.0
 71
     0
 72
  1000
 73
     1
 74
     3
 75
     0
 76
     0
 77
     0
 78
     0
281
     0
 65
     1
110
0.0
120
0.0
130
0.0
111
1.0
121
0.0
131
0.0
112
0.0
122
1.0
132
0.0
 79
     0
146
0.0
  0
ENDTAB
  0
TABLE
  2
LTYPE
  5
5
330
0
100
AcDbSymbolTable
 70
     2
  0
LTYPE
  5
56
330
5
100
AcDbSymbolTableRecord
100
AcDbLinetypeTableRecord
  2
ByBlock
 70
     0
  3

 72
    65
 73
     0
 40
0.0
  0
LTYPE
  5
57
330
5
100
AcDbSymbolTableRecord
100
AcDbLinetypeTableRecord
  2
ByLayer
 70
     0
  3

 72
    65
 73
     0
 40
0.0
  0
LTYPE
  5
58
330
5
100
AcDbSymbolTableRecord
100
AcDbLinetypeTableRecord
  2
Continuous
 70
     0
  3
Solid line
 72
    65
 73
     0
 40
0.0
  0
LTYPE
  5
791E
330
5
100
AcDbSymbolTableRecord
100
AcDbLinetypeTableRecord
  2
JIS_02_0.7
 70
     0
  3
HIDDEN0.75 _ _ _ _ _ _ _ _ _ _ _ _ _ _ _ _ _
 72
    65
 73
     2
 40
1.35
 49
0.75
 74
     0
 49
-0.6
 74
     0
  0
ENDTAB
  0
TABLE
  2
LAYER
  5
2
102
{ACAD_XDICTIONARY
360
792E
102
}
330
0
100
AcDbSymbolTable
 70
     6
  0
LAYER
  5
4F
330
2
100
AcDbSymbolTableRecord
100
AcDbLayerTableRecord
  2
0
 70
     0
 62
     7
  6
Continuous
370
    -3
390
F
  0
LAYER
  5
791F
330
2
100
AcDbSymbolTableRecord
100
AcDbLayerTableRecord
  2
F_01 sichtbar
 70
     0
 62
     7
  6
Continuous
370
    -3
390
F
1001
AcAecLayerStandard
1000

1000

  0
LAYER
  5
7920
330
2
100
AcDbSymbolTableRecord
100
AcDbLayerTableRecord
  2
F_31 Ansichtsfenster
 70
     0
 62
    12
  6
Continuous
290
     0
370
    40
390
F
1001
AcAecLayerStandard
1000

1000

  0
LAYER
  5
7921
330
2
100
AcDbSymbolTableRecord
100
AcDbLayerTableRecord
  2
F_02 unsichtbar
 70
     0
 62
     8
  6
JIS_02_0.7
370
    -3
390
F
1001
AcAecLayerStandard
1000

1000

  0
LAYER
  5
7922
330
2
100
AcDbSymbolTableRecord
100
AcDbLayerTableRecord
  2
F_15 Schr-Mauer hell
 70
     0
 62
   254
  6
Continuous
370
    -3
390
F
1001
AcAecLayerStandard
1000

1000

  0
LAYER
  5
7923
330
2
100
AcDbSymbolTableRecord
100
AcDbLayerTableRecord
  2
F_18 Schr-Holz hell
 70
     0
 62
    41
  6
Continuous
370
    -3
390
F
1001
AcAecLayerStandard
1000

1000

  0
ENDTAB
  0
TABLE
  2
STYLE
  5
3
330
0
100
AcDbSymbolTable
 70
     3
  0
STYLE
  5
50
330
3
100
AcDbSymbolTableRecord
100
AcDbTextStyleTableRecord
  2
Standard
 70
     0
 40
0.0
 41
1.0
 50
0.0
 71
     0
 42
2.5
  3
txt
  4

  0
STYLE
  5
55
330
3
100
AcDbSymbolTableRecord
100
AcDbTextStyleTableRecord
  2
Annotative
 70
     0
 40
0.0
 41
1.0
 50
0.0
 71
     0
 42
0.2
  3
txt
  4

1001
AcadAnnotative
1000
AnnotativeData
1002
{
1070
     1
1070
     1
1002
}
  0
STYLE
  5
7924
330
3
100
AcDbSymbolTableRecord
100
AcDbTextStyleTableRecord
  2
Arial
 70
     0
 40
0.0
 41
1.0
 50
0.0
 71
     0
 42
3.0
  3
ARIALN.TTF
  4

1001
AcadAnnotative
1000
AnnotativeData
1002
{
1070
     1
1070
     1
1002
}
1001
ACAD
1000
Arial Narrow
1071
       34
  0
ENDTAB
  0
TABLE
  2
VIEW
  5
6
330
0
100
AcDbSymbolTable
 70
     0
  0
ENDTAB
  0
TABLE
  2
UCS
  5
7
330
0
100
AcDbSymbolTable
 70
     0
  0
ENDTAB
  0
TABLE
  2
APPID
  5
9
330
0
100
AcDbSymbolTable
 70
     8
  0
APPID
  5
51
330
9
100
AcDbSymbolTableRecord
100
AcDbRegAppTableRecord
  2
ACAD
 70
     0
  0
APPID
  5
59
330
9
100
AcDbSymbolTableRecord
100
AcDbRegAppTableRecord
  2
AcadAnnotative
 70
     0
  0
APPID
  5
792A
330
9
100
AcDbSymbolTableRecord
100
AcDbRegAppTableRecord
  2
AcAecLayerStandard
 70
     0
  0
APPID
  5
792B
330
9
100
AcDbSymbolTableRecord
100
AcDbRegAppTableRecord
  2
ACAD_PSEXT
 70
     0
  0
APPID
  5
792C
330
9
100
AcDbSymbolTableRecord
100
AcDbRegAppTableRecord
  2
ACAD_DSTYLE_DIMJAG
 70
     0
  0
APPID
  5
792D
330
9
100
AcDbSymbolTableRecord
100
AcDbRegAppTableRecord
  2
ACAD_DSTYLE_DIMTALN
 70
     0
  0
APPID
  5
7A1E
330
9
100
AcDbSymbolTableRecord
100
AcDbRegAppTableRecord
  2
ACAD_DSTYLE_DIMJOGGED_JOGANGLE_SYMBOL
 70
     0
  0
APPID
  5
7A20
330
9
100
AcDbSymbolTableRecord
100
AcDbRegAppTableRecord
  2
ACAD_MLEADERVER
 70
     0
  0
ENDTAB
  0
TABLE
  2
DIMSTYLE
  5
A
330
0
100
AcDbSymbolTable
 70
     7
100
AcDbDimStyleTable
 71
     0
  0
DIMSTYLE
105
53
330
A
100
AcDbSymbolTableRecord
100
AcDbDimStyleTableRecord
  2
ISO-25
 70
     0
 41
2.5
 42
0.625
 43
3.75
 44
1.25
 73
     0
 74
     0
 77
     1
 78
     8
140
2.5
141
2.5
143
0.03937007874016
147
0.625
171
     3
172
     1
271
     2
272
     2
274
     3
278
    44
283
     0
284
     8
340
50
1001
ACAD_DSTYLE_DIMJOGGED_JOGANGLE_SYMBOL
1070
   384
1040
1.570796326794896
  0
DIMSTYLE
105
54
330
A
100
AcDbSymbolTableRecord
100
AcDbDimStyleTableRecord
  2
Annotative
 70
     0
340
50
1001
AcadAnnotative
1000
AnnotativeData
1002
{
1070
     1
1070
     1
1002
}
  0
DIMSTYLE
105
7925
330
A
100
AcDbSymbolTableRecord
100
AcDbDimStyleTableRecord
  2
MST 1-1
 70
     0
 41
2.0
 42
2.0
 43
2.0
 44
1.0
 46
2.0
 73
     0
 74
     0
 77
     3
 78
     8
 79
     2
140
3.0
141
2.5
143
0.03937007874016
147
1.0
171
     3
176
   256
177
   256
178
     3
179
     1
271
     1
272
     1
274
     3
279
     2
284
     8
340
7924
342
7918
1001
ACAD_DSTYLE_DIMJAG
1070
   388
1040
1.5
1001
ACAD_DSTYLE_DIMTALN
1070
   392
1070
     0
  0
DIMSTYLE
105
7926
330
A
100
AcDbSymbolTableRecord
100
AcDbDimStyleTableRecord
  2
MST 1-2
 70
     0
 40
2.0
 41
2.0
 42
2.0
 43
2.0
 44
1.0
 46
2.0
 73
     0
 74
     0
 77
     3
 78
     8
 79
     2
140
3.0
141
1.0
143
0.03937007874016
147
1.0
171
     3
176
   256
177
   256
178
     3
179
     1
271
     1
272
     1
274
     3
279
     2
284
     8
340
7924
342
7918
  0
DIMSTYLE
105
7927
330
A
100
AcDbSymbolTableRecord
100
AcDbDimStyleTableRecord
  2
MST 1-5
 70
     0
 40
5.0
 41
1.5
 42
2.0
 43
2.0
 44
1.0
 46
2.0
 73
     0
 74
     0
 77
     3
 78
     8
 79
     2
140
3.0
141
1.0
143
0.03937007874016
147
1.0
171
     3
176
   256
177
   256
178
     3
179
     1
271
     1
272
     1
274
     3
279
     2
284
     8
340
7924
342
7918
  0
DIMSTYLE
105
7928
330
A
100
AcDbSymbolTableRecord
100
AcDbDimStyleTableRecord
  2
MST 1-10
 70
     0
 40
10.0
 41
2.0
 42
2.0
 43
2.0
 44
2.0
 46
2.0
 73
     0
 74
     0
 77
     3
 78
     8
 79
     2
140
3.0
141
1.0
143
0.03937007874016
147
1.0
171
     3
176
   256
177
   256
178
     3
179
     1
271
     1
272
     1
274
     3
279
     2
284
     8
340
7924
342
7918
1001
ACAD_DSTYLE_DIMJAG
1070
   388
1040
1.5
1001
ACAD_DSTYLE_DIMTALN
1070
   392
1070
     0
  0
DIMSTYLE
105
7929
330
A
100
AcDbSymbolTableRecord
100
AcDbDimStyleTableRecord
  2
MST 1-20
 70
     0
 40
20.0
 41
2.0
 42
2.0
 43
2.0
 44
1.0
 46
2.0
 73
     0
 74
     0
 77
     3
 78
     8
 79
     2
140
3.0
141
1.0
143
0.03937007874016
147
1.0
171
     3
176
   256
177
   256
178
     3
179
     1
271
     1
272
     1
274
     3
279
     2
284
     8
340
7924
342
7918
  0
ENDTAB
  0
TABLE
  2
BLOCK_RECORD
  5
1
330
0
100
AcDbSymbolTable
 70
     3
  0
BLOCK_RECORD
  5
67
330
1
100
AcDbSymbolTableRecord
100
AcDbBlockTableRecord
  2
*Model_Space
340
6A
  0
BLOCK_RECORD
  5
63
330
1
100
AcDbSymbolTableRecord
100
AcDbBlockTableRecord
  2
*Paper_Space
340
66
  0
BLOCK_RECORD
  5
6B
330
1
100
AcDbSymbolTableRecord
100
AcDbBlockTableRecord
  2
*Paper_Space0
340
6E
  0
BLOCK_RECORD
  5
7918
102
{ACAD_XDICTIONARY
360
7919
102
}
330
1
100
AcDbSymbolTableRecord
100
AcDbBlockTableRecord
  2
_ArchTick
340
0
310
2800000020000000200000000100080000000000000400000000000000000000000000000000000000000000000080000080000000808000800000008000800080800000C0C0C000C0DCC000F0CAA6000020400000206000002080000020A0000020C0000020E00000400000004020000040400000406000004080000040A0
310
000040C0000040E00000600000006020000060400000606000006080000060A0000060C0000060E00000800000008020000080400000806000008080000080A0000080C0000080E00000A0000000A0200000A0400000A0600000A0800000A0A00000A0C00000A0E00000C0000000C0200000C0400000C0600000C0800000C0
310
A00000C0C00000C0E00000E0000000E0200000E0400000E0600000E0800000E0A00000E0C00000E0E00040000000400020004000400040006000400080004000A0004000C0004000E00040200000402020004020400040206000402080004020A0004020C0004020E000404000004040200040404000404060004040800040
310
40A0004040C0004040E00040600000406020004060400040606000406080004060A0004060C0004060E00040800000408020004080400040806000408080004080A0004080C0004080E00040A0000040A0200040A0400040A0600040A0800040A0A00040A0C00040A0E00040C0000040C0200040C0400040C0600040C08000
310
40C0A00040C0C00040C0E00040E0000040E0200040E0400040E0600040E0800040E0A00040E0C00040E0E00080000000800020008000400080006000800080008000A0008000C0008000E00080200000802020008020400080206000802080008020A0008020C0008020E00080400000804020008040400080406000804080
310
008040A0008040C0008040E00080600000806020008060400080606000806080008060A0008060C0008060E00080800000808020008080400080806000808080008080A0008080C0008080E00080A0000080A0200080A0400080A0600080A0800080A0A00080A0C00080A0E00080C0000080C0200080C0400080C0600080C0
310
800080C0A00080C0C00080C0E00080E0000080E0200080E0400080E0600080E0800080E0A00080E0C00080E0E000C0000000C0002000C0004000C0006000C0008000C000A000C000C000C000E000C0200000C0202000C0204000C0206000C0208000C020A000C020C000C020E000C0400000C0402000C0404000C0406000C0
310
408000C040A000C040C000C040E000C0600000C0602000C0604000C0606000C0608000C060A000C060C000C060E000C0800000C0802000C0804000C0806000C0808000C080A000C080C000C080E000C0A00000C0A02000C0A04000C0A06000C0A08000C0A0A000C0A0C000C0A0E000C0C00000C0C02000C0C04000C0C06000
310
C0C08000C0C0A000F0FBFF00A4A0A000808080000000FF0000FF000000FFFF00FF000000FF00FF00FFFF0000FFFFFF00FFFFFF00FFFFFFFFFFFFFFFFFFFFFFFFFFFFFFFFFFFFFFFFFFFFFFFFFFFFFFFFFFFF00FF00FFFFFFFFFFFFFFFFFFFFFFFFFFFFFFFFFFFFFFFFFFFFFFFFFFFFFFFF00FFFFFF00FFFFFFFFFFFFFFFFFF
310
FFFFFFFFFFFFFFFFFFFFFFFFFFFFFFFFFF00FFFFFFFFFF00FFFFFFFFFFFFFFFFFFFFFFFFFFFFFFFFFFFFFFFFFFFFFFFFFFFF00FFFFFFFFFF00FFFFFFFFFFFFFFFFFFFFFFFFFFFFFFFFFFFFFFFFFFFFFFFFFFFF00FFFFFFFFFF00FFFFFFFFFFFFFFFFFFFFFFFFFFFFFFFFFFFFFFFFFFFFFFFFFFFF00FFFFFFFFFF00FFFFFFFF
310
FFFFFFFFFFFFFFFFFFFFFFFFFFFFFFFFFFFFFFFFFFFF00FFFFFFFFFF00FFFFFFFFFFFFFFFFFFFFFFFFFFFFFFFFFFFFFFFFFFFFFFFFFFFF00FFFFFFFFFF00FFFFFFFFFFFFFFFFFFFFFFFFFFFFFFFFFFFFFFFFFFFFFFFFFFFF00FFFFFFFFFF00FFFFFFFFFFFFFFFFFFFFFFFFFFFFFFFFFFFFFFFFFFFFFFFFFFFF00FFFFFFFFFF
310
00FFFFFFFFFFFFFFFFFFFFFFFFFFFFFFFFFFFFFFFFFFFFFFFFFFFF00FFFFFFFFFF00FFFFFFFFFFFFFFFFFFFFFFFFFFFFFFFFFFFFFFFFFFFFFFFFFFFF00FFFFFFFFFF00FFFFFFFFFFFFFFFFFFFFFFFFFFFFFFFFFFFFFFFFFFFFFFFFFFFF00FFFFFFFFFF00FFFFFFFFFFFFFFFFFFFFFFFFFFFFFFFFFFFFFFFFFFFFFFFFFFFF00
310
FFFFFFFFFF00FFFFFFFFFFFFFFFFFFFFFFFFFFFFFFFFFFFFFFFFFFFFFFFFFFFF00FFFFFFFFFF00FFFFFFFFFFFFFFFFFFFFFFFFFFFFFFFFFFFFFFFFFFFFFFFFFFFF00FFFFFFFFFF00FFFFFFFFFFFFFFFFFFFFFFFFFFFFFFFFFFFFFFFFFFFFFFFFFFFF00FFFFFFFFFF00FFFFFFFFFFFFFFFFFFFFFFFFFFFFFFFFFFFFFFFFFFFF
310
FFFFFFFF00FFFFFFFFFF00FFFFFFFFFFFFFFFFFFFFFFFFFFFFFFFFFFFFFFFFFFFFFFFFFFFF00FFFFFFFFFF00FFFFFFFFFFFFFFFFFFFFFFFFFFFFFFFFFFFFFFFFFFFFFFFFFFFF00FFFFFFFFFF00FFFFFFFFFFFFFFFFFFFFFFFFFFFFFFFFFFFFFFFFFFFFFFFFFFFF00FFFFFFFFFF00FFFFFFFFFFFFFFFFFFFFFFFFFFFFFFFFFF
310
FFFFFFFFFFFFFFFFFF00FFFFFFFFFF00FFFFFFFFFFFFFFFFFFFFFFFFFFFFFFFFFFFFFFFFFFFFFFFFFFFF00FFFFFFFFFF00FFFFFFFFFFFFFFFFFFFFFFFFFFFFFFFFFFFFFFFFFFFFFFFFFFFF00FFFFFFFFFF00FFFFFFFFFFFFFFFFFFFFFFFFFFFFFFFFFFFFFFFFFFFFFFFFFFFF00FFFFFFFFFF00FFFFFFFFFFFFFFFFFFFFFFFF
310
FFFFFFFFFFFFFFFFFFFFFFFFFFFF00FFFFFFFFFF00FFFFFFFFFFFFFFFFFFFFFFFFFFFFFFFFFFFFFFFFFFFFFFFFFFFF00FFFFFFFFFF00FFFFFFFFFFFFFFFFFFFFFFFFFFFFFFFFFFFFFFFFFFFFFFFFFFFF00FFFFFFFFFF00FFFFFFFFFFFFFFFFFFFFFFFFFFFFFFFFFFFFFFFFFFFFFFFFFFFF00FFFFFF00FFFFFFFFFFFFFFFFFF
310
FFFFFFFFFFFFFFFFFFFFFFFFFFFFFFFFFFFFFF00FF00FFFFFFFFFFFFFFFFFFFFFFFFFFFFFFFFFFFFFFFFFFFFFFFFFFFFFFFFFFFF00FFFFFF
  0
ENDTAB
  0
ENDSEC
  0
SECTION
  2
BLOCKS
  0
BLOCK
  5
68
330
67
100
AcDbEntity
  8
0
100
AcDbBlockBegin
  2
*Model_Space
 70
     0
 10
0.0
 20
0.0
 30
0.0
  3
*Model_Space
  1

  0
ENDBLK
  5
69
330
67
100
AcDbEntity
  8
0
100
AcDbBlockEnd
  0
BLOCK
  5
64
330
63
100
AcDbEntity
 67
     1
  8
0
100
AcDbBlockBegin
  2
*Paper_Space
 70
     0
 10
0.0
 20
0.0
 30
0.0
  3
*Paper_Space
  1

  0
ENDBLK
  5
65
330
63
100
AcDbEntity
 67
     1
  8
0
100
AcDbBlockEnd
  0
BLOCK
  5
6C
330
6B
100
AcDbEntity
 67
     1
  8
0
100
AcDbBlockBegin
  2
*Paper_Space0
 70
     0
 10
0.0
 20
0.0
 30
0.0
  3
*Paper_Space0
  1

  0
ENDBLK
  5
6D
330
6B
100
AcDbEntity
 67
     1
  8
0
100
AcDbBlockEnd
  0
BLOCK
  5
791B
330
7918
100
AcDbEntity
  8
0
100
AcDbBlockBegin
  2
_ArchTick
 70
     0
 10
0.0
 20
0.0
 30
0.0
  3
_ArchTick
  1

  0
LWPOLYLINE
  5
791C
330
7918
100
AcDbEntity
  8
0
  6
ByBlock
 62
     7
100
AcDbPolyline
 90
        2
 70
     0
 43
0.15
 10
-0.5
 20
-0.5
 10
0.5
 20
0.5
  0
ENDBLK
  5
791D
330
7918
100
AcDbEntity
  8
0
100
AcDbBlockEnd
  0
ENDSEC
  0
SECTION
  2
ENTITIES
  0
HATCH
  5
798F
330
67
100
AcDbEntity
  8
F_18 Schr-Holz hell
370
    13
100
AcDbHatch
 10
0.0
 20
0.0
 30
0.0
210
0.0
220
0.0
230
1.0
  2
SOLID
 70
     1
 71
     0
 91
        1
 92
        1
 93
       10
 72
     1
 10
446.1207528789464
 20
298.0031427235165
 11
446.1207539917896
 21
338.5031440431151
 72
     1
 10
446.1207539917896
 20
338.5031440431169
 11
451.1207539917895
 21
338.5031445687248
 72
     1
 10
451.1207539917895
 20
338.5031445687248
 11
451.1207531508198
 21
346.5031445687248
 72
     1
 10
451.1207531508198
 20
346.5031445687248
 11
455.1207531508198
 21
346.5031449892097
 72
     1
 10
455.1207531508198
 20
346.5031449892097
 11
455.1207539917895
 21
338.5031449892097
 72
     1
 10
455.1207539917895
 20
338.5031449892097
 11
459.1207539917895
 21
338.5031454096945
 72
     1
 10
459.1207539917895
 20
338.5031454096945
 11
459.1217709356069
 21
611.0031433606629
 72
     1
 10
459.1217709356069
 20
611.0031433606612
 11
434.1207267641448
 21
611.0031433606612
 72
     1
 10
434.1207267641448
 20
611.0031433606612
 11
434.1207554380971
 21
298.0031432029566
 72
     1
 10
434.1207554380971
 20
298.0031432029584
 11
446.1207528789464
 21
298.0031427235183
 97
        0
 75
     0
 76
     1
 98
        1
 10
-36105.21488649494
 20
-14113.04525087429
450
        0
451
        0
460
0.0
461
0.0
452
        1
462
1.0
453
        2
463
0.0
 63
     5
421
      255
463
1.0
 63
     7
421
 16777215
470
LINEAR
1001
ACAD
1010
0.0
1020
0.0
1030
0.0
  0
HATCH
  5
7990
330
67
100
AcDbEntity
  8
F_18 Schr-Holz hell
370
    13
100
AcDbHatch
 10
0.0
 20
0.0
 30
0.0
210
0.0
220
0.0
230
1.0
  2
SOLID
 70
     1
 71
     0
 91
        1
 92
        1
 93
        7
 72
     1
 10
665.4631121400025
 20
340.002931143573
 11
467.6050101882437
 21
340.0029309954746
 72
     1
 10
467.6050101882437
 20
340.0029309954746
 11
467.6050057205875
 21
334.5031790476762
 72
     1
 10
467.6050057205875
 20
334.5031790476762
 11
450.2050057205788
 21
334.5031790476762
 72
     1
 10
450.2050057205788
 20
334.5031790476762
 11
448.6050057205875
 21
303.0031790476762
 72
     1
 10
448.6050057205875
 20
303.0031790476762
 11
448.6050057205875
 21
298.0031790476762
 72
     1
 10
448.6050057205875
 20
298.0031790476762
 11
665.4631121400025
 21
298.0031792053808
 72
     1
 10
665.4631121400025
 20
298.0031792053789
 11
665.4631121400025
 21
340.0029311435712
 97
        0
 75
     0
 76
     1
 98
        1
 10
-31274.70015409425
 20
-14179.03760582754
450
        0
451
        0
460
0.0
461
0.0
452
        1
462
1.0
453
        2
463
0.0
 63
     5
421
      255
463
1.0
 63
     7
421
 16777215
470
LINEAR
1001
ACAD
1010
0.0
1020
0.0
1030
0.0
  0
HATCH
  5
7991
330
67
100
AcDbEntity
  8
F_18 Schr-Holz hell
370
    13
100
AcDbHatch
 10
0.0
 20
0.0
 30
0.0
210
0.0
220
0.0
230
1.0
  2
SOLID
 70
     1
 71
     0
 91
        1
 92
        7
 72
     1
 73
     1
 93
       67
 10
454.2207618414622
 20
344.2531450522813
 42
-0.4142135623721549
 10
454.4707618151814
 20
344.5031450785621
 42
0.0
 10
455.1207533610586
 20
344.503145146887
 42
0.0
 10
455.120753276963
 20
345.3031451468862
 42
0.0
 10
454.470761731086
 20
345.3031450785613
 42
-0.4142135623679066
 10
454.2207617048052
 20
345.5531450522769
 42
0.0
 10
454.2207616837777
 20
345.753145052285
 42
0.4142135623680808
 10
453.9707616574969
 20
346.0031450260006
 42
0.0
 10
453.1207616574984
 20
346.0031449366482
 42
0.0
 10
452.2707616574998
 20
346.0031448472957
 42
0.4142135623674541
 10
452.0207616837806
 20
345.7531448210186
 42
0.0
 10
452.0207617048008
 20
345.553144821007
 42
-0.4142135623676283
 10
451.7707617310816
 20
345.3031447947335
 42
0.0
 10
451.120753276963
 20
345.303144726405
 42
0.0
 10
451.1207533610586
 20
344.5031447264021
 42
0.0
 10
451.7707618151771
 20
344.5031447947342
 42
-0.4142135623738473
 10
452.0207618414579
 20
344.2531448210186
 42
0.0
 10
452.0207620201627
 20
342.5531448210143
 42
-0.4142135623732694
 10
451.7707620464434
 20
342.3031447947335
 42
0.0
 10
451.1207535923322
 20
342.303144726405
 42
0.0
 10
451.1207536764277
 20
341.5031447264021
 42
0.0
 10
451.7707621305389
 20
341.5031447947342
 42
-0.4142135623737132
 10
452.0207621568196
 20
341.253144821015
 42
0.0
 10
452.0207623781689
 20
339.147482388312
 42
-0.2679491924300814
 10
451.8957624009281
 20
338.9309760242261
 42
0.0
 10
451.2127497404954
 20
338.5366383851299
 42
-0.0981118173532841
 10
451.1207539915567
 20
338.5053328630286
 42
0.0
 10
451.1207539917895
 20
338.5031445687248
 42
0.0
 10
447.6207624459066
 20
338.5031442007978
 42
0.0
 10
447.6207625510223
 20
337.5031443584787
 42
0.0
 10
450.6207284925485
 20
334.5031790476762
 42
0.0
 10
451.8106538227011
 20
334.5031790476762
 42
0.3381944148685474
 10
451.3531860472149
 20
334.9020923779765
 42
0.0
 10
449.1789101410914
 20
337.0763678269807
 42
-0.6681786379188936
 10
449.3556867915185
 20
337.5031445408579
 42
0.0
 10
452.4832603367768
 20
337.5031448696329
 42
-0.3394542588692284
 10
452.5798529271932
 20
337.4290267842964
 42
0.0
 10
452.620517933211
 20
337.2772629795556
 42
0.4063349011664373
 10
452.7403778245506
 20
337.2058893945298
 42
0.4063349011344412
 10
452.8602377008728
 20
337.277263004745
 42
0.0
 10
452.9009026749927
 20
337.4290268180532
 42
-0.3394542588510407
 10
452.9974952498242
 20
337.5031449236896
 42
0.0
 10
453.1207625510297
 20
337.5031449366482
 42
0.0
 10
453.2440298522351
 20
337.5031449496066
 42
-0.3394542588693947
 10
453.3406224426516
 20
337.4290268642701
 42
0.0
 10
453.3812874486693
 20
337.2772630595293
 42
0.4063349011540406
 10
453.5011473400017
 20
337.2058894745034
 42
0.4063349011468018
 10
453.6210072163312
 20
337.2772630847151
 42
0.0
 10
453.661672190451
 20
337.4290268980269
 42
-0.3394542588528769
 10
453.7582647652825
 20
337.5031450036634
 42
0.0
 10
456.8858383105334
 20
337.5031453324384
 42
-0.668178637919139
 10
457.062615050695
 20
337.0763686557232
 42
0.0
 10
454.4894259836446
 20
334.5031790476762
 42
0.0
 10
455.6207967146047
 20
334.5031790476762
 42
0.0
 10
458.6207625510223
 20
337.5031455148139
 42
0.0
 10
458.6207624459066
 20
338.503145357133
 42
0.0
 10
455.1207539917895
 20
338.5031449892097
 42
0.0
 10
455.1207539915567
 20
338.5053355359862
 42
-0.0980945955796488
 10
455.0287751442747
 20
338.5366387862753
 42
0.0
 10
454.3457624009325
 20
338.9309762817731
 42
-0.2679491924307703
 10
454.2207623781733
 20
339.1474826195783
 42
0.0
 10
454.220762156824
 20
341.2531450522813
 42
-0.4142135623735426
 10
454.4707621305433
 20
341.5031450785621
 42
0.0
 10
455.1207536764277
 20
341.5031451468869
 42
0.0
 10
455.1207535923322
 20
342.3031451468862
 42
0.0
 10
454.4707620464405
 20
342.3031450785613
 42
-0.4142135623741742
 10
454.2207620201597
 20
342.5531450522806
 42
0.0
 97
        0
 75
     0
 76
     1
 47
0.0426685259218206
 98
        1
 10
453.1185418244576
 20
343.8770182647616
450
        0
451
        0
460
0.0
461
0.0
452
        1
462
1.0
453
        2
463
0.0
 63
     5
421
      255
463
1.0
 63
     7
421
 16777215
470
LINEAR
1001
ACAD
1010
0.0
1020
0.0
1030
0.0
  0
HATCH
  5
7992
330
67
100
AcDbEntity
  8
F_15 Schr-Mauer hell
370
    13
100
AcDbHatch
 10
0.0
 20
0.0
 30
0.0
210
0.0
220
0.0
230
1.0
  2
SOLID
 70
     1
 71
     0
 91
        1
 92
        1
 93
        4
 72
     1
 10
267.1771149335627
 20
488.0031433606575
 11
267.17711493357
 21
323.0031432029566
 72
     1
 10
267.17711493357
 20
323.0031432029584
 11
429.120767497393
 21
323.0031432029603
 72
     1
 10
429.120767497393
 20
323.0031432029584
 11
429.120767497393
 21
488.0031433606575
 72
     1
 10
429.120767497393
 20
488.0031433606575
 11
267.1771149335627
 21
488.0031433606575
 97
        0
 75
     0
 76
     1
 98
        1
 10
218.0317730586403
 20
449.5916445207415
450
        0
451
        0
460
0.0
461
0.0
452
        1
462
1.0
453
        2
463
0.0
 63
     5
421
      255
463
1.0
 63
     7
421
 16777215
470
LINEAR
1001
ACAD
1010
0.0
1020
0.0
1030
0.0
  0
HATCH
  5
7993
330
67
100
AcDbEntity
  8
F_01 sichtbar
370
    13
100
AcDbHatch
 10
0.0
 20
0.0
 30
0.0
210
0.0
220
0.0
230
1.0
  2
BATT_INSULATION
 70
     0
 71
     0
 91
        1
 92
        1
 93
        4
 72
     1
 10
665.4631121400025
 20
303.0142834115516
 11
665.4631121400025
 21
335.0031792053771
 72
     1
 10
665.4631121400025
 20
335.003179205379
 11
506.6055697517595
 21
335.0031792053808
 72
     1
 10
506.6055697517595
 20
335.003179205379
 11
506.6055697517595
 21
303.0142834115516
 72
     1
 10
506.6055697517595
 20
303.0142834115516
 11
665.4631121400025
 21
303.0142834115516
 97
        0
 75
     0
 76
     2
 52
180.0
 41
32.77964320184142
 77
     0
 78
   528
 53
0.000000000000007
 43
12329.14190673332
 44
1592.831319236772
 45
10.95203936981043
 46
-36.87709860207159
 79
     2
 49
0.0
 49
-10.95203936981043
 53
345.9236
 43
12323.66587065859
 44
1588.733863836541
 45
10.95202660980681
 46
0.000004046117522
 79
     2
 49
2.663936043727233
 49
-1058.697838380723
 53
345.9236
 43
12323.66587065859
 44
1551.856765234466
 45
10.95202660980681
 46
0.000004046117522
 79
     2
 49
2.663936043727233
 49
-1058.697838380723
 53
345.9236
 43
12323.66587065859
 44
1514.979666632397
 45
10.95202660980681
 46
0.000004046117522
 79
     2
 49
2.663936043727233
 49
-1058.697838380723
 53
345.9236
 43
12323.66587065859
 44
1478.102568030322
 45
10.95202660980681
 46
0.000004046117522
 79
     2
 49
2.663936043727233
 49
-1058.697838380723
 53
345.9236
 43
12323.66587065859
 44
1441.225469428254
 45
10.95202660980681
 46
0.000004046117522
 79
     2
 49
2.663936043727233
 49
-1058.697838380723
 53
345.9236
 43
12323.66587065859
 44
1404.348370826186
 45
10.95202660980681
 46
0.000004046117522
 79
     2
 49
2.663936043727233
 49
-1058.697838380723
 53
345.9236
 43
12323.66587065859
 44
1367.47127222411
 45
10.95202660980681
 46
0.000004046117522
 79
     2
 49
2.663936043727233
 49
-1058.697838380723
 53
334.9544
 43
12324.94155603307
 44
1557.916737873195
 45
10.9520365279484
 46
-0.0000117218229823
 79
     2
 49
4.636287175181988
 49
-2957.102061108972
 53
334.9544
 43
12324.94155603307
 44
1521.03963927112
 45
10.9520365279484
 46
-0.0000117218229823
 79
     2
 49
4.636287175181988
 49
-2957.102061108972
 53
334.9544
 43
12324.94155603307
 44
1484.162540669052
 45
10.9520365279484
 46
-0.0000117218229823
 79
     2
 49
4.636287175181988
 49
-2957.102061108972
 53
334.9544
 43
12324.94155603307
 44
1447.285442066976
 45
10.9520365279484
 46
-0.0000117218229823
 79
     2
 49
4.636287175181988
 49
-2957.102061108972
 53
334.9544
 43
12324.94155603307
 44
1410.408343464905
 45
10.9520365279484
 46
-0.0000117218229823
 79
     2
 49
4.636287175181988
 49
-2957.102061108972
 53
334.9544
 43
12324.94155603307
 44
1373.531244862833
 45
10.9520365279484
 46
-0.0000117218229823
 79
     2
 49
4.636287175181988
 49
-2957.102061108972
 53
334.9544
 43
12324.94155603307
 44
1336.654146260765
 45
10.9520365279484
 46
-0.0000117218229823
 79
     2
 49
4.636287175181988
 49
-2957.102061108972
 53
334.9544
 43
12324.94155603307
 44
1299.777047658689
 45
10.9520365279484
 46
-0.0000117218229823
 79
     2
 49
4.636287175181988
 49
-2957.102061108972
 53
334.9544
 43
12324.94155603307
 44
1262.900932445919
 45
10.9520365279484
 46
-0.0000117218229823
 79
     2
 49
4.636287175181988
 49
-2957.102061108972
 53
334.9544
 43
12324.94155603307
 44
1226.023833843844
 45
10.9520365279484
 46
-0.0000117218229823
 79
     2
 49
4.636287175181988
 49
-2957.102061108972
 53
334.9544
 43
12324.94155603307
 44
1189.146735241772
 45
10.9520365279484
 46
-0.0000117218229823
 79
     2
 49
4.636287175181988
 49
-2957.102061108972
 53
334.9544
 43
12324.94155603307
 44
1152.2696366397
 45
10.9520365279484
 46
-0.0000117218229823
 79
     2
 49
4.636287175181988
 49
-2957.102061108972
 53
334.9544
 43
12324.94155603307
 44
1115.392538037629
 45
10.9520365279484
 46
-0.0000117218229823
 79
     2
 49
4.636287175181988
 49
-2957.102061108972
 53
334.9544
 43
12324.94155603307
 44
1078.51543943556
 45
10.9520365279484
 46
-0.0000117218229823
 79
     2
 49
4.636287175181988
 49
-2957.102061108972
 53
334.9544
 43
12324.94155603307
 44
1041.638340833489
 45
10.9520365279484
 46
-0.0000117218229823
 79
     2
 49
4.636287175181988
 49
-2957.102061108972
 53
334.9544
 43
12324.94155603307
 44
1004.761242231413
 45
10.9520365279484
 46
-0.0000117218229823
 79
     2
 49
4.636287175181988
 49
-2957.102061108972
 53
334.9544
 43
12324.94155603307
 44
967.8841436293453
 45
10.9520365279484
 46
-0.0000117218229823
 79
     2
 49
4.636287175181988
 49
-2957.102061108972
 53
334.9544
 43
12324.94155603307
 44
931.0070450272736
 45
10.9520365279484
 46
-0.0000117218229823
 79
     2
 49
4.636287175181988
 49
-2957.102061108972
 53
334.9544
 43
12324.94155603307
 44
894.1299464252017
 45
10.9520365279484
 46
-0.0000117218229823
 79
     2
 49
4.636287175181988
 49
-2957.102061108972
 53
334.9544
 43
12324.94155603307
 44
857.2528478231262
 45
10.9520365279484
 46
-0.0000117218229823
 79
     2
 49
4.636287175181988
 49
-2957.102061108972
 53
334.9544
 43
12324.94155603307
 44
820.3757492210581
 45
10.9520365279484
 46
-0.0000117218229823
 79
     2
 49
4.636287175181988
 49
-2957.102061108972
 53
334.9544
 43
12324.94155603307
 44
783.4986506189864
 45
10.9520365279484
 46
-0.0000117218229823
 79
     2
 49
4.636287175181988
 49
-2957.102061108972
 53
334.9544
 43
12324.94155603307
 44
746.6215520169146
 45
10.9520365279484
 46
-0.0000117218229823
 79
     2
 49
4.636287175181988
 49
-2957.102061108972
 53
334.9544
 43
12324.94155603307
 44
709.7444534148392
 45
10.9520365279484
 46
-0.0000117218229823
 79
     2
 49
4.636287175181988
 49
-2957.102061108972
 53
334.9544
 43
12324.94155603307
 44
672.867354812771
 45
10.9520365279484
 46
-0.0000117218229823
 79
     2
 49
4.636287175181988
 49
-2957.102061108972
 53
334.9544
 43
12324.94155603307
 44
635.9902562107029
 45
10.9520365279484
 46
-0.0000117218229823
 79
     2
 49
4.636287175181988
 49
-2957.102061108972
 53
334.9544
 43
12324.94155603307
 44
599.1131576086274
 45
10.9520365279484
 46
-0.0000117218229823
 79
     2
 49
4.636287175181988
 49
-2957.102061108972
 53
334.9544
 43
12324.94155603307
 44
562.2360590065593
 45
10.9520365279484
 46
-0.0000117218229823
 79
     2
 49
4.636287175181988
 49
-2957.102061108972
 53
334.9544
 43
12324.94155603307
 44
525.3589604044839
 45
10.9520365279484
 46
-0.0000117218229823
 79
     2
 49
4.636287175181988
 49
-2957.102061108972
 53
334.9544
 43
12324.94155603307
 44
488.4818618024085
 45
10.9520365279484
 46
-0.0000117218229823
 79
     2
 49
4.636287175181988
 49
-2957.102061108972
 53
334.9544
 43
12324.94155603307
 44
451.6047632003403
 45
10.9520365279484
 46
-0.0000117218229823
 79
     2
 49
4.636287175181988
 49
-2957.102061108972
 53
334.9544
 43
12324.94155603307
 44
414.7276645982722
 45
10.9520365279484
 46
-0.0000117218229823
 79
     2
 49
4.636287175181988
 49
-2957.102061108972
 53
334.9544
 43
12324.94155603307
 44
377.8505659961968
 45
10.9520365279484
 46
-0.0000117218229823
 79
     2
 49
4.636287175181988
 49
-2957.102061108972
 53
334.9544
 43
12324.94155603307
 44
340.973467394125
 45
10.9520365279484
 46
-0.0000117218229823
 79
     2
 49
4.636287175181988
 49
-2957.102061108972
 53
307.5647
 43
12326.2498243729
 44
1588.085875849728
 45
10.95203172566192
 46
-0.0000024731155069
 79
     2
 49
4.503300162712156
 49
-1809.889024393901
 53
307.5647
 43
12326.2498243729
 44
1551.208711688368
 45
10.95203172566192
 46
-0.0000024731155069
 79
     2
 49
4.503300162712156
 49
-1809.889024393901
 53
307.5647
 43
12326.2498243729
 44
1514.331613086296
 45
10.95203172566192
 46
-0.0000024731155069
 79
     2
 49
4.503300162712156
 49
-1809.889024393901
 53
307.5647
 43
12326.2498243729
 44
1477.454514484228
 45
10.95203172566192
 46
-0.0000024731155069
 79
     2
 49
4.503300162712156
 49
-1809.889024393901
 53
307.5647
 43
12326.2498243729
 44
1440.577415882152
 45
10.95203172566192
 46
-0.0000024731155069
 79
     2
 49
4.503300162712156
 49
-1809.889024393901
 53
307.5647
 43
12326.2498243729
 44
1403.700317280077
 45
10.95203172566192
 46
-0.0000024731155069
 79
     2
 49
4.503300162712156
 49
-1809.889024393901
 53
307.5647
 43
12326.2498243729
 44
1366.823218678009
 45
10.95203172566192
 46
-0.0000024731155069
 79
     2
 49
4.503300162712156
 49
-1809.889024393901
 53
307.5647
 43
12326.2498243729
 44
1329.946120075941
 45
10.95203172566192
 46
-0.0000024731155069
 79
     2
 49
4.503300162712156
 49
-1809.889024393901
 53
307.5647
 43
12326.2498243729
 44
1293.069021473865
 45
10.95203172566192
 46
-0.0000024731155069
 79
     2
 49
4.503300162712156
 49
-1809.889024393901
 53
307.5647
 43
12326.2498243729
 44
1256.190939482499
 45
10.95203172566192
 46
-0.0000024731155069
 79
     2
 49
4.503300162712156
 49
-1809.889024393901
 53
307.5647
 43
12326.2498243729
 44
1219.313840880431
 45
10.95203172566192
 46
-0.0000024731155069
 79
     2
 49
4.503300162712156
 49
-1809.889024393901
 53
307.5647
 43
12326.2498243729
 44
1182.436742278355
 45
10.95203172566192
 46
-0.0000024731155069
 79
     2
 49
4.503300162712156
 49
-1809.889024393901
 53
307.5647
 43
12326.2498243729
 44
1145.55964367628
 45
10.95203172566192
 46
-0.0000024731155069
 79
     2
 49
4.503300162712156
 49
-1809.889024393901
 53
307.5647
 43
12326.2498243729
 44
1108.682545074212
 45
10.95203172566192
 46
-0.0000024731155069
 79
     2
 49
4.503300162712156
 49
-1809.889024393901
 53
307.5647
 43
12326.2498243729
 44
1071.805446472144
 45
10.95203172566192
 46
-0.0000024731155069
 79
     2
 49
4.503300162712156
 49
-1809.889024393901
 53
307.5647
 43
12326.2498243729
 44
1034.928347870068
 45
10.95203172566192
 46
-0.0000024731155069
 79
     2
 49
4.503300162712156
 49
-1809.889024393901
 53
307.5647
 43
12326.2498243729
 44
998.0512492679965
 45
10.95203172566192
 46
-0.0000024731155069
 79
     2
 49
4.503300162712156
 49
-1809.889024393901
 53
307.5647
 43
12326.2498243729
 44
961.1741506659248
 45
10.95203172566192
 46
-0.0000024731155069
 79
     2
 49
4.503300162712156
 49
-1809.889024393901
 53
307.5647
 43
12326.2498243729
 44
924.2970520638566
 45
10.95203172566192
 46
-0.0000024731155069
 79
     2
 49
4.503300162712156
 49
-1809.889024393901
 53
307.5647
 43
12326.2498243729
 44
887.4199534617812
 45
10.95203172566192
 46
-0.0000024731155069
 79
     2
 49
4.503300162712156
 49
-1809.889024393901
 53
307.5647
 43
12326.2498243729
 44
850.542854859713
 45
10.95203172566192
 46
-0.0000024731155069
 79
     2
 49
4.503300162712156
 49
-1809.889024393901
 53
307.5647
 43
12326.2498243729
 44
813.6657562576376
 45
10.95203172566192
 46
-0.0000024731155069
 79
     2
 49
4.503300162712156
 49
-1809.889024393901
 53
307.5647
 43
12326.2498243729
 44
776.7886576555695
 45
10.95203172566192
 46
-0.0000024731155069
 79
     2
 49
4.503300162712156
 49
-1809.889024393901
 53
307.5647
 43
12326.2498243729
 44
739.9115590534977
 45
10.95203172566192
 46
-0.0000024731155069
 79
     2
 49
4.503300162712156
 49
-1809.889024393901
 53
307.5647
 43
12326.2498243729
 44
703.0344604514259
 45
10.95203172566192
 46
-0.0000024731155069
 79
     2
 49
4.503300162712156
 49
-1809.889024393901
 53
307.5647
 43
12326.2498243729
 44
666.1573618493505
 45
10.95203172566192
 46
-0.0000024731155069
 79
     2
 49
4.503300162712156
 49
-1809.889024393901
 53
307.5647
 43
12326.2498243729
 44
629.2802632472824
 45
10.95203172566192
 46
-0.0000024731155069
 79
     2
 49
4.503300162712156
 49
-1809.889024393901
 53
307.5647
 43
12326.2498243729
 44
592.4031646452142
 45
10.95203172566192
 46
-0.0000024731155069
 79
     2
 49
4.503300162712156
 49
-1809.889024393901
 53
307.5647
 43
12326.2498243729
 44
555.5260660431388
 45
10.95203172566192
 46
-0.0000024731155069
 79
     2
 49
4.503300162712156
 49
-1809.889024393901
 53
307.5647
 43
12326.2498243729
 44
518.648967441067
 45
10.95203172566192
 46
-0.0000024731155069
 79
     2
 49
4.503300162712156
 49
-1809.889024393901
 53
307.5647
 43
12326.2498243729
 44
481.7718688389952
 45
10.95203172566192
 46
-0.0000024731155069
 79
     2
 49
4.503300162712156
 49
-1809.889024393901
 53
307.5647
 43
12326.2498243729
 44
444.8947702369198
 45
10.95203172566192
 46
-0.0000024731155069
 79
     2
 49
4.503300162712156
 49
-1809.889024393901
 53
307.5647
 43
12326.2498243729
 44
408.0176716348553
 45
10.95203172566192
 46
-0.0000024731155069
 79
     2
 49
4.503300162712156
 49
-1809.889024393901
 53
307.5647
 43
12326.2498243729
 44
371.1405730327836
 45
10.95203172566192
 46
-0.0000024731155069
 79
     2
 49
4.503300162712156
 49
-1809.889024393901
 53
307.5647
 43
12326.2498243729
 44
334.2634744307081
 45
10.95203172566192
 46
-0.0000024731155069
 79
     2
 49
4.503300162712156
 49
-1809.889024393901
 53
307.5647
 43
12326.2498243729
 44
297.38637582864
 45
10.95203172566192
 46
-0.0000024731155069
 79
     2
 49
4.503300162712156
 49
-1809.889024393901
 53
307.5647
 43
12326.2498243729
 44
260.5092772265682
 45
10.95203172566192
 46
-0.0000024731155069
 79
     2
 49
4.503300162712156
 49
-1809.889024393901
 53
307.5647
 43
12326.2498243729
 44
223.6321786244973
 45
10.95203172566192
 46
-0.0000024731155069
 79
     2
 49
4.503300162712156
 49
-1809.889024393901
 53
307.5647
 43
12326.2498243729
 44
186.7550800224255
 45
10.95203172566192
 46
-0.0000024731155069
 79
     2
 49
4.503300162712156
 49
-1809.889024393901
 53
292.9384
 43
12319.19890673036
 44
1576.502041636843
 45
10.95204222721493
 46
-0.0000045639384487
 79
     2
 49
8.386475035331912
 49
-1593.356600854789
 53
292.9384
 43
12319.19890673036
 44
1539.625041373701
 45
10.95204222721493
 46
-0.0000045639384487
 79
     2
 49
8.386475035331912
 49
-1593.356600854789
 53
292.9384
 43
12319.19890673036
 44
1502.747942771625
 45
10.95204222721493
 46
-0.0000045639384487
 79
     2
 49
8.386475035331912
 49
-1593.356600854789
 53
292.9384
 43
12319.19890673036
 44
1465.870844169557
 45
10.95204222721493
 46
-0.0000045639384487
 79
     2
 49
8.386475035331912
 49
-1593.356600854789
 53
292.9384
 43
12319.19890673036
 44
1428.993745567489
 45
10.95204222721493
 46
-0.0000045639384487
 79
     2
 49
8.386475035331912
 49
-1593.356600854789
 53
292.9384
 43
12319.19890673036
 44
1392.116646965414
 45
10.95204222721493
 46
-0.0000045639384487
 79
     2
 49
8.386475035331912
 49
-1593.356600854789
 53
292.9384
 43
12319.19890673036
 44
1355.239548363342
 45
10.95204222721493
 46
-0.0000045639384487
 79
     2
 49
8.386475035331912
 49
-1593.356600854789
 53
292.9384
 43
12319.19890673036
 44
1318.36244976127
 45
10.95204222721493
 46
-0.0000045639384487
 79
     2
 49
8.386475035331912
 49
-1593.356600854789
 53
292.9384
 43
12319.19890673036
 44
1281.485351159202
 45
10.95204222721493
 46
-0.0000045639384487
 79
     2
 49
8.386475035331912
 49
-1593.356600854789
 53
292.9384
 43
12319.19890673036
 44
1244.606613574969
 45
10.95204222721493
 46
-0.0000045639384487
 79
     2
 49
8.386475035331912
 49
-1593.356600854789
 53
292.9384
 43
12319.19890673036
 44
1207.729514972897
 45
10.95204222721493
 46
-0.0000045639384487
 79
     2
 49
8.386475035331912
 49
-1593.356600854789
 53
292.9384
 43
12319.19890673036
 44
1170.852416370822
 45
10.95204222721493
 46
-0.0000045639384487
 79
     2
 49
8.386475035331912
 49
-1593.356600854789
 53
292.9384
 43
12319.19890673036
 44
1133.975317768753
 45
10.95204222721493
 46
-0.0000045639384487
 79
     2
 49
8.386475035331912
 49
-1593.356600854789
 53
292.9384
 43
12319.19890673036
 44
1097.098219166685
 45
10.95204222721493
 46
-0.0000045639384487
 79
     2
 49
8.386475035331912
 49
-1593.356600854789
 53
292.9384
 43
12319.19890673036
 44
1060.22112056461
 45
10.95204222721493
 46
-0.0000045639384487
 79
     2
 49
8.386475035331912
 49
-1593.356600854789
 53
292.9384
 43
12319.19890673036
 44
1023.344021962538
 45
10.95204222721493
 46
-0.0000045639384487
 79
     2
 49
8.386475035331912
 49
-1593.356600854789
 53
292.9384
 43
12319.19890673036
 44
986.4669233604665
 45
10.95204222721493
 46
-0.0000045639384487
 79
     2
 49
8.386475035331912
 49
-1593.356600854789
 53
292.9384
 43
12319.19890673036
 44
949.5898247583948
 45
10.95204222721493
 46
-0.0000045639384487
 79
     2
 49
8.386475035331912
 49
-1593.356600854789
 53
292.9384
 43
12319.19890673036
 44
912.7127261563266
 45
10.95204222721493
 46
-0.0000045639384487
 79
     2
 49
8.386475035331912
 49
-1593.356600854789
 53
292.9384
 43
12319.19890673036
 44
875.8356275542549
 45
10.95204222721493
 46
-0.0000045639384487
 79
     2
 49
8.386475035331912
 49
-1593.356600854789
 53
292.9384
 43
12319.19890673036
 44
838.9585289521795
 45
10.95204222721493
 46
-0.0000045639384487
 79
     2
 49
8.386475035331912
 49
-1593.356600854789
 53
292.9384
 43
12319.19890673036
 44
802.0814303501113
 45
10.95204222721493
 46
-0.0000045639384487
 79
     2
 49
8.386475035331912
 49
-1593.356600854789
 53
292.9384
 43
12319.19890673036
 44
765.2043317480395
 45
10.95204222721493
 46
-0.0000045639384487
 79
     2
 49
8.386475035331912
 49
-1593.356600854789
 53
292.9384
 43
12319.19890673036
 44
728.3272331459677
 45
10.95204222721493
 46
-0.0000045639384487
 79
     2
 49
8.386475035331912
 49
-1593.356600854789
 53
292.9384
 43
12319.19890673036
 44
691.4501345438923
 45
10.95204222721493
 46
-0.0000045639384487
 79
     2
 49
8.386475035331912
 49
-1593.356600854789
 53
292.9384
 43
12319.19890673036
 44
654.5730359418241
 45
10.95204222721493
 46
-0.0000045639384487
 79
     2
 49
8.386475035331912
 49
-1593.356600854789
 53
292.9384
 43
12319.19890673036
 44
617.6959373397487
 45
10.95204222721493
 46
-0.0000045639384487
 79
     2
 49
8.386475035331912
 49
-1593.356600854789
 53
292.9384
 43
12319.19890673036
 44
580.8188387376806
 45
10.95204222721493
 46
-0.0000045639384487
 79
     2
 49
8.386475035331912
 49
-1593.356600854789
 53
292.9384
 43
12319.19890673036
 44
543.9417401356052
 45
10.95204222721493
 46
-0.0000045639384487
 79
     2
 49
8.386475035331912
 49
-1593.356600854789
 53
292.9384
 43
12319.19890673036
 44
507.064641533537
 45
10.95204222721493
 46
-0.0000045639384487
 79
     2
 49
8.386475035331912
 49
-1593.356600854789
 53
292.9384
 43
12319.19890673036
 44
470.1875429314688
 45
10.95204222721493
 46
-0.0000045639384487
 79
     2
 49
8.386475035331912
 49
-1593.356600854789
 53
292.9384
 43
12319.19890673036
 44
433.3104443293934
 45
10.95204222721493
 46
-0.0000045639384487
 79
     2
 49
8.386475035331912
 49
-1593.356600854789
 53
292.9384
 43
12319.19890673036
 44
396.4333457273217
 45
10.95204222721493
 46
-0.0000045639384487
 79
     2
 49
8.386475035331912
 49
-1593.356600854789
 53
292.9384
 43
12319.19890673036
 44
359.5562471252499
 45
10.95204222721493
 46
-0.0000045639384487
 79
     2
 49
8.386475035331912
 49
-1593.356600854789
 53
292.9384
 43
12319.19890673036
 44
322.6791485231781
 45
10.95204222721493
 46
-0.0000045639384487
 79
     2
 49
8.386475035331912
 49
-1593.356600854789
 53
292.9384
 43
12319.19890673036
 44
285.8020499211063
 45
10.95204222721493
 46
-0.0000045639384487
 79
     2
 49
8.386475035331912
 49
-1593.356600854789
 53
292.9384
 43
12319.19890673036
 44
248.9249513190382
 45
10.95204222721493
 46
-0.0000045639384487
 79
     2
 49
8.386475035331912
 49
-1593.356600854789
 53
292.9384
 43
12319.19890673036
 44
212.0478527169673
 45
10.95204222721493
 46
-0.0000045639384487
 79
     2
 49
8.386475035331912
 49
-1593.356600854789
 53
292.9384
 43
12319.19890673036
 44
175.1707541148919
 45
10.95204222721493
 46
-0.0000045639384487
 79
     2
 49
8.386475035331912
 49
-1593.356600854789
 53
292.9384
 43
12319.19890673036
 44
138.2936555128237
 45
10.95204222721493
 46
-0.0000045639384487
 79
     2
 49
8.386475035331912
 49
-1593.356600854789
 53
285.109
 43
12323.99366709061
 44
1561.430223929784
 45
0.0000000992044029
 46
-36.87707611878427
 79
     2
 49
3.638966530766021
 49
-416.5337124354709
 53
285.109
 43
12334.94570646042
 44
1561.430223929784
 45
0.0000000992044029
 46
-36.87707611878427
 79
     2
 49
3.638966530766021
 49
-416.5337124354709
 53
285.109
 43
12345.89774583023
 44
1561.430223929784
 45
0.0000000992044029
 46
-36.87707611878427
 79
     2
 49
3.638966530766021
 49
-416.5337124354709
 53
285.109
 43
12356.84985075932
 44
1561.430223929784
 45
0.0000000992044029
 46
-36.87707611878427
 79
     2
 49
3.638966530766021
 49
-416.5337124354709
 53
285.109
 43
12367.80185734949
 44
1561.430223929784
 45
0.0000000992044029
 46
-36.87707611878427
 79
     2
 49
3.638966530766021
 49
-416.5337124354709
 53
285.109
 43
12378.75386393966
 44
1561.430223929784
 45
0.0000000992044029
 46
-36.87707611878427
 79
     2
 49
3.638966530766021
 49
-416.5337124354709
 53
285.109
 43
12389.70587052982
 44
1561.430223929784
 45
0.0000000992044029
 46
-36.87707611878427
 79
     2
 49
3.638966530766021
 49
-416.5337124354709
 53
285.109
 43
12400.65787711999
 44
1561.430223929784
 45
0.0000000992044029
 46
-36.87707611878427
 79
     2
 49
3.638966530766021
 49
-416.5337124354709
 53
285.109
 43
12411.60988371016
 44
1561.430223929784
 45
0.0000000992044029
 46
-36.87707611878427
 79
     2
 49
3.638966530766021
 49
-416.5337124354709
 53
285.109
 43
12422.56189030032
 44
1561.430223929784
 45
0.0000000992044029
 46
-36.87707611878427
 79
     2
 49
3.638966530766021
 49
-416.5337124354709
 53
276.7473999999999
 43
12322.46705354741
 44
1568.778567664908
 45
0.0000035818718473
 46
-36.87716375543
 79
     2
 49
7.399774995313284
 49
-4560.119085052519
 53
276.7473999999999
 43
12333.41909291722
 44
1568.778567664908
 45
0.0000035818718473
 46
-36.87716375543
 79
     2
 49
7.399774995313284
 49
-4560.119085052519
 53
276.7473999999999
 43
12344.37113228703
 44
1568.778567664908
 45
0.0000035818718473
 46
-36.87716375543
 79
     2
 49
7.399774995313284
 49
-4560.119085052519
 53
276.7473999999999
 43
12355.32330277542
 44
1568.778567664908
 45
0.0000035818718473
 46
-36.87716375543
 79
     2
 49
7.399774995313284
 49
-4560.119085052519
 53
276.7473999999999
 43
12366.27530936558
 44
1568.778567664908
 45
0.0000035818718473
 46
-36.87716375543
 79
     2
 49
7.399774995313284
 49
-4560.119085052519
 53
276.7473999999999
 43
12377.22731595575
 44
1568.778567664908
 45
0.0000035818718473
 46
-36.87716375543
 79
     2
 49
7.399774995313284
 49
-4560.119085052519
 53
276.7473999999999
 43
12388.17932254592
 44
1568.778567664908
 45
0.0000035818718473
 46
-36.87716375543
 79
     2
 49
7.399774995313284
 49
-4560.119085052519
 53
276.7473999999999
 43
12399.13132913608
 44
1568.778567664908
 45
0.0000035818718473
 46
-36.87716375543
 79
     2
 49
7.399774995313284
 49
-4560.119085052519
 53
276.7473999999999
 43
12410.08333572625
 44
1568.778567664908
 45
0.0000035818718473
 46
-36.87716375543
 79
     2
 49
7.399774995313284
 49
-4560.119085052519
 53
276.7473999999999
 43
12421.03534231642
 44
1568.778567664908
 45
0.0000035818718473
 46
-36.87716375543
 79
     2
 49
7.399774995313284
 49
-4560.119085052519
 53
276.7473999999999
 43
12431.98734890659
 44
1568.778567664908
 45
0.0000035818718473
 46
-36.87716375543
 79
     2
 49
7.399774995313284
 49
-4560.119085052519
 53
276.7473999999999
 43
12442.93935549675
 44
1568.778567664908
 45
0.0000035818718473
 46
-36.87716375543
 79
     2
 49
7.399774995313284
 49
-4560.119085052519
 53
276.7473999999999
 43
12453.89136208692
 44
1568.778567664908
 45
0.0000035818718473
 46
-36.87716375543
 79
     2
 49
7.399774995313284
 49
-4560.119085052519
 53
276.7473999999999
 43
12464.84336867708
 44
1568.778567664908
 45
0.0000035818718473
 46
-36.87716375543
 79
     2
 49
7.399774995313284
 49
-4560.119085052519
 53
276.7473999999999
 43
12475.79570306369
 44
1568.778567664908
 45
0.0000035818718473
 46
-36.87716375543
 79
     2
 49
7.399774995313284
 49
-4560.119085052519
 53
276.7473999999999
 43
12486.74770965386
 44
1568.778567664908
 45
0.0000035818718473
 46
-36.87716375543
 79
     2
 49
7.399774995313284
 49
-4560.119085052519
 53
276.7473999999999
 43
12497.69971624401
 44
1568.778567664908
 45
0.0000035818718473
 46
-36.87716375543
 79
     2
 49
7.399774995313284
 49
-4560.119085052519
 53
276.7473999999999
 43
12508.65172283419
 44
1568.778567664908
 45
0.0000035818718473
 46
-36.87716375543
 79
     2
 49
7.399774995313284
 49
-4560.119085052519
 53
276.7473999999999
 43
12519.60372942435
 44
1568.778567664908
 45
0.0000035818718473
 46
-36.87716375543
 79
     2
 49
7.399774995313284
 49
-4560.119085052519
 53
276.7473999999999
 43
12530.55573601452
 44
1568.778567664908
 45
0.0000035818718473
 46
-36.87716375543
 79
     2
 49
7.399774995313284
 49
-4560.119085052519
 53
276.7473999999999
 43
12541.50774260469
 44
1568.778567664908
 45
0.0000035818718473
 46
-36.87716375543
 79
     2
 49
7.399774995313284
 49
-4560.119085052519
 53
276.7473999999999
 43
12552.45974919486
 44
1568.778567664908
 45
0.0000035818718473
 46
-36.87716375543
 79
     2
 49
7.399774995313284
 49
-4560.119085052519
 53
276.7473999999999
 43
12563.41175578502
 44
1568.778567664908
 45
0.0000035818718473
 46
-36.87716375543
 79
     2
 49
7.399774995313284
 49
-4560.119085052519
 53
276.7473999999999
 43
12574.36376237519
 44
1568.778567664908
 45
0.0000035818718473
 46
-36.87716375543
 79
     2
 49
7.399774995313284
 49
-4560.119085052519
 53
276.7473999999999
 43
12585.31609676179
 44
1568.778567664908
 45
0.0000035818718473
 46
-36.87716375543
 79
     2
 49
7.399774995313284
 49
-4560.119085052519
 53
276.7473999999999
 43
12596.26810335195
 44
1568.778567664908
 45
0.0000035818718473
 46
-36.87716375543
 79
     2
 49
7.399774995313284
 49
-4560.119085052519
 53
276.7473999999999
 43
12607.22010994213
 44
1568.778567664908
 45
0.0000035818718473
 46
-36.87716375543
 79
     2
 49
7.399774995313284
 49
-4560.119085052519
 53
276.7473999999999
 43
12618.17211653229
 44
1568.778567664908
 45
0.0000035818718473
 46
-36.87716375543
 79
     2
 49
7.399774995313284
 49
-4560.119085052519
 53
276.7473999999999
 43
12629.12412312246
 44
1568.778567664908
 45
0.0000035818718473
 46
-36.87716375543
 79
     2
 49
7.399774995313284
 49
-4560.119085052519
 53
276.7473999999999
 43
12640.07612971263
 44
1568.778567664908
 45
0.0000035818718473
 46
-36.87716375543
 79
     2
 49
7.399774995313284
 49
-4560.119085052519
 53
276.7473999999999
 43
12651.02780850636
 44
1568.778567664908
 45
0.0000035818718473
 46
-36.87716375543
 79
     2
 49
7.399774995313284
 49
-4560.119085052519
 53
276.7473999999999
 43
12661.9794873001
 44
1568.778567664908
 45
0.0000035818718473
 46
-36.87716375543
 79
     2
 49
7.399774995313284
 49
-4560.119085052519
 53
276.7473999999999
 43
12672.93116609383
 44
1568.778567664908
 45
0.0000035818718473
 46
-36.87716375543
 79
     2
 49
7.399774995313284
 49
-4560.119085052519
 53
276.7473999999999
 43
12683.88284488756
 44
1568.778567664908
 45
0.0000035818718473
 46
-36.87716375543
 79
     2
 49
7.399774995313284
 49
-4560.119085052519
 53
276.7473999999999
 43
12694.83780164562
 44
1568.778567664908
 45
0.0000035818718473
 46
-36.87716375543
 79
     2
 49
7.399774995313284
 49
-4560.119085052519
 53
276.7473999999999
 43
12705.78948043936
 44
1568.778567664908
 45
0.0000035818718473
 46
-36.87716375543
 79
     2
 49
7.399774995313284
 49
-4560.119085052519
 53
276.7473999999999
 43
12716.74115923309
 44
1568.778567664908
 45
0.0000035818718473
 46
-36.87716375543
 79
     2
 49
7.399774995313284
 49
-4560.119085052519
 53
276.7473999999999
 43
12727.69283802683
 44
1568.778567664908
 45
0.0000035818718473
 46
-36.87716375543
 79
     2
 49
7.399774995313284
 49
-4560.119085052519
 53
276.7473999999999
 43
12738.64451682056
 44
1568.778567664908
 45
0.0000035818718473
 46
-36.87716375543
 79
     2
 49
7.399774995313284
 49
-4560.119085052519
 53
276.7473999999999
 43
12749.5961956143
 44
1568.778567664908
 45
0.0000035818718473
 46
-36.87716375543
 79
     2
 49
7.399774995313284
 49
-4560.119085052519
 53
276.7473999999999
 43
12760.54787440803
 44
1568.778567664908
 45
0.0000035818718473
 46
-36.87716375543
 79
     2
 49
7.399774995313284
 49
-4560.119085052519
 53
276.7473999999999
 43
12771.49955320177
 44
1568.778567664908
 45
0.0000035818718473
 46
-36.87716375543
 79
     2
 49
7.399774995313284
 49
-4560.119085052519
 53
276.7473999999999
 43
12782.4512319955
 44
1568.778567664908
 45
0.0000035818718473
 46
-36.87716375543
 79
     2
 49
7.399774995313284
 49
-4560.119085052519
 53
276.7473999999999
 43
12793.40618875355
 44
1568.778567664908
 45
0.0000035818718473
 46
-36.87716375543
 79
     2
 49
7.399774995313284
 49
-4560.119085052519
 53
276.7473999999999
 43
12804.3578675473
 44
1568.778567664908
 45
0.0000035818718473
 46
-36.87716375543
 79
     2
 49
7.399774995313284
 49
-4560.119085052519
 53
276.7473999999999
 43
12815.30954634103
 44
1568.778567664908
 45
0.0000035818718473
 46
-36.87716375543
 79
     2
 49
7.399774995313284
 49
-4560.119085052519
 53
276.7473999999999
 43
12826.26122513476
 44
1568.778567664908
 45
0.0000035818718473
 46
-36.87716375543
 79
     2
 49
7.399774995313284
 49
-4560.119085052519
 53
276.7473999999999
 43
12837.2129039285
 44
1568.778567664908
 45
0.0000035818718473
 46
-36.87716375543
 79
     2
 49
7.399774995313284
 49
-4560.119085052519
 53
276.7473999999999
 43
12848.16458272224
 44
1568.778567664908
 45
0.0000035818718473
 46
-36.87716375543
 79
     2
 49
7.399774995313284
 49
-4560.119085052519
 53
276.1416
 43
12318.33643662113
 44
1584.516303823622
 45
-0.0000356891682921
 46
-36.87700042616381
 79
     2
 49
8.060547042976009
 49
-2551.147945737283
 53
276.1416
 43
12329.28846451807
 44
1584.516303823622
 45
-0.0000356891682921
 46
-36.87700042616381
 79
     2
 49
8.060547042976009
 49
-2551.147945737283
 53
276.1416
 43
12340.24050388788
 44
1584.516303823622
 45
-0.0000356891682921
 46
-36.87700042616381
 79
     2
 49
8.060547042976009
 49
-2551.147945737283
 53
276.1416
 43
12351.19241213912
 44
1584.516303823622
 45
-0.0000356891682921
 46
-36.87700042616381
 79
     2
 49
8.060547042976009
 49
-2551.147945737283
 53
276.1416
 43
12362.14474652572
 44
1584.516303823622
 45
-0.0000356891682921
 46
-36.87700042616381
 79
     2
 49
8.060547042976009
 49
-2551.147945737283
 53
276.1416
 43
12373.09675311588
 44
1584.516303823622
 45
-0.0000356891682921
 46
-36.87700042616381
 79
     2
 49
8.060547042976009
 49
-2551.147945737283
 53
276.1416
 43
12384.04875970605
 44
1584.516303823622
 45
-0.0000356891682921
 46
-36.87700042616381
 79
     2
 49
8.060547042976009
 49
-2551.147945737283
 53
276.1416
 43
12395.00076629622
 44
1584.516303823622
 45
-0.0000356891682921
 46
-36.87700042616381
 79
     2
 49
8.060547042976009
 49
-2551.147945737283
 53
276.1416
 43
12405.95277288638
 44
1584.516303823622
 45
-0.0000356891682921
 46
-36.87700042616381
 79
     2
 49
8.060547042976009
 49
-2551.147945737283
 53
276.1416
 43
12416.90477947656
 44
1584.516303823622
 45
-0.0000356891682921
 46
-36.87700042616381
 79
     2
 49
8.060547042976009
 49
-2551.147945737283
 53
276.1416
 43
12427.85678606672
 44
1584.516303823622
 45
-0.0000356891682921
 46
-36.87700042616381
 79
     2
 49
8.060547042976009
 49
-2551.147945737283
 53
276.1416
 43
12438.80879265689
 44
1584.516303823622
 45
-0.0000356891682921
 46
-36.87700042616381
 79
     2
 49
8.060547042976009
 49
-2551.147945737283
 53
276.1416
 43
12449.76079924706
 44
1584.516303823622
 45
-0.0000356891682921
 46
-36.87700042616381
 79
     2
 49
8.060547042976009
 49
-2551.147945737283
 53
276.1416
 43
12460.71280583722
 44
1584.516303823622
 45
-0.0000356891682921
 46
-36.87700042616381
 79
     2
 49
8.060547042976009
 49
-2551.147945737283
 53
276.1416
 43
12471.66481242739
 44
1584.516303823622
 45
-0.0000356891682921
 46
-36.87700042616381
 79
     2
 49
8.060547042976009
 49
-2551.147945737283
 53
276.1416
 43
12482.61714681399
 44
1584.516303823622
 45
-0.0000356891682921
 46
-36.87700042616381
 79
     2
 49
8.060547042976009
 49
-2551.147945737283
 53
276.1416
 43
12493.56915340416
 44
1584.516303823622
 45
-0.0000356891682921
 46
-36.87700042616381
 79
     2
 49
8.060547042976009
 49
-2551.147945737283
 53
276.1416
 43
12504.52115999432
 44
1584.516303823622
 45
-0.0000356891682921
 46
-36.87700042616381
 79
     2
 49
8.060547042976009
 49
-2551.147945737283
 53
276.1416
 43
12515.47316658449
 44
1584.516303823622
 45
-0.0000356891682921
 46
-36.87700042616381
 79
     2
 49
8.060547042976009
 49
-2551.147945737283
 53
276.1416
 43
12526.42517317466
 44
1584.516303823622
 45
-0.0000356891682921
 46
-36.87700042616381
 79
     2
 49
8.060547042976009
 49
-2551.147945737283
 53
276.1416
 43
12537.37717976482
 44
1584.516303823622
 45
-0.0000356891682921
 46
-36.87700042616381
 79
     2
 49
8.060547042976009
 49
-2551.147945737283
 53
276.1416
 43
12548.32918635499
 44
1584.516303823622
 45
-0.0000356891682921
 46
-36.87700042616381
 79
     2
 49
8.060547042976009
 49
-2551.147945737283
 53
276.1416
 43
12559.28119294515
 44
1584.516303823622
 45
-0.0000356891682921
 46
-36.87700042616381
 79
     2
 49
8.060547042976009
 49
-2551.147945737283
 53
276.1416
 43
12570.23319953533
 44
1584.516303823622
 45
-0.0000356891682921
 46
-36.87700042616381
 79
     2
 49
8.060547042976009
 49
-2551.147945737283
 53
276.1416
 43
12581.1852061255
 44
1584.516303823622
 45
-0.0000356891682921
 46
-36.87700042616381
 79
     2
 49
8.060547042976009
 49
-2551.147945737283
 53
83.85800000000008
 43
12328.13285097663
 44
1576.502041636843
 45
10.9520277214346
 46
-0.0000684758235829
 79
     2
 49
8.060547042975885
 49
-2551.147945737251
 53
83.85800000000008
 43
12328.13285097663
 44
1539.625041373701
 45
10.9520277214346
 46
-0.0000684758235829
 79
     2
 49
8.060547042975885
 49
-2551.147945737251
 53
83.85800000000008
 43
12328.13285097663
 44
1502.747942771625
 45
10.9520277214346
 46
-0.0000684758235829
 79
     2
 49
8.060547042975885
 49
-2551.147945737251
 53
83.85800000000008
 43
12328.13285097663
 44
1465.870844169557
 45
10.9520277214346
 46
-0.0000684758235829
 79
     2
 49
8.060547042975885
 49
-2551.147945737251
 53
83.85800000000008
 43
12328.13285097663
 44
1428.993745567489
 45
10.9520277214346
 46
-0.0000684758235829
 79
     2
 49
8.060547042975885
 49
-2551.147945737251
 53
83.85800000000008
 43
12328.13285097663
 44
1392.116646965414
 45
10.9520277214346
 46
-0.0000684758235829
 79
     2
 49
8.060547042975885
 49
-2551.147945737251
 53
83.85800000000008
 43
12328.13285097663
 44
1355.239548363342
 45
10.9520277214346
 46
-0.0000684758235829
 79
     2
 49
8.060547042975885
 49
-2551.147945737251
 53
83.85800000000008
 43
12328.13285097663
 44
1318.36244976127
 45
10.9520277214346
 46
-0.0000684758235829
 79
     2
 49
8.060547042975885
 49
-2551.147945737251
 53
83.85800000000008
 43
12328.13285097663
 44
1281.485351159202
 45
10.9520277214346
 46
-0.0000684758235829
 79
     2
 49
8.060547042975885
 49
-2551.147945737251
 53
83.85800000000008
 43
12328.13285097663
 44
1244.606613574969
 45
10.9520277214346
 46
-0.0000684758235829
 79
     2
 49
8.060547042975885
 49
-2551.147945737251
 53
83.85800000000008
 43
12328.13285097663
 44
1207.729514972897
 45
10.9520277214346
 46
-0.0000684758235829
 79
     2
 49
8.060547042975885
 49
-2551.147945737251
 53
83.85800000000008
 43
12328.13285097663
 44
1170.852416370822
 45
10.9520277214346
 46
-0.0000684758235829
 79
     2
 49
8.060547042975885
 49
-2551.147945737251
 53
83.85800000000008
 43
12328.13285097663
 44
1133.975317768753
 45
10.9520277214346
 46
-0.0000684758235829
 79
     2
 49
8.060547042975885
 49
-2551.147945737251
 53
83.85800000000008
 43
12328.13285097663
 44
1097.098219166685
 45
10.9520277214346
 46
-0.0000684758235829
 79
     2
 49
8.060547042975885
 49
-2551.147945737251
 53
83.85800000000008
 43
12328.13285097663
 44
1060.22112056461
 45
10.9520277214346
 46
-0.0000684758235829
 79
     2
 49
8.060547042975885
 49
-2551.147945737251
 53
83.85800000000008
 43
12328.13285097663
 44
1023.344021962538
 45
10.9520277214346
 46
-0.0000684758235829
 79
     2
 49
8.060547042975885
 49
-2551.147945737251
 53
83.85800000000008
 43
12328.13285097663
 44
986.4669233604665
 45
10.9520277214346
 46
-0.0000684758235829
 79
     2
 49
8.060547042975885
 49
-2551.147945737251
 53
83.85800000000008
 43
12328.13285097663
 44
949.5898247583948
 45
10.9520277214346
 46
-0.0000684758235829
 79
     2
 49
8.060547042975885
 49
-2551.147945737251
 53
83.85800000000008
 43
12328.13285097663
 44
912.7127261563266
 45
10.9520277214346
 46
-0.0000684758235829
 79
     2
 49
8.060547042975885
 49
-2551.147945737251
 53
83.85800000000008
 43
12328.13285097663
 44
875.8356275542549
 45
10.9520277214346
 46
-0.0000684758235829
 79
     2
 49
8.060547042975885
 49
-2551.147945737251
 53
83.85800000000008
 43
12328.13285097663
 44
838.9585289521795
 45
10.9520277214346
 46
-0.0000684758235829
 79
     2
 49
8.060547042975885
 49
-2551.147945737251
 53
83.85800000000008
 43
12328.13285097663
 44
802.0814303501113
 45
10.9520277214346
 46
-0.0000684758235829
 79
     2
 49
8.060547042975885
 49
-2551.147945737251
 53
83.85800000000008
 43
12328.13285097663
 44
765.2043317480395
 45
10.9520277214346
 46
-0.0000684758235829
 79
     2
 49
8.060547042975885
 49
-2551.147945737251
 53
83.85800000000008
 43
12328.13285097663
 44
728.3272331459677
 45
10.9520277214346
 46
-0.0000684758235829
 79
     2
 49
8.060547042975885
 49
-2551.147945737251
 53
83.85800000000008
 43
12328.13285097663
 44
691.4501345438923
 45
10.9520277214346
 46
-0.0000684758235829
 79
     2
 49
8.060547042975885
 49
-2551.147945737251
 53
83.85800000000008
 43
12328.13285097663
 44
654.5730359418241
 45
10.9520277214346
 46
-0.0000684758235829
 79
     2
 49
8.060547042975885
 49
-2551.147945737251
 53
83.85800000000008
 43
12328.13285097663
 44
617.6959373397487
 45
10.9520277214346
 46
-0.0000684758235829
 79
     2
 49
8.060547042975885
 49
-2551.147945737251
 53
83.85800000000008
 43
12328.13285097663
 44
580.8188387376806
 45
10.9520277214346
 46
-0.0000684758235829
 79
     2
 49
8.060547042975885
 49
-2551.147945737251
 53
83.85800000000008
 43
12328.13285097663
 44
543.9417401356052
 45
10.9520277214346
 46
-0.0000684758235829
 79
     2
 49
8.060547042975885
 49
-2551.147945737251
 53
83.85800000000008
 43
12328.13285097663
 44
507.064641533537
 45
10.9520277214346
 46
-0.0000684758235829
 79
     2
 49
8.060547042975885
 49
-2551.147945737251
 53
83.85800000000008
 43
12328.13285097663
 44
470.1875429314688
 45
10.9520277214346
 46
-0.0000684758235829
 79
     2
 49
8.060547042975885
 49
-2551.147945737251
 53
83.85800000000008
 43
12328.13285097663
 44
433.3104443293934
 45
10.9520277214346
 46
-0.0000684758235829
 79
     2
 49
8.060547042975885
 49
-2551.147945737251
 53
83.85800000000008
 43
12328.13285097663
 44
396.4333457273217
 45
10.9520277214346
 46
-0.0000684758235829
 79
     2
 49
8.060547042975885
 49
-2551.147945737251
 53
83.85800000000008
 43
12328.13285097663
 44
359.5562471252499
 45
10.9520277214346
 46
-0.0000684758235829
 79
     2
 49
8.060547042975885
 49
-2551.147945737251
 53
83.85800000000008
 43
12328.13285097663
 44
322.6791485231781
 45
10.9520277214346
 46
-0.0000684758235829
 79
     2
 49
8.060547042975885
 49
-2551.147945737251
 53
83.85800000000008
 43
12328.13285097663
 44
285.8020499211063
 45
10.9520277214346
 46
-0.0000684758235829
 79
     2
 49
8.060547042975885
 49
-2551.147945737251
 53
83.85800000000008
 43
12328.13285097663
 44
248.9249513190382
 45
10.9520277214346
 46
-0.0000684758235829
 79
     2
 49
8.060547042975885
 49
-2551.147945737251
 53
83.85800000000008
 43
12328.13285097663
 44
212.0478527169673
 45
10.9520277214346
 46
-0.0000684758235829
 79
     2
 49
8.060547042975885
 49
-2551.147945737251
 53
83.85800000000008
 43
12328.13285097663
 44
175.1707541148919
 45
10.9520277214346
 46
-0.0000684758235829
 79
     2
 49
8.060547042975885
 49
-2551.147945737251
 53
83.85800000000008
 43
12328.13285097663
 44
138.2936555128237
 45
10.9520277214346
 46
-0.0000684758235829
 79
     2
 49
8.060547042975885
 49
-2551.147945737251
 53
83.85800000000008
 43
12328.13285097663
 44
101.4165569107519
 45
10.9520277214346
 46
-0.0000684758235829
 79
     2
 49
8.060547042975885
 49
-2551.147945737251
 53
83.85800000000008
 43
12328.13285097663
 44
64.53945830868019
 45
10.9520277214346
 46
-0.0000684758235829
 79
     2
 49
8.060547042975885
 49
-2551.147945737251
 53
83.85800000000008
 43
12328.13285097663
 44
27.66235970660841
 45
10.9520277214346
 46
-0.0000684758235829
 79
     2
 49
8.060547042975885
 49
-2551.147945737251
 53
83.85800000000008
 43
12328.13285097663
 44
-9.214738895463369
 45
10.9520277214346
 46
-0.0000684758235829
 79
     2
 49
8.060547042975885
 49
-2551.147945737251
 53
83.85800000000008
 43
12328.13285097663
 44
-46.09183749753515
 45
10.9520277214346
 46
-0.0000684758235829
 79
     2
 49
8.060547042975885
 49
-2551.147945737251
 53
83.85800000000008
 43
12328.13285097663
 44
-82.96893609960694
 45
10.9520277214346
 46
-0.0000684758235829
 79
     2
 49
8.060547042975885
 49
-2551.147945737251
 53
83.85800000000008
 43
12328.13285097663
 44
-119.8460347016787
 45
10.9520277214346
 46
-0.0000684758235829
 79
     2
 49
8.060547042975885
 49
-2551.147945737251
 53
83.85800000000008
 43
12328.13285097663
 44
-156.7231333037541
 45
10.9520277214346
 46
-0.0000684758235829
 79
     2
 49
8.060547042975885
 49
-2551.147945737251
 53
83.85800000000008
 43
12328.13285097663
 44
-193.6002319058186
 45
10.9520277214346
 46
-0.0000684758235829
 79
     2
 49
8.060547042975885
 49
-2551.147945737251
 53
83.85800000000008
 43
12328.13285097663
 44
-230.4773305078904
 45
10.9520277214346
 46
-0.0000684758235829
 79
     2
 49
8.060547042975885
 49
-2551.147945737251
 53
83.85800000000008
 43
12328.13285097663
 44
-267.3544291099659
 45
10.9520277214346
 46
-0.0000684758235829
 79
     2
 49
8.060547042975885
 49
-2551.147945737251
 53
83.85800000000008
 43
12328.13285097663
 44
-304.2315277120376
 45
10.9520277214346
 46
-0.0000684758235829
 79
     2
 49
8.060547042975885
 49
-2551.147945737251
 53
83.85800000000008
 43
12328.13285097663
 44
-341.1086263141094
 45
10.9520277214346
 46
-0.0000684758235829
 79
     2
 49
8.060547042975885
 49
-2551.147945737251
 53
83.85800000000008
 43
12328.13285097663
 44
-377.9857249161812
 45
10.9520277214346
 46
-0.0000684758235829
 79
     2
 49
8.060547042975885
 49
-2551.147945737251
 53
83.85800000000008
 43
12328.13285097663
 44
-414.8628235182493
 45
10.9520277214346
 46
-0.0000684758235829
 79
     2
 49
8.060547042975885
 49
-2551.147945737251
 53
83.85800000000008
 43
12328.13285097663
 44
-451.7399221203211
 45
10.9520277214346
 46
-0.0000684758235829
 79
     2
 49
8.060547042975885
 49
-2551.147945737251
 53
83.85800000000008
 43
12328.13285097663
 44
-488.6170207223965
 45
10.9520277214346
 46
-0.0000684758235829
 79
     2
 49
8.060547042975885
 49
-2551.147945737251
 53
83.85800000000008
 43
12328.13285097663
 44
-525.4941193244646
 45
10.9520277214346
 46
-0.0000684758235829
 79
     2
 49
8.060547042975885
 49
-2551.147945737251
 53
83.85800000000008
 43
12328.13285097663
 44
-562.3712179265364
 45
10.9520277214346
 46
-0.0000684758235829
 79
     2
 49
8.060547042975885
 49
-2551.147945737251
 53
83.85800000000008
 43
12328.13285097663
 44
-599.2483165286082
 45
10.9520277214346
 46
-0.0000684758235829
 79
     2
 49
8.060547042975885
 49
-2551.147945737251
 53
83.85800000000008
 43
12328.13285097663
 44
-636.12541513068
 45
10.9520277214346
 46
-0.0000684758235829
 79
     2
 49
8.060547042975885
 49
-2551.147945737251
 53
83.85800000000008
 43
12328.13285097663
 44
-673.0025137327518
 45
10.9520277214346
 46
-0.0000684758235829
 79
     2
 49
8.060547042975885
 49
-2551.147945737251
 53
83.85800000000008
 43
12328.13285097663
 44
-709.8796123348236
 45
10.9520277214346
 46
-0.0000684758235829
 79
     2
 49
8.060547042975885
 49
-2551.147945737251
 53
83.85800000000008
 43
12328.13285097663
 44
-746.7567109368953
 45
10.9520277214346
 46
-0.0000684758235829
 79
     2
 49
8.060547042975885
 49
-2551.147945737251
 53
83.85800000000008
 43
12328.13285097663
 44
-783.6338095389671
 45
10.9520277214346
 46
-0.0000684758235829
 79
     2
 49
8.060547042975885
 49
-2551.147945737251
 53
83.85800000000008
 43
12328.13285097663
 44
-820.5109081410425
 45
10.9520277214346
 46
-0.0000684758235829
 79
     2
 49
8.060547042975885
 49
-2551.147945737251
 53
83.85800000000008
 43
12328.13285097663
 44
-857.3880067431106
 45
10.9520277214346
 46
-0.0000684758235829
 79
     2
 49
8.060547042975885
 49
-2551.147945737251
 53
83.85800000000008
 43
12328.13285097663
 44
-894.2651053451788
 45
10.9520277214346
 46
-0.0000684758235829
 79
     2
 49
8.060547042975885
 49
-2551.147945737251
 53
83.85800000000008
 43
12328.13285097663
 44
-931.1422039472542
 45
10.9520277214346
 46
-0.0000684758235829
 79
     2
 49
8.060547042975885
 49
-2551.147945737251
 53
83.25300000000003
 43
12323.99366709061
 44
1561.430223929784
 45
10.95204383447483
 46
0.0000798601498432
 79
     2
 49
7.399774995313283
 49
-4560.119085052519
 53
83.25300000000003
 43
12323.99366709061
 44
1524.553289225926
 45
10.95204383447483
 46
0.0000798601498432
 79
     2
 49
7.399774995313283
 49
-4560.119085052519
 53
83.25300000000003
 43
12323.99366709061
 44
1487.676190623854
 45
10.95204383447483
 46
0.0000798601498432
 79
     2
 49
7.399774995313283
 49
-4560.119085052519
 53
83.25300000000003
 43
12323.99366709061
 44
1450.799092021783
 45
10.95204383447483
 46
0.0000798601498432
 79
     2
 49
7.399774995313283
 49
-4560.119085052519
 53
83.25300000000003
 43
12323.99366709061
 44
1413.921993419714
 45
10.95204383447483
 46
0.0000798601498432
 79
     2
 49
7.399774995313283
 49
-4560.119085052519
 53
83.25300000000003
 43
12323.99366709061
 44
1377.044894817643
 45
10.95204383447483
 46
0.0000798601498432
 79
     2
 49
7.399774995313283
 49
-4560.119085052519
 53
83.25300000000003
 43
12323.99366709061
 44
1340.167796215567
 45
10.95204383447483
 46
0.0000798601498432
 79
     2
 49
7.399774995313283
 49
-4560.119085052519
 53
83.25300000000003
 43
12323.99366709061
 44
1303.290697613499
 45
10.95204383447483
 46
0.0000798601498432
 79
     2
 49
7.399774995313283
 49
-4560.119085052519
 53
83.25300000000003
 43
12323.99366709061
 44
1266.413599011424
 45
10.95204383447483
 46
0.0000798601498432
 79
     2
 49
7.399774995313283
 49
-4560.119085052519
 53
83.25300000000003
 43
12323.99366709061
 44
1229.537811595082
 45
10.95204383447483
 46
0.0000798601498432
 79
     2
 49
7.399774995313283
 49
-4560.119085052519
 53
83.25300000000003
 43
12323.99366709061
 44
1192.660712993014
 45
10.95204383447483
 46
0.0000798601498432
 79
     2
 49
7.399774995313283
 49
-4560.119085052519
 53
83.25300000000003
 43
12323.99366709061
 44
1155.783614390938
 45
10.95204383447483
 46
0.0000798601498432
 79
     2
 49
7.399774995313283
 49
-4560.119085052519
 53
83.25300000000003
 43
12323.99366709061
 44
1118.90651578887
 45
10.95204383447483
 46
0.0000798601498432
 79
     2
 49
7.399774995313283
 49
-4560.119085052519
 53
83.25300000000003
 43
12323.99366709061
 44
1082.029417186795
 45
10.95204383447483
 46
0.0000798601498432
 79
     2
 49
7.399774995313283
 49
-4560.119085052519
 53
83.25300000000003
 43
12323.99366709061
 44
1045.152318584719
 45
10.95204383447483
 46
0.0000798601498432
 79
     2
 49
7.399774995313283
 49
-4560.119085052519
 53
83.25300000000003
 43
12323.99366709061
 44
1008.275219982651
 45
10.95204383447483
 46
0.0000798601498432
 79
     2
 49
7.399774995313283
 49
-4560.119085052519
 53
83.25300000000003
 43
12323.99366709061
 44
971.398121380583
 45
10.95204383447483
 46
0.0000798601498432
 79
     2
 49
7.399774995313283
 49
-4560.119085052519
 53
83.25300000000003
 43
12323.99366709061
 44
934.5210227785075
 45
10.95204383447483
 46
0.0000798601498432
 79
     2
 49
7.399774995313283
 49
-4560.119085052519
 53
83.25300000000003
 43
12323.99366709061
 44
897.6439241764358
 45
10.95204383447483
 46
0.0000798601498432
 79
     2
 49
7.399774995313283
 49
-4560.119085052519
 53
83.25300000000003
 43
12323.99366709061
 44
860.7668255743639
 45
10.95204383447483
 46
0.0000798601498432
 79
     2
 49
7.399774995313283
 49
-4560.119085052519
 53
83.25300000000003
 43
12323.99366709061
 44
823.8897269722958
 45
10.95204383447483
 46
0.0000798601498432
 79
     2
 49
7.399774995313283
 49
-4560.119085052519
 53
83.25300000000003
 43
12323.99366709061
 44
787.0126283702277
 45
10.95204383447483
 46
0.0000798601498432
 79
     2
 49
7.399774995313283
 49
-4560.119085052519
 53
83.25300000000003
 43
12323.99366709061
 44
750.1355297681523
 45
10.95204383447483
 46
0.0000798601498432
 79
     2
 49
7.399774995313283
 49
-4560.119085052519
 53
83.25300000000003
 43
12323.99366709061
 44
713.2584311660768
 45
10.95204383447483
 46
0.0000798601498432
 79
     2
 49
7.399774995313283
 49
-4560.119085052519
 53
83.25300000000003
 43
12323.99366709061
 44
676.3813325640087
 45
10.95204383447483
 46
0.0000798601498432
 79
     2
 49
7.399774995313283
 49
-4560.119085052519
 53
83.25300000000003
 43
12323.99366709061
 44
639.504233961937
 45
10.95204383447483
 46
0.0000798601498432
 79
     2
 49
7.399774995313283
 49
-4560.119085052519
 53
83.25300000000003
 43
12323.99366709061
 44
602.6271353598652
 45
10.95204383447483
 46
0.0000798601498432
 79
     2
 49
7.399774995313283
 49
-4560.119085052519
 53
83.25300000000003
 43
12323.99366709061
 44
565.7500367577934
 45
10.95204383447483
 46
0.0000798601498432
 79
     2
 49
7.399774995313283
 49
-4560.119085052519
 53
83.25300000000003
 43
12323.99366709061
 44
528.8729381557216
 45
10.95204383447483
 46
0.0000798601498432
 79
     2
 49
7.399774995313283
 49
-4560.119085052519
 53
83.25300000000003
 43
12323.99366709061
 44
491.9958395536498
 45
10.95204383447483
 46
0.0000798601498432
 79
     2
 49
7.399774995313283
 49
-4560.119085052519
 53
83.25300000000003
 43
12323.99366709061
 44
455.118740951578
 45
10.95204383447483
 46
0.0000798601498432
 79
     2
 49
7.399774995313283
 49
-4560.119085052519
 53
83.25300000000003
 43
12323.99366709061
 44
418.2416423495062
 45
10.95204383447483
 46
0.0000798601498432
 79
     2
 49
7.399774995313283
 49
-4560.119085052519
 53
83.25300000000003
 43
12323.99366709061
 44
381.3645437474345
 45
10.95204383447483
 46
0.0000798601498432
 79
     2
 49
7.399774995313283
 49
-4560.119085052519
 53
83.25300000000003
 43
12323.99366709061
 44
344.4874451453663
 45
10.95204383447483
 46
0.0000798601498432
 79
     2
 49
7.399774995313283
 49
-4560.119085052519
 53
83.25300000000003
 43
12323.99366709061
 44
307.6103465432946
 45
10.95204383447483
 46
0.0000798601498432
 79
     2
 49
7.399774995313283
 49
-4560.119085052519
 53
83.25300000000003
 43
12323.99366709061
 44
270.7332479412228
 45
10.95204383447483
 46
0.0000798601498432
 79
     2
 49
7.399774995313283
 49
-4560.119085052519
 53
83.25300000000003
 43
12323.99366709061
 44
233.8561493391473
 45
10.95204383447483
 46
0.0000798601498432
 79
     2
 49
7.399774995313283
 49
-4560.119085052519
 53
83.25300000000003
 43
12323.99366709061
 44
196.9790507370801
 45
10.95204383447483
 46
0.0000798601498432
 79
     2
 49
7.399774995313283
 49
-4560.119085052519
 53
83.25300000000003
 43
12323.99366709061
 44
160.1019521350047
 45
10.95204383447483
 46
0.0000798601498432
 79
     2
 49
7.399774995313283
 49
-4560.119085052519
 53
83.25300000000003
 43
12323.99366709061
 44
123.2248535329365
 45
10.95204383447483
 46
0.0000798601498432
 79
     2
 49
7.399774995313283
 49
-4560.119085052519
 53
83.25300000000003
 43
12323.99366709061
 44
86.34775493086477
 45
10.95204383447483
 46
0.0000798601498432
 79
     2
 49
7.399774995313283
 49
-4560.119085052519
 53
83.25300000000003
 43
12323.99366709061
 44
49.47065632879298
 45
10.95204383447483
 46
0.0000798601498432
 79
     2
 49
7.399774995313283
 49
-4560.119085052519
 53
83.25300000000003
 43
12323.99366709061
 44
12.5935577267212
 45
10.95204383447483
 46
0.0000798601498432
 79
     2
 49
7.399774995313283
 49
-4560.119085052519
 53
83.25300000000003
 43
12323.99366709061
 44
-24.28354087535058
 45
10.95204383447483
 46
0.0000798601498432
 79
     2
 49
7.399774995313283
 49
-4560.119085052519
 53
83.25300000000003
 43
12323.99366709061
 44
-61.16063947742237
 45
10.95204383447483
 46
0.0000798601498432
 79
     2
 49
7.399774995313283
 49
-4560.119085052519
 53
83.25300000000003
 43
12323.99366709061
 44
-98.03773807949415
 45
10.95204383447483
 46
0.0000798601498432
 79
     2
 49
7.399774995313283
 49
-4560.119085052519
 53
83.25300000000003
 43
12323.99366709061
 44
-134.9148366815623
 45
10.95204383447483
 46
0.0000798601498432
 79
     2
 49
7.399774995313283
 49
-4560.119085052519
 53
83.25300000000003
 43
12323.99366709061
 44
-171.7919352836377
 45
10.95204383447483
 46
0.0000798601498432
 79
     2
 49
7.399774995313283
 49
-4560.119085052519
 53
83.25300000000003
 43
12323.99366709061
 44
-208.6690338857095
 45
10.95204383447483
 46
0.0000798601498432
 79
     2
 49
7.399774995313283
 49
-4560.119085052519
 53
83.25300000000003
 43
12323.99366709061
 44
-245.5461324877813
 45
10.95204383447483
 46
0.0000798601498432
 79
     2
 49
7.399774995313283
 49
-4560.119085052519
 53
83.25300000000003
 43
12323.99366709061
 44
-282.4232310898531
 45
10.95204383447483
 46
0.0000798601498432
 79
     2
 49
7.399774995313283
 49
-4560.119085052519
 53
83.25300000000003
 43
12323.99366709061
 44
-319.3003296919212
 45
10.95204383447483
 46
0.0000798601498432
 79
     2
 49
7.399774995313283
 49
-4560.119085052519
 53
83.25300000000003
 43
12323.99366709061
 44
-356.177428293993
 45
10.95204383447483
 46
0.0000798601498432
 79
     2
 49
7.399774995313283
 49
-4560.119085052519
 53
83.25300000000003
 43
12323.99366709061
 44
-393.0545268960648
 45
10.95204383447483
 46
0.0000798601498432
 79
     2
 49
7.399774995313283
 49
-4560.119085052519
 53
83.25300000000003
 43
12323.99366709061
 44
-429.9316254981402
 45
10.95204383447483
 46
0.0000798601498432
 79
     2
 49
7.399774995313283
 49
-4560.119085052519
 53
83.25300000000003
 43
12323.99366709061
 44
-466.8087241002083
 45
10.95204383447483
 46
0.0000798601498432
 79
     2
 49
7.399774995313283
 49
-4560.119085052519
 53
83.25300000000003
 43
12323.99366709061
 44
-503.6858227022837
 45
10.95204383447483
 46
0.0000798601498432
 79
     2
 49
7.399774995313283
 49
-4560.119085052519
 53
83.25300000000003
 43
12323.99366709061
 44
-540.5629213043519
 45
10.95204383447483
 46
0.0000798601498432
 79
     2
 49
7.399774995313283
 49
-4560.119085052519
 53
83.25300000000003
 43
12323.99366709061
 44
-577.4400199064237
 45
10.95204383447483
 46
0.0000798601498432
 79
     2
 49
7.399774995313283
 49
-4560.119085052519
 53
83.25300000000003
 43
12323.99366709061
 44
-614.3171185084955
 45
10.95204383447483
 46
0.0000798601498432
 79
     2
 49
7.399774995313283
 49
-4560.119085052519
 53
83.25300000000003
 43
12323.99366709061
 44
-651.1942171105673
 45
10.95204383447483
 46
0.0000798601498432
 79
     2
 49
7.399774995313283
 49
-4560.119085052519
 53
83.25300000000003
 43
12323.99366709061
 44
-688.071315712639
 45
10.95204383447483
 46
0.0000798601498432
 79
     2
 49
7.399774995313283
 49
-4560.119085052519
 53
83.25300000000003
 43
12323.99366709061
 44
-724.9484143147108
 45
10.95204383447483
 46
0.0000798601498432
 79
     2
 49
7.399774995313283
 49
-4560.119085052519
 53
83.25300000000003
 43
12323.99366709061
 44
-761.8255129167826
 45
10.95204383447483
 46
0.0000798601498432
 79
     2
 49
7.399774995313283
 49
-4560.119085052519
 53
83.25300000000003
 43
12323.99366709061
 44
-798.7026115188544
 45
10.95204383447483
 46
0.0000798601498432
 79
     2
 49
7.399774995313283
 49
-4560.119085052519
 53
83.25300000000003
 43
12323.99366709061
 44
-835.5797101209224
 45
10.95204383447483
 46
0.0000798601498432
 79
     2
 49
7.399774995313283
 49
-4560.119085052519
 53
83.25300000000003
 43
12323.99366709061
 44
-872.4568087229979
 45
10.95204383447483
 46
0.0000798601498432
 79
     2
 49
7.399774995313283
 49
-4560.119085052519
 53
83.25300000000003
 43
12323.99366709061
 44
-909.3339073250698
 45
10.95204383447483
 46
0.0000798601498432
 79
     2
 49
7.399774995313283
 49
-4560.119085052519
 53
83.25300000000003
 43
12323.99366709061
 44
-946.2110059271415
 45
10.95204383447483
 46
0.0000798601498432
 79
     2
 49
7.399774995313283
 49
-4560.119085052519
 53
83.25300000000003
 43
12323.99366709061
 44
-983.0881045292096
 45
10.95204383447483
 46
0.0000798601498432
 79
     2
 49
7.399774995313283
 49
-4560.119085052519
 53
83.25300000000003
 43
12323.99366709061
 44
-1019.965203131281
 45
10.95204383447483
 46
0.0000798601498432
 79
     2
 49
7.399774995313283
 49
-4560.119085052519
 53
83.25300000000003
 43
12323.99366709061
 44
-1056.842301733353
 45
10.95204383447483
 46
0.0000798601498432
 79
     2
 49
7.399774995313283
 49
-4560.119085052519
 53
83.25300000000003
 43
12323.99366709061
 44
-1093.719400335428
 45
10.95204383447483
 46
0.0000798601498432
 79
     2
 49
7.399774995313283
 49
-4560.119085052519
 53
83.25300000000003
 43
12323.99366709061
 44
-1130.596498937497
 45
10.95204383447483
 46
0.0000798601498432
 79
     2
 49
7.399774995313283
 49
-4560.119085052519
 53
83.25300000000003
 43
12323.99366709061
 44
-1167.473597539565
 45
10.95204383447483
 46
0.0000798601498432
 79
     2
 49
7.399774995313283
 49
-4560.119085052519
 53
83.25300000000003
 43
12323.99366709061
 44
-1204.35069614164
 45
10.95204383447483
 46
0.0000798601498432
 79
     2
 49
7.399774995313283
 49
-4560.119085052519
 53
83.25300000000003
 43
12323.99366709061
 44
-1241.227794743712
 45
10.95204383447483
 46
0.0000798601498432
 79
     2
 49
7.399774995313283
 49
-4560.119085052519
 53
83.25300000000003
 43
12323.99366709061
 44
-1278.104893345784
 45
10.95204383447483
 46
0.0000798601498432
 79
     2
 49
7.399774995313283
 49
-4560.119085052519
 53
83.25300000000003
 43
12323.99366709061
 44
-1314.981991947856
 45
10.95204383447483
 46
0.0000798601498432
 79
     2
 49
7.399774995313283
 49
-4560.119085052519
 53
83.25300000000003
 43
12323.99366709061
 44
-1351.859090549927
 45
10.95204383447483
 46
0.0000798601498432
 79
     2
 49
7.399774995313283
 49
-4560.119085052519
 53
83.25300000000003
 43
12323.99366709061
 44
-1388.736189151999
 45
10.95204383447483
 46
0.0000798601498432
 79
     2
 49
7.399774995313283
 49
-4560.119085052519
 53
83.25300000000003
 43
12323.99366709061
 44
-1425.613287754071
 45
10.95204383447483
 46
0.0000798601498432
 79
     2
 49
7.399774995313283
 49
-4560.119085052519
 53
83.25300000000003
 43
12323.99366709061
 44
-1462.490386356143
 45
10.95204383447483
 46
0.0000798601498432
 79
     2
 49
7.399774995313283
 49
-4560.119085052519
 53
83.25300000000003
 43
12323.99366709061
 44
-1499.367484958211
 45
10.95204383447483
 46
0.0000798601498432
 79
     2
 49
7.399774995313283
 49
-4560.119085052519
 53
83.25300000000003
 43
12323.99366709061
 44
-1536.244583560286
 45
10.95204383447483
 46
0.0000798601498432
 79
     2
 49
7.399774995313283
 49
-4560.119085052519
 53
83.25300000000003
 43
12323.99366709061
 44
-1573.121682162358
 45
10.95204383447483
 46
0.0000798601498432
 79
     2
 49
7.399774995313283
 49
-4560.119085052519
 53
83.25300000000003
 43
12323.99366709061
 44
-1609.998780764426
 45
10.95204383447483
 46
0.0000798601498432
 79
     2
 49
7.399774995313283
 49
-4560.119085052519
 53
83.25300000000003
 43
12323.99366709061
 44
-1646.875879366498
 45
10.95204383447483
 46
0.0000798601498432
 79
     2
 49
7.399774995313283
 49
-4560.119085052519
 53
83.25300000000003
 43
12323.99366709061
 44
-1683.75297796857
 45
10.95204383447483
 46
0.0000798601498432
 79
     2
 49
7.399774995313283
 49
-4560.119085052519
 53
83.25300000000003
 43
12323.99366709061
 44
-1720.633354534964
 45
10.95204383447483
 46
0.0000798601498432
 79
     2
 49
7.399774995313283
 49
-4560.119085052519
 53
83.25300000000003
 43
12323.99366709061
 44
-1757.510453137036
 45
10.95204383447483
 46
0.0000798601498432
 79
     2
 49
7.399774995313283
 49
-4560.119085052519
 53
83.25300000000003
 43
12323.99366709061
 44
-1794.387551739108
 45
10.95204383447483
 46
0.0000798601498432
 79
     2
 49
7.399774995313283
 49
-4560.119085052519
 53
83.25300000000003
 43
12323.99366709061
 44
-1831.264650341176
 45
10.95204383447483
 46
0.0000798601498432
 79
     2
 49
7.399774995313283
 49
-4560.119085052519
 53
83.25300000000003
 43
12323.99366709061
 44
-1868.141748943248
 45
10.95204383447483
 46
0.0000798601498432
 79
     2
 49
7.399774995313283
 49
-4560.119085052519
 53
83.25300000000003
 43
12323.99366709061
 44
-1905.018847545323
 45
10.95204383447483
 46
0.0000798601498432
 79
     2
 49
7.399774995313283
 49
-4560.119085052519
 53
83.25300000000003
 43
12323.99366709061
 44
-1941.895946147395
 45
10.95204383447483
 46
0.0000798601498432
 79
     2
 49
7.399774995313283
 49
-4560.119085052519
 53
83.25300000000003
 43
12323.99366709061
 44
-1978.773044749466
 45
10.95204383447483
 46
0.0000798601498432
 79
     2
 49
7.399774995313283
 49
-4560.119085052519
 53
83.25300000000003
 43
12323.99366709061
 44
-2015.650143351539
 45
10.95204383447483
 46
0.0000798601498432
 79
     2
 49
7.399774995313283
 49
-4560.119085052519
 53
83.25300000000003
 43
12323.99366709061
 44
-2052.527241953607
 45
10.95204383447483
 46
0.0000798601498432
 79
     2
 49
7.399774995313283
 49
-4560.119085052519
 53
83.25300000000003
 43
12323.99366709061
 44
-2089.404340555679
 45
10.95204383447483
 46
0.0000798601498432
 79
     2
 49
7.399774995313283
 49
-4560.119085052519
 53
83.25300000000003
 43
12323.99366709061
 44
-2126.281439157754
 45
10.95204383447483
 46
0.0000798601498432
 79
     2
 49
7.399774995313283
 49
-4560.119085052519
 53
83.25300000000003
 43
12323.99366709061
 44
-2163.158537759822
 45
10.95204383447483
 46
0.0000798601498432
 79
     2
 49
7.399774995313283
 49
-4560.119085052519
 53
83.25300000000003
 43
12323.99366709061
 44
-2200.035636361894
 45
10.95204383447483
 46
0.0000798601498432
 79
     2
 49
7.399774995313283
 49
-4560.119085052519
 53
83.25300000000003
 43
12323.99366709061
 44
-2236.912734963966
 45
10.95204383447483
 46
0.0000798601498432
 79
     2
 49
7.399774995313283
 49
-4560.119085052519
 53
83.25300000000003
 43
12323.99366709061
 44
-2273.789833566038
 45
10.95204383447483
 46
0.0000798601498432
 79
     2
 49
7.399774995313283
 49
-4560.119085052519
 53
83.25300000000003
 43
12323.99366709061
 44
-2310.666932168109
 45
10.95204383447483
 46
0.0000798601498432
 79
     2
 49
7.399774995313283
 49
-4560.119085052519
 53
83.25300000000003
 43
12323.99366709061
 44
-2347.544030770181
 45
10.95204383447483
 46
0.0000798601498432
 79
     2
 49
7.399774995313283
 49
-4560.119085052519
 53
83.25300000000003
 43
12323.99366709061
 44
-2384.421129372253
 45
10.95204383447483
 46
0.0000798601498432
 79
     2
 49
7.399774995313283
 49
-4560.119085052519
 53
83.25300000000003
 43
12323.99366709061
 44
-2421.298227974325
 45
10.95204383447483
 46
0.0000798601498432
 79
     2
 49
7.399774995313283
 49
-4560.119085052519
 53
83.25300000000003
 43
12323.99366709061
 44
-2458.1753265764
 45
10.95204383447483
 46
0.0000798601498432
 79
     2
 49
7.399774995313283
 49
-4560.119085052519
 53
83.25300000000003
 43
12323.99366709061
 44
-2495.052425178468
 45
10.95204383447483
 46
0.0000798601498432
 79
     2
 49
7.399774995313283
 49
-4560.119085052519
 53
83.25300000000003
 43
12323.99366709061
 44
-2531.92952378054
 45
10.95204383447483
 46
0.0000798601498432
 79
     2
 49
7.399774995313283
 49
-4560.119085052519
 53
83.25300000000003
 43
12323.99366709061
 44
-2568.806622382612
 45
10.95204383447483
 46
0.0000798601498432
 79
     2
 49
7.399774995313283
 49
-4560.119085052519
 53
83.25300000000003
 43
12323.99366709061
 44
-2605.683720984684
 45
10.95204383447483
 46
0.0000798601498432
 79
     2
 49
7.399774995313283
 49
-4560.119085052519
 53
83.25300000000003
 43
12323.99366709061
 44
-2642.560819586755
 45
10.95204383447483
 46
0.0000798601498432
 79
     2
 49
7.399774995313283
 49
-4560.119085052519
 53
83.25300000000003
 43
12323.99366709061
 44
-2679.437918188827
 45
10.95204383447483
 46
0.0000798601498432
 79
     2
 49
7.399774995313283
 49
-4560.119085052519
 53
83.25300000000003
 43
12323.99366709061
 44
-2716.315016790896
 45
10.95204383447483
 46
0.0000798601498432
 79
     2
 49
7.399774995313283
 49
-4560.119085052519
 53
83.25300000000003
 43
12323.99366709061
 44
-2753.192115392967
 45
10.95204383447483
 46
0.0000798601498432
 79
     2
 49
7.399774995313283
 49
-4560.119085052519
 53
83.25300000000003
 43
12323.99366709061
 44
-2790.069213995043
 45
10.95204383447483
 46
0.0000798601498432
 79
     2
 49
7.399774995313283
 49
-4560.119085052519
 53
83.25300000000003
 43
12323.99366709061
 44
-2826.946312597111
 45
10.95204383447483
 46
0.0000798601498432
 79
     2
 49
7.399774995313283
 49
-4560.119085052519
 53
83.25300000000003
 43
12323.99366709061
 44
-2863.823411199183
 45
10.95204383447483
 46
0.0000798601498432
 79
     2
 49
7.399774995313283
 49
-4560.119085052519
 53
83.25300000000003
 43
12323.99366709061
 44
-2900.700509801254
 45
10.95204383447483
 46
0.0000798601498432
 79
     2
 49
7.399774995313283
 49
-4560.119085052519
 53
83.25300000000003
 43
12323.99366709061
 44
-2937.577608403326
 45
10.95204383447483
 46
0.0000798601498432
 79
     2
 49
7.399774995313283
 49
-4560.119085052519
 53
74.89100000000004
 43
12322.39021806374
 44
1557.916737873195
 45
10.95202665113163
 46
-0.000003043705463
 79
     2
 49
3.63896653076602
 49
-416.5337124354707
 53
74.89100000000004
 43
12322.39021806374
 44
1521.03963927112
 45
10.95202665113163
 46
-0.000003043705463
 79
     2
 49
3.63896653076602
 49
-416.5337124354707
 53
74.89100000000004
 43
12322.39021806374
 44
1484.162540669052
 45
10.95202665113163
 46
-0.000003043705463
 79
     2
 49
3.63896653076602
 49
-416.5337124354707
 53
74.89100000000004
 43
12322.39021806374
 44
1447.285442066976
 45
10.95202665113163
 46
-0.000003043705463
 79
     2
 49
3.63896653076602
 49
-416.5337124354707
 53
74.89100000000004
 43
12322.39021806374
 44
1410.408343464905
 45
10.95202665113163
 46
-0.000003043705463
 79
     2
 49
3.63896653076602
 49
-416.5337124354707
 53
74.89100000000004
 43
12322.39021806374
 44
1373.531244862833
 45
10.95202665113163
 46
-0.000003043705463
 79
     2
 49
3.63896653076602
 49
-416.5337124354707
 53
74.89100000000004
 43
12322.39021806374
 44
1336.654146260765
 45
10.95202665113163
 46
-0.000003043705463
 79
     2
 49
3.63896653076602
 49
-416.5337124354707
 53
74.89100000000004
 43
12322.39021806374
 44
1299.777047658689
 45
10.95202665113163
 46
-0.000003043705463
 79
     2
 49
3.63896653076602
 49
-416.5337124354707
 53
74.89100000000004
 43
12322.39021806374
 44
1262.900932445919
 45
10.95202665113163
 46
-0.000003043705463
 79
     2
 49
3.63896653076602
 49
-416.5337124354707
 53
74.89100000000004
 43
12322.39021806374
 44
1226.023833843844
 45
10.95202665113163
 46
-0.000003043705463
 79
     2
 49
3.63896653076602
 49
-416.5337124354707
 53
74.89100000000004
 43
12322.39021806374
 44
1189.146735241772
 45
10.95202665113163
 46
-0.000003043705463
 79
     2
 49
3.63896653076602
 49
-416.5337124354707
 53
67.06200000000002
 43
12324.86472054941
 44
1568.778567664908
 45
10.95204222691618
 46
0.0000810236171289
 79
     2
 49
8.386475035331908
 49
-1593.356600854788
 53
67.06200000000002
 43
12324.86472054941
 44
1531.901501842484
 45
10.95204222691618
 46
0.0000810236171289
 79
     2
 49
8.386475035331908
 49
-1593.356600854788
 53
67.06200000000002
 43
12324.86472054941
 44
1495.024403240413
 45
10.95204222691618
 46
0.0000810236171289
 79
     2
 49
8.386475035331908
 49
-1593.356600854788
 53
67.06200000000002
 43
12324.86472054941
 44
1458.147304638341
 45
10.95204222691618
 46
0.0000810236171289
 79
     2
 49
8.386475035331908
 49
-1593.356600854788
 53
67.06200000000002
 43
12324.86472054941
 44
1421.270206036265
 45
10.95204222691618
 46
0.0000810236171289
 79
     2
 49
8.386475035331908
 49
-1593.356600854788
 53
67.06200000000002
 43
12324.86472054941
 44
1384.393107434197
 45
10.95204222691618
 46
0.0000810236171289
 79
     2
 49
8.386475035331908
 49
-1593.356600854788
 53
67.06200000000002
 43
12324.86472054941
 44
1347.516008832126
 45
10.95204222691618
 46
0.0000810236171289
 79
     2
 49
8.386475035331908
 49
-1593.356600854788
 53
67.06200000000002
 43
12324.86472054941
 44
1310.638910230054
 45
10.95204222691618
 46
0.0000810236171289
 79
     2
 49
8.386475035331908
 49
-1593.356600854788
 53
67.06200000000002
 43
12324.86472054941
 44
1273.761811627986
 45
10.95204222691618
 46
0.0000810236171289
 79
     2
 49
8.386475035331908
 49
-1593.356600854788
 53
67.06200000000002
 43
12324.86472054941
 44
1236.883729636612
 45
10.95204222691618
 46
0.0000810236171289
 79
     2
 49
8.386475035331908
 49
-1593.356600854788
 53
67.06200000000002
 43
12324.86472054941
 44
1200.006631034544
 45
10.95204222691618
 46
0.0000810236171289
 79
     2
 49
8.386475035331908
 49
-1593.356600854788
 53
67.06200000000002
 43
12324.86472054941
 44
1163.129532432468
 45
10.95204222691618
 46
0.0000810236171289
 79
     2
 49
8.386475035331908
 49
-1593.356600854788
 53
67.06200000000002
 43
12324.86472054941
 44
1126.2524338304
 45
10.95204222691618
 46
0.0000810236171289
 79
     2
 49
8.386475035331908
 49
-1593.356600854788
 53
67.06200000000002
 43
12324.86472054941
 44
1089.375335228332
 45
10.95204222691618
 46
0.0000810236171289
 79
     2
 49
8.386475035331908
 49
-1593.356600854788
 53
67.06200000000002
 43
12324.86472054941
 44
1052.498236626257
 45
10.95204222691618
 46
0.0000810236171289
 79
     2
 49
8.386475035331908
 49
-1593.356600854788
 53
67.06200000000002
 43
12324.86472054941
 44
1015.621138024188
 45
10.95204222691618
 46
0.0000810236171289
 79
     2
 49
8.386475035331908
 49
-1593.356600854788
 53
67.06200000000002
 43
12324.86472054941
 44
978.7440394221132
 45
10.95204222691618
 46
0.0000810236171289
 79
     2
 49
8.386475035331908
 49
-1593.356600854788
 53
67.06200000000002
 43
12324.86472054941
 44
941.8669408200377
 45
10.95204222691618
 46
0.0000810236171289
 79
     2
 49
8.386475035331908
 49
-1593.356600854788
 53
67.06200000000002
 43
12324.86472054941
 44
904.9898422179696
 45
10.95204222691618
 46
0.0000810236171289
 79
     2
 49
8.386475035331908
 49
-1593.356600854788
 53
67.06200000000002
 43
12324.86472054941
 44
868.1127436159014
 45
10.95204222691618
 46
0.0000810236171289
 79
     2
 49
8.386475035331908
 49
-1593.356600854788
 53
67.06200000000002
 43
12324.86472054941
 44
831.2356450138262
 45
10.95204222691618
 46
0.0000810236171289
 79
     2
 49
8.386475035331908
 49
-1593.356600854788
 53
67.06200000000002
 43
12324.86472054941
 44
794.3585464117543
 45
10.95204222691618
 46
0.0000810236171289
 79
     2
 49
8.386475035331908
 49
-1593.356600854788
 53
67.06200000000002
 43
12324.86472054941
 44
757.4814478096826
 45
10.95204222691618
 46
0.0000810236171289
 79
     2
 49
8.386475035331908
 49
-1593.356600854788
 53
67.06200000000002
 43
12324.86472054941
 44
720.6043492076108
 45
10.95204222691618
 46
0.0000810236171289
 79
     2
 49
8.386475035331908
 49
-1593.356600854788
 53
67.06200000000002
 43
12324.86472054941
 44
683.7272506055426
 45
10.95204222691618
 46
0.0000810236171289
 79
     2
 49
8.386475035331908
 49
-1593.356600854788
 53
67.06200000000002
 43
12324.86472054941
 44
646.8501520034708
 45
10.95204222691618
 46
0.0000810236171289
 79
     2
 49
8.386475035331908
 49
-1593.356600854788
 53
67.06200000000002
 43
12324.86472054941
 44
609.9730534013954
 45
10.95204222691618
 46
0.0000810236171289
 79
     2
 49
8.386475035331908
 49
-1593.356600854788
 53
67.06200000000002
 43
12324.86472054941
 44
573.0959547993272
 45
10.95204222691618
 46
0.0000810236171289
 79
     2
 49
8.386475035331908
 49
-1593.356600854788
 53
67.06200000000002
 43
12324.86472054941
 44
536.2188561972555
 45
10.95204222691618
 46
0.0000810236171289
 79
     2
 49
8.386475035331908
 49
-1593.356600854788
 53
67.06200000000002
 43
12324.86472054941
 44
499.3417575951837
 45
10.95204222691618
 46
0.0000810236171289
 79
     2
 49
8.386475035331908
 49
-1593.356600854788
 53
67.06200000000002
 43
12324.86472054941
 44
462.4646589931082
 45
10.95204222691618
 46
0.0000810236171289
 79
     2
 49
8.386475035331908
 49
-1593.356600854788
 53
67.06200000000002
 43
12324.86472054941
 44
425.5875603910401
 45
10.95204222691618
 46
0.0000810236171289
 79
     2
 49
8.386475035331908
 49
-1593.356600854788
 53
67.06200000000002
 43
12324.86472054941
 44
388.7104617889684
 45
10.95204222691618
 46
0.0000810236171289
 79
     2
 49
8.386475035331908
 49
-1593.356600854788
 53
67.06200000000002
 43
12324.86472054941
 44
351.8333631868966
 45
10.95204222691618
 46
0.0000810236171289
 79
     2
 49
8.386475035331908
 49
-1593.356600854788
 53
67.06200000000002
 43
12324.86472054941
 44
314.9562645848248
 45
10.95204222691618
 46
0.0000810236171289
 79
     2
 49
8.386475035331908
 49
-1593.356600854788
 53
67.06200000000002
 43
12324.86472054941
 44
278.079165982753
 45
10.95204222691618
 46
0.0000810236171289
 79
     2
 49
8.386475035331908
 49
-1593.356600854788
 53
67.06200000000002
 43
12324.86472054941
 44
241.2020673806812
 45
10.95204222691618
 46
0.0000810236171289
 79
     2
 49
8.386475035331908
 49
-1593.356600854788
 53
67.06200000000002
 43
12324.86472054941
 44
204.324968778614
 45
10.95204222691618
 46
0.0000810236171289
 79
     2
 49
8.386475035331908
 49
-1593.356600854788
 53
67.06200000000002
 43
12324.86472054941
 44
167.4478701765422
 45
10.95204222691618
 46
0.0000810236171289
 79
     2
 49
8.386475035331908
 49
-1593.356600854788
 53
67.06200000000002
 43
12324.86472054941
 44
130.5707715744668
 45
10.95204222691618
 46
0.0000810236171289
 79
     2
 49
8.386475035331908
 49
-1593.356600854788
 53
52.43499999999998
 43
12318.33643662113
 44
1584.516303823622
 45
10.95203172552474
 46
-0.000054871588512
 79
     2
 49
4.503300162712174
 49
-1809.889024393906
 53
52.43499999999998
 43
12318.33643662113
 44
1547.639336340123
 45
10.95203172552474
 46
-0.000054871588512
 79
     2
 49
4.503300162712174
 49
-1809.889024393906
 53
52.43499999999998
 43
12318.33643662113
 44
1510.762237738048
 45
10.95203172552474
 46
-0.000054871588512
 79
     2
 49
4.503300162712174
 49
-1809.889024393906
 53
52.43499999999998
 43
12318.33643662113
 44
1473.885139135972
 45
10.95203172552474
 46
-0.000054871588512
 79
     2
 49
4.503300162712174
 49
-1809.889024393906
 53
52.43499999999998
 43
12318.33643662113
 44
1437.008040533904
 45
10.95203172552474
 46
-0.000054871588512
 79
     2
 49
4.503300162712174
 49
-1809.889024393906
 53
52.43499999999998
 43
12318.33643662113
 44
1400.130941931836
 45
10.95203172552474
 46
-0.000054871588512
 79
     2
 49
4.503300162712174
 49
-1809.889024393906
 53
52.43499999999998
 43
12318.33643662113
 44
1363.253843329764
 45
10.95203172552474
 46
-0.000054871588512
 79
     2
 49
4.503300162712174
 49
-1809.889024393906
 53
52.43499999999998
 43
12318.33643662113
 44
1326.376744727692
 45
10.95203172552474
 46
-0.000054871588512
 79
     2
 49
4.503300162712174
 49
-1809.889024393906
 53
52.43499999999998
 43
12318.33643662113
 44
1289.499646125617
 45
10.95203172552474
 46
-0.000054871588512
 79
     2
 49
4.503300162712174
 49
-1809.889024393906
 53
52.43499999999998
 43
12318.33643662113
 44
1252.621236337815
 45
10.95203172552474
 46
-0.000054871588512
 79
     2
 49
4.503300162712174
 49
-1809.889024393906
 53
52.43499999999998
 43
12318.33643662113
 44
1215.744137735747
 45
10.95203172552474
 46
-0.000054871588512
 79
     2
 49
4.503300162712174
 49
-1809.889024393906
 53
52.43499999999998
 43
12318.33643662113
 44
1178.867039133679
 45
10.95203172552474
 46
-0.000054871588512
 79
     2
 49
4.503300162712174
 49
-1809.889024393906
 53
52.43499999999998
 43
12318.33643662113
 44
1141.989940531604
 45
10.95203172552474
 46
-0.000054871588512
 79
     2
 49
4.503300162712174
 49
-1809.889024393906
 53
52.43499999999998
 43
12318.33643662113
 44
1105.112841929528
 45
10.95203172552474
 46
-0.000054871588512
 79
     2
 49
4.503300162712174
 49
-1809.889024393906
 53
52.43499999999998
 43
12318.33643662113
 44
1068.23574332746
 45
10.95203172552474
 46
-0.000054871588512
 79
     2
 49
4.503300162712174
 49
-1809.889024393906
 53
52.43499999999998
 43
12318.33643662113
 44
1031.358644725392
 45
10.95203172552474
 46
-0.000054871588512
 79
     2
 49
4.503300162712174
 49
-1809.889024393906
 53
52.43499999999998
 43
12318.33643662113
 44
994.4815461233167
 45
10.95203172552474
 46
-0.000054871588512
 79
     2
 49
4.503300162712174
 49
-1809.889024393906
 53
52.43499999999998
 43
12318.33643662113
 44
957.6044475212485
 45
10.95203172552474
 46
-0.000054871588512
 79
     2
 49
4.503300162712174
 49
-1809.889024393906
 53
52.43499999999998
 43
12318.33643662113
 44
920.7273489191733
 45
10.95203172552474
 46
-0.000054871588512
 79
     2
 49
4.503300162712174
 49
-1809.889024393906
 53
52.43499999999998
 43
12318.33643662113
 44
883.8502503171051
 45
10.95203172552474
 46
-0.000054871588512
 79
     2
 49
4.503300162712174
 49
-1809.889024393906
 53
52.43499999999998
 43
12318.33643662113
 44
846.9731517150369
 45
10.95203172552474
 46
-0.000054871588512
 79
     2
 49
4.503300162712174
 49
-1809.889024393906
 53
52.43499999999998
 43
12318.33643662113
 44
810.0960531129615
 45
10.95203172552474
 46
-0.000054871588512
 79
     2
 49
4.503300162712174
 49
-1809.889024393906
 53
52.43499999999998
 43
12318.33643662113
 44
773.2189545108861
 45
10.95203172552474
 46
-0.000054871588512
 79
     2
 49
4.503300162712174
 49
-1809.889024393906
 53
52.43499999999998
 43
12318.33643662113
 44
736.3418559088179
 45
10.95203172552474
 46
-0.000054871588512
 79
     2
 49
4.503300162712174
 49
-1809.889024393906
 53
52.43499999999998
 43
12318.33643662113
 44
699.4647573067425
 45
10.95203172552474
 46
-0.000054871588512
 79
     2
 49
4.503300162712174
 49
-1809.889024393906
 53
52.43499999999998
 43
12318.33643662113
 44
662.5876587046743
 45
10.95203172552474
 46
-0.000054871588512
 79
     2
 49
4.503300162712174
 49
-1809.889024393906
 53
52.43499999999998
 43
12318.33643662113
 44
625.710560102599
 45
10.95203172552474
 46
-0.000054871588512
 79
     2
 49
4.503300162712174
 49
-1809.889024393906
 53
52.43499999999998
 43
12318.33643662113
 44
588.8334615005308
 45
10.95203172552474
 46
-0.000054871588512
 79
     2
 49
4.503300162712174
 49
-1809.889024393906
 53
52.43499999999998
 43
12318.33643662113
 44
551.956362898459
 45
10.95203172552474
 46
-0.000054871588512
 79
     2
 49
4.503300162712174
 49
-1809.889024393906
 53
52.43499999999998
 43
12318.33643662113
 44
515.0792642963872
 45
10.95203172552474
 46
-0.000054871588512
 79
     2
 49
4.503300162712174
 49
-1809.889024393906
 53
52.43499999999998
 43
12318.33643662113
 44
478.2021656943154
 45
10.95203172552474
 46
-0.000054871588512
 79
     2
 49
4.503300162712174
 49
-1809.889024393906
 53
52.43499999999998
 43
12318.33643662113
 44
441.3250670922436
 45
10.95203172552474
 46
-0.000054871588512
 79
     2
 49
4.503300162712174
 49
-1809.889024393906
 53
52.43499999999998
 43
12318.33643662113
 44
404.4479684901755
 45
10.95203172552474
 46
-0.000054871588512
 79
     2
 49
4.503300162712174
 49
-1809.889024393906
 53
52.43499999999998
 43
12318.33643662113
 44
367.5708698881001
 45
10.95203172552474
 46
-0.000054871588512
 79
     2
 49
4.503300162712174
 49
-1809.889024393906
 53
52.43499999999998
 43
12318.33643662113
 44
330.693771286032
 45
10.95203172552474
 46
-0.000054871588512
 79
     2
 49
4.503300162712174
 49
-1809.889024393906
 53
52.43499999999998
 43
12318.33643662113
 44
293.8166726839565
 45
10.95203172552474
 46
-0.000054871588512
 79
     2
 49
4.503300162712174
 49
-1809.889024393906
 53
52.43499999999998
 43
12318.33643662113
 44
256.9395740818848
 45
10.95203172552474
 46
-0.000054871588512
 79
     2
 49
4.503300162712174
 49
-1809.889024393906
 53
52.43499999999998
 43
12318.33643662113
 44
220.0624754798139
 45
10.95203172552474
 46
-0.000054871588512
 79
     2
 49
4.503300162712174
 49
-1809.889024393906
 53
52.43499999999998
 43
12318.33643662113
 44
183.1853768777457
 45
10.95203172552474
 46
-0.000054871588512
 79
     2
 49
4.503300162712174
 49
-1809.889024393906
 53
25.04599999999999
 43
12318.18986736351
 44
1555.954220634701
 45
10.95203652759968
 46
0.0000881814618674
 79
     2
 49
4.636287175181982
 49
-2957.102061108968
 53
25.04599999999999
 43
12318.18986736351
 44
1519.077122032629
 45
10.95203652759968
 46
0.0000881814618674
 79
     2
 49
4.636287175181982
 49
-2957.102061108968
 53
25.04599999999999
 43
12318.18986736351
 44
1482.200023430553
 45
10.95203652759968
 46
0.0000881814618674
 79
     2
 49
4.636287175181982
 49
-2957.102061108968
 53
25.04599999999999
 43
12318.18986736351
 44
1445.322924828485
 45
10.95203652759968
 46
0.0000881814618674
 79
     2
 49
4.636287175181982
 49
-2957.102061108968
 53
25.04599999999999
 43
12318.18986736351
 44
1408.44582622641
 45
10.95203652759968
 46
0.0000881814618674
 79
     2
 49
4.636287175181982
 49
-2957.102061108968
 53
25.04599999999999
 43
12318.18986736351
 44
1371.568727624342
 45
10.95203652759968
 46
0.0000881814618674
 79
     2
 49
4.636287175181982
 49
-2957.102061108968
 53
25.04599999999999
 43
12318.18986736351
 44
1334.69162902227
 45
10.95203652759968
 46
0.0000881814618674
 79
     2
 49
4.636287175181982
 49
-2957.102061108968
 53
25.04599999999999
 43
12318.18986736351
 44
1297.814530420198
 45
10.95203652759968
 46
0.0000881814618674
 79
     2
 49
4.636287175181982
 49
-2957.102061108968
 53
25.04599999999999
 43
12318.18986736351
 44
1260.937431818123
 45
10.95203652759968
 46
0.0000881814618674
 79
     2
 49
4.636287175181982
 49
-2957.102061108968
 53
25.04599999999999
 43
12318.18986736351
 44
1224.060333216054
 45
10.95203652759968
 46
0.0000881814618674
 79
     2
 49
4.636287175181982
 49
-2957.102061108968
 53
25.04599999999999
 43
12318.18986736351
 44
1187.183234613979
 45
10.95203652759968
 46
0.0000881814618674
 79
     2
 49
4.636287175181982
 49
-2957.102061108968
 53
25.04599999999999
 43
12318.18986736351
 44
1150.306136011911
 45
10.95203652759968
 46
0.0000881814618674
 79
     2
 49
4.636287175181982
 49
-2957.102061108968
 53
25.04599999999999
 43
12318.18986736351
 44
1113.429037409843
 45
10.95203652759968
 46
0.0000881814618674
 79
     2
 49
4.636287175181982
 49
-2957.102061108968
 53
25.04599999999999
 43
12318.18986736351
 44
1076.551938807767
 45
10.95203652759968
 46
0.0000881814618674
 79
     2
 49
4.636287175181982
 49
-2957.102061108968
 53
25.04599999999999
 43
12318.18986736351
 44
1039.674840205699
 45
10.95203652759968
 46
0.0000881814618674
 79
     2
 49
4.636287175181982
 49
-2957.102061108968
 53
25.04599999999999
 43
12318.18986736351
 44
1002.797741603624
 45
10.95203652759968
 46
0.0000881814618674
 79
     2
 49
4.636287175181982
 49
-2957.102061108968
 53
25.04599999999999
 43
12318.18986736351
 44
965.9206430015485
 45
10.95203652759968
 46
0.0000881814618674
 79
     2
 49
4.636287175181982
 49
-2957.102061108968
 53
25.04599999999999
 43
12318.18986736351
 44
929.0435443994804
 45
10.95203652759968
 46
0.0000881814618674
 79
     2
 49
4.636287175181982
 49
-2957.102061108968
 53
25.04599999999999
 43
12318.18986736351
 44
892.1664457974122
 45
10.95203652759968
 46
0.0000881814618674
 79
     2
 49
4.636287175181982
 49
-2957.102061108968
 53
25.04599999999999
 43
12318.18986736351
 44
855.2893471953368
 45
10.95203652759968
 46
0.0000881814618674
 79
     2
 49
4.636287175181982
 49
-2957.102061108968
 53
25.04599999999999
 43
12318.18986736351
 44
818.4122485932686
 45
10.95203652759968
 46
0.0000881814618674
 79
     2
 49
4.636287175181982
 49
-2957.102061108968
 53
25.04599999999999
 43
12318.18986736351
 44
781.5351499911932
 45
10.95203652759968
 46
0.0000881814618674
 79
     2
 49
4.636287175181982
 49
-2957.102061108968
 53
25.04599999999999
 43
12318.18986736351
 44
744.6580513891214
 45
10.95203652759968
 46
0.0000881814618674
 79
     2
 49
4.636287175181982
 49
-2957.102061108968
 53
25.04599999999999
 43
12318.18986736351
 44
707.7809527870534
 45
10.95203652759968
 46
0.0000881814618674
 79
     2
 49
4.636287175181982
 49
-2957.102061108968
 53
25.04599999999999
 43
12318.18986736351
 44
670.9038541849816
 45
10.95203652759968
 46
0.0000881814618674
 79
     2
 49
4.636287175181982
 49
-2957.102061108968
 53
25.04599999999999
 43
12318.18986736351
 44
634.0267555829061
 45
10.95203652759968
 46
0.0000881814618674
 79
     2
 49
4.636287175181982
 49
-2957.102061108968
 53
25.04599999999999
 43
12318.18986736351
 44
597.149656980838
 45
10.95203652759968
 46
0.0000881814618674
 79
     2
 49
4.636287175181982
 49
-2957.102061108968
 53
25.04599999999999
 43
12318.18986736351
 44
560.2725583787662
 45
10.95203652759968
 46
0.0000881814618674
 79
     2
 49
4.636287175181982
 49
-2957.102061108968
 53
25.04599999999999
 43
12318.18986736351
 44
523.3954597766945
 45
10.95203652759968
 46
0.0000881814618674
 79
     2
 49
4.636287175181982
 49
-2957.102061108968
 53
25.04599999999999
 43
12318.18986736351
 44
486.518361174619
 45
10.95203652759968
 46
0.0000881814618674
 79
     2
 49
4.636287175181982
 49
-2957.102061108968
 53
25.04599999999999
 43
12318.18986736351
 44
449.6412625725509
 45
10.95203652759968
 46
0.0000881814618674
 79
     2
 49
4.636287175181982
 49
-2957.102061108968
 53
25.04599999999999
 43
12318.18986736351
 44
412.7641639704791
 45
10.95203652759968
 46
0.0000881814618674
 79
     2
 49
4.636287175181982
 49
-2957.102061108968
 53
25.04599999999999
 43
12318.18986736351
 44
375.8870653684073
 45
10.95203652759968
 46
0.0000881814618674
 79
     2
 49
4.636287175181982
 49
-2957.102061108968
 53
25.04599999999999
 43
12318.18986736351
 44
339.0099667663355
 45
10.95203652759968
 46
0.0000881814618674
 79
     2
 49
4.636287175181982
 49
-2957.102061108968
 53
14.07599999999998
 43
12321.08194316798
 44
1588.085875849728
 45
10.95202660951167
 46
-0.0000805056871684
 79
     2
 49
2.663936043727242
 49
-1058.697838380728
 53
14.07599999999998
 43
12321.08194316798
 44
1551.208711688368
 45
10.95202660951167
 46
-0.0000805056871684
 79
     2
 49
2.663936043727242
 49
-1058.697838380728
 53
14.07599999999998
 43
12321.08194316798
 44
1514.331613086296
 45
10.95202660951167
 46
-0.0000805056871684
 79
     2
 49
2.663936043727242
 49
-1058.697838380728
 53
14.07599999999998
 43
12321.08194316798
 44
1477.454514484228
 45
10.95202660951167
 46
-0.0000805056871684
 79
     2
 49
2.663936043727242
 49
-1058.697838380728
 53
14.07599999999998
 43
12321.08194316798
 44
1440.577415882152
 45
10.95202660951167
 46
-0.0000805056871684
 79
     2
 49
2.663936043727242
 49
-1058.697838380728
 53
14.07599999999998
 43
12321.08194316798
 44
1403.700317280077
 45
10.95202660951167
 46
-0.0000805056871684
 79
     2
 49
2.663936043727242
 49
-1058.697838380728
 53
14.07599999999998
 43
12321.08194316798
 44
1366.823218678009
 45
10.95202660951167
 46
-0.0000805056871684
 79
     2
 49
2.663936043727242
 49
-1058.697838380728
 98
        1
 10
1842.924397382646
 20
425.2212574470188
  0
POLYLINE
  5
7994
330
67
100
AcDbEntity
  8
F_01 sichtbar
370
    13
100
AcDb2dPolyline
 66
     1
 10
0.0
 20
0.0
 30
0.0
  0
VERTEX
  5
7995
330
7994
100
AcDbEntity
  8
F_01 sichtbar
370
    13
100
AcDbVertex
100
AcDb2dVertex
 10
267.17711493357
 20
323.0031432029584
 30
0.0
  0
VERTEX
  5
7996
330
7994
100
AcDbEntity
  8
F_01 sichtbar
370
    13
100
AcDbVertex
100
AcDb2dVertex
 10
429.120767497393
 20
323.0031432029584
 30
0.0
  0
VERTEX
  5
7997
330
7994
100
AcDbEntity
  8
F_01 sichtbar
370
    13
100
AcDbVertex
100
AcDb2dVertex
 10
429.120767497393
 20
488.0031433606575
 30
0.0
  0
VERTEX
  5
7998
330
7994
100
AcDbEntity
  8
F_01 sichtbar
370
    13
100
AcDbVertex
100
AcDb2dVertex
 10
267.17711493357
 20
488.0031433606575
 30
0.0
  0
SEQEND
  5
7999
330
7994
100
AcDbEntity
  8
F_01 sichtbar
370
    13
  0
POLYLINE
  5
799A
330
67
100
AcDbEntity
  8
F_01 sichtbar
370
    13
100
AcDb2dPolyline
 66
     1
 10
0.0
 20
0.0
 30
0.0
  0
VERTEX
  5
799B
330
799A
100
AcDbEntity
  8
F_01 sichtbar
370
    13
100
AcDbVertex
100
AcDb2dVertex
 10
267.17711493357
 20
491.0031433606575
 30
0.0
  0
VERTEX
  5
799C
330
799A
100
AcDbEntity
  8
F_01 sichtbar
370
    13
100
AcDbVertex
100
AcDb2dVertex
 10
429.1207674974002
 20
491.0031433606575
 30
0.0
  0
VERTEX
  5
799D
330
799A
100
AcDbEntity
  8
F_01 sichtbar
370
    13
100
AcDbVertex
100
AcDb2dVertex
 10
429.1207674974075
 20
611.0031433606575
 30
0.0
  0
VERTEX
  5
799E
330
799A
100
AcDbEntity
  8
F_01 sichtbar
370
    13
100
AcDbVertex
100
AcDb2dVertex
 10
267.17711493357
 20
611.0031433606575
 30
0.0
  0
SEQEND
  5
799F
330
799A
100
AcDbEntity
  8
F_01 sichtbar
370
    13
  0
POLYLINE
  5
79A0
330
67
100
AcDbEntity
  8
F_01 sichtbar
370
    13
100
AcDb2dPolyline
 66
     1
 10
0.0
 20
0.0
 30
0.0
  0
VERTEX
  5
79A1
330
79A0
100
AcDbEntity
  8
F_01 sichtbar
370
    13
100
AcDbVertex
100
AcDb2dVertex
 10
429.1207674974002
 20
521.0031433606575
 30
0.0
  0
VERTEX
  5
79A2
330
79A0
100
AcDbEntity
  8
F_01 sichtbar
370
    13
100
AcDbVertex
100
AcDb2dVertex
 10
267.17711493357
 20
521.0031433606575
 30
0.0
  0
SEQEND
  5
79A3
330
79A0
100
AcDbEntity
  8
F_01 sichtbar
370
    13
  0
LINE
  5
79A4
330
67
100
AcDbEntity
  8
F_01 sichtbar
370
    13
100
AcDbLine
 10
665.4631121400025
 20
335.003179205379
 30
0.0
 11
467.6214697496479
 21
335.003179205379
 31
0.0
  0
LINE
  5
79A5
330
67
100
AcDbEntity
  8
F_02 unsichtbar
370
    13
100
AcDbLine
 10
429.1207674974075
 20
489.5031433606574
 30
0.0
 11
267.1771149335773
 21
489.5031433606574
 31
0.0
  0
LINE
  5
79A6
330
67
100
AcDbEntity
  8
F_01 sichtbar
370
    13
100
AcDbLine
 10
457.6207539917895
 20
611.0031433525557
 30
0.0
 11
457.6207539917895
 21
338.5031454096945
 31
0.0
  0
LINE
  5
79A7
330
67
100
AcDbEntity
  8
F_01 sichtbar
370
    13
100
AcDbLine
 10
435.6207539917895
 20
298.0031432029584
 30
0.0
 11
435.6207539917895
 21
611.003143233703
 31
0.0
  0
LINE
  5
79A8
330
67
100
AcDbEntity
  8
F_02 unsichtbar
370
    13
100
AcDbLine
 10
429.1207674974075
 20
321.5031432029584
 30
0.0
 11
267.1771149335773
 21
321.5031432029584
 31
0.0
  0
LINE
  5
79A9
330
67
100
AcDbEntity
  8
F_01 sichtbar
370
    13
100
AcDbLine
 10
448.6055697517667
 20
303.0142834115516
 30
0.0
 11
665.4631121400025
 21
303.0142834115516
 31
0.0
  0
LINE
  5
79AA
330
67
100
AcDbEntity
  8
F_01 sichtbar
370
    13
100
AcDbLine
 10
506.6055697517595
 20
303.0142834115516
 30
0.0
 11
506.6055697517595
 21
335.003179205379
 31
0.0
  0
POLYLINE
  5
79AB
330
67
100
AcDbEntity
  8
F_31 Ansichtsfenster
370
    13
100
AcDb2dPolyline
 66
     1
 10
0.0
 20
0.0
 30
0.0
  0
VERTEX
  5
79AC
330
79AB
100
AcDbEntity
  8
F_31 Ansichtsfenster
370
    13
100
AcDbVertex
100
AcDb2dVertex
 10
267.17711493357
 20
283.0031432029548
 30
0.0
  0
VERTEX
  5
79AD
330
79AB
100
AcDbEntity
  8
F_31 Ansichtsfenster
370
    13
100
AcDbVertex
100
AcDb2dVertex
 10
267.17711493357
 20
611.0031433606575
 30
0.0
  0
SEQEND
  5
79AE
330
79AB
100
AcDbEntity
  8
F_31 Ansichtsfenster
370
    13
  0
LINE
  5
79AF
330
67
100
AcDbEntity
  8
F_01 sichtbar
370
    13
100
AcDbLine
 10
459.1214697496552
 20
611.0031433606575
 30
0.0
 11
665.4631121400025
 21
611.0031433606575
 31
0.0
  0
HATCH
  5
79B0
330
67
100
AcDbEntity
  8
F_01 sichtbar
370
    13
100
AcDbHatch
 10
0.0
 20
0.0
 30
0.0
210
0.0
220
0.0
230
1.0
  2
JIS_WOOD
 70
     0
 71
     0
 91
        1
 92
        1
 93
       10
 72
     1
 10
435.6207539917895
 20
611.003143233703
 11
457.6207539917895
 21
611.0031433525539
 72
     1
 10
457.6207539917895
 20
611.0031433525557
 11
457.6207398842971
 21
338.5031454096691
 72
     1
 10
457.6207398842971
 20
338.5031454096691
 11
455.1207429311771
 21
338.5031451468687
 72
     1
 10
455.1207429311771
 20
338.5031451468687
 11
455.1207538090903
 21
346.5031442007723
 72
     1
 10
455.1207538090903
 20
346.5031442007723
 11
451.1208170476392
 21
346.5031442004285
 72
     1
 10
451.1208170476392
 20
346.5031442004268
 11
451.1207429311771
 21
338.5031447263821
 72
     1
 10
451.1207429311771
 20
338.5031447263839
 11
446.1207582621654
 21
338.5031440431151
 72
     1
 10
446.1207582621654
 20
338.5031440431133
 11
446.1207519999743
 21
298.0031427235165
 72
     1
 10
446.1207519999743
 20
298.0031427235165
 11
435.6207539917895
 21
298.0031432029566
 72
     1
 10
435.6207539917895
 20
298.0031432029584
 11
435.6207539917895
 21
611.0031432337048
 97
        0
 75
     0
 76
     1
 52
315.0
 41
30.0
 77
     0
 78
     1
 53
0.0
 43
-23274.70016515486
 44
-14186.03757014031
 45
0.0000000000000071
 46
21.2132034
 79
     0
 98
        1
 10
-23274.70016515486
 20
-14186.03757014031
1001
ACAD
1010
0.0
1020
0.0
1030
0.0
  0
HATCH
  5
79B1
330
67
100
AcDbEntity
  8
F_01 sichtbar
370
    13
100
AcDbHatch
 10
0.0
 20
0.0
 30
0.0
210
0.0
220
0.0
230
1.0
  2
JIS_WOOD
 70
     0
 71
     0
 91
        1
 92
        1
 93
        6
 72
     1
 10
506.6055697517595
 20
303.0032252143767
 11
506.605634486922
 21
335.0031792053826
 72
     1
 10
506.605634486922
 20
335.0031792053826
 11
467.6214697496479
 21
335.0031792053808
 72
     1
 10
467.6214697496479
 20
335.003179205379
 11
467.6050057206311
 21
334.5032324998167
 72
     1
 10
467.6050057206311
 20
334.5032324998185
 11
450.189817170577
 21
334.5031792053826
 72
     1
 10
450.189817170577
 20
334.5031792053826
 11
448.5898171705858
 21
303.0031792053826
 72
     1
 10
448.5898171705858
 20
303.0031792053826
 11
506.6055697517595
 21
303.0032252143767
 97
        0
 75
     0
 76
     1
 52
0.0
 41
15.0
 77
     0
 78
     1
 53
45.0
 43
-32704.53052353016
 44
-14088.54525129559
 45
-7.499999987414763
 46
7.499999987414764
 79
     0
 98
        1
 10
513.0439018095649
 20
326.0263002337536
1001
ACAD
1010
0.0
1020
0.0
1030
0.0
  0
LWPOLYLINE
  5
79B2
330
67
100
AcDbEntity
  8
F_01 sichtbar
370
    13
100
AcDbPolyline
 90
       59
 70
     1
 43
0.0
 10
455.4389609370345
 20
334.3213432318746
 10
456.7848507284443
 20
332.9754537234305
 42
-2.295511712501342
 10
456.1378001498897
 20
332.6325547763529
 10
454.4896968726034
 20
334.2806577071363
 42
0.4142135623730925
 10
454.3482755163649
 20
334.2806576922715
 10
453.9707629294652
 20
333.903145026002
 10
453.1207629294595
 20
333.9031449366459
 10
452.2707629294682
 20
333.9031448472935
 10
451.8184806847866
 20
334.3554269968856
 42
-0.8501016268507996
 10
450.833680019431
 20
334.2902275655663
 10
447.6207625510223
 20
337.5031443584787
 10
447.6207623933451
 20
339.0031443584787
 10
448.0475391335066
 20
338.5763677080479
 42
0.198912367379658
 10
448.2243158364954
 20
338.5031444219251
 10
451.0877497440169
 20
338.5031447229351
 42
0.1316524975873961
 10
451.2127497404954
 20
338.5366383851299
 10
451.8957624009281
 20
338.9309760242261
 42
0.2679491924311224
 10
452.0207623781689
 20
339.147482388312
 10
452.0207621568196
 20
341.253144821015
 42
0.4142135623730951
 10
451.7707621305389
 20
341.5031447947342
 10
450.770762130539
 20
341.5031446896112
 42
-0.5773502691896217
 10
450.5542557401723
 20
341.878144666852
 10
450.7996295599086
 20
342.3031446926482
 10
451.7707620464434
 20
342.3031447947335
 42
0.4142135623730951
 10
452.0207620201627
 20
342.5531448210143
 10
452.0207618414579
 20
344.253144821015
 42
0.4142135623730951
 10
451.7707618151844
 20
344.5031447947342
 10
450.7707618151844
 20
344.5031446896112
 42
-0.577350269189623
 10
450.5542554248177
 20
344.878144666852
 10
450.7996292445396
 20
345.3031446926482
 10
451.7707617310816
 20
345.3031447947335
 42
0.4142135623730951
 10
452.0207617048008
 20
345.5531448210142
 10
452.0207616837806
 20
345.753144821015
 42
-0.4142135623730951
 10
452.2707616574998
 20
346.0031448472957
 10
453.1207616574984
 20
346.0031449366482
 10
453.9707616574969
 20
346.0031450260006
 42
-0.4142135623730951
 10
454.2207616837777
 20
345.7531450522813
 10
454.2207617048052
 20
345.5531450522806
 42
0.4142135623730951
 10
454.470761731086
 20
345.3031450785613
 10
455.4418942176207
 20
345.3031451806467
 10
455.6872681267059
 20
344.8781452064407
 42
-0.5773502691896199
 10
455.4707618151815
 20
344.5031451836815
 10
454.4707618151814
 20
344.5031450785621
 42
0.4142135623730951
 10
454.2207618414622
 20
344.2531450522813
 10
454.2207620201597
 20
342.5531450522806
 42
0.4142135623730951
 10
454.4707620464405
 20
342.3031450785613
 10
455.4418945329898
 20
342.3031451806466
 10
455.6872684420677
 20
341.8781452064406
 42
-0.5773502691896196
 10
455.4707621305433
 20
341.5031451836815
 10
454.4707621305433
 20
341.5031450785621
 42
0.4142135623730951
 10
454.220762156824
 20
341.2531450522813
 10
454.2207623781733
 20
339.1474826195783
 42
0.2679491924311216
 10
454.3457624009325
 20
338.9309762817731
 10
455.0287751442747
 20
338.5366387862753
 42
0.1316524975873966
 10
455.1537751477963
 20
338.5031451503612
 10
458.0172090553178
 20
338.5031454513676
 42
0.198912367379658
 10
458.1939857429179
 20
338.576368774656
 10
458.6207623933451
 20
339.0031455148139
 10
458.6207625510223
 20
337.5031455148139
  0
HATCH
  5
79B3
330
67
100
AcDbEntity
  8
F_01 sichtbar
370
    13
100
AcDbHatch
 10
0.0
 20
0.0
 30
0.0
210
0.0
220
0.0
230
1.0
  2
BATT_INSULATION
 70
     0
 71
     0
 91
        1
 92
        1
 93
        4
 72
     1
 10
429.1207674974002
 20
521.0031433606575
 11
429.1207674974002
 21
491.0031433606575
 72
     1
 10
429.1207674974002
 20
491.0031433606575
 11
267.17711493357
 21
491.0031433606575
 72
     1
 10
267.17711493357
 20
491.0031433606575
 11
267.17711493357
 21
521.0031433606594
 72
     1
 10
267.17711493357
 20
521.0031433606611
 11
429.1207674974002
 21
521.0031433606594
 97
        0
 75
     0
 76
     2
 52
180.0
 41
32.77964320184142
 77
     0
 78
   528
 53
0.000000000000007
 43
12084.31530095722
 44
1778.831283392054
 45
10.95203936981043
 46
-36.87709860207159
 79
     2
 49
0.0
 49
-10.95203936981043
 53
345.9236
 43
12078.83926488249
 44
1774.733827991823
 45
10.95202660980681
 46
0.000004046117522
 79
     2
 49
2.663936043727233
 49
-1058.697838380723
 53
345.9236
 43
12078.83926488249
 44
1737.856729389748
 45
10.95202660980681
 46
0.000004046117522
 79
     2
 49
2.663936043727233
 49
-1058.697838380723
 53
345.9236
 43
12078.83926488249
 44
1700.97963078768
 45
10.95202660980681
 46
0.000004046117522
 79
     2
 49
2.663936043727233
 49
-1058.697838380723
 53
345.9236
 43
12078.83926488249
 44
1664.102532185604
 45
10.95202660980681
 46
0.000004046117522
 79
     2
 49
2.663936043727233
 49
-1058.697838380723
 53
345.9236
 43
12078.83926488249
 44
1627.225433583536
 45
10.95202660980681
 46
0.000004046117522
 79
     2
 49
2.663936043727233
 49
-1058.697838380723
 53
345.9236
 43
12078.83926488249
 44
1590.348334981468
 45
10.95202660980681
 46
0.000004046117522
 79
     2
 49
2.663936043727233
 49
-1058.697838380723
 53
345.9236
 43
12078.83926488249
 44
1553.471236379392
 45
10.95202660980681
 46
0.000004046117522
 79
     2
 49
2.663936043727233
 49
-1058.697838380723
 53
334.9544
 43
12080.11495025698
 44
1743.916702028478
 45
10.9520365279484
 46
-0.0000117218229823
 79
     2
 49
4.636287175181989
 49
-2957.102061108972
 53
334.9544
 43
12080.11495025698
 44
1707.039603426402
 45
10.9520365279484
 46
-0.0000117218229823
 79
     2
 49
4.636287175181989
 49
-2957.102061108972
 53
334.9544
 43
12080.11495025698
 44
1670.162504824334
 45
10.9520365279484
 46
-0.0000117218229823
 79
     2
 49
4.636287175181989
 49
-2957.102061108972
 53
334.9544
 43
12080.11495025698
 44
1633.285406222259
 45
10.9520365279484
 46
-0.0000117218229823
 79
     2
 49
4.636287175181989
 49
-2957.102061108972
 53
334.9544
 43
12080.11495025698
 44
1596.408307620187
 45
10.9520365279484
 46
-0.0000117218229823
 79
     2
 49
4.636287175181989
 49
-2957.102061108972
 53
334.9544
 43
12080.11495025698
 44
1559.531209018115
 45
10.9520365279484
 46
-0.0000117218229823
 79
     2
 49
4.636287175181989
 49
-2957.102061108972
 53
334.9544
 43
12080.11495025698
 44
1522.654110416047
 45
10.9520365279484
 46
-0.0000117218229823
 79
     2
 49
4.636287175181989
 49
-2957.102061108972
 53
334.9544
 43
12080.11495025698
 44
1485.777011813971
 45
10.9520365279484
 46
-0.0000117218229823
 79
     2
 49
4.636287175181989
 49
-2957.102061108972
 53
334.9544
 43
12080.11495025698
 44
1448.900896601202
 45
10.9520365279484
 46
-0.0000117218229823
 79
     2
 49
4.636287175181989
 49
-2957.102061108972
 53
334.9544
 43
12080.11495025698
 44
1412.023797999126
 45
10.9520365279484
 46
-0.0000117218229823
 79
     2
 49
4.636287175181989
 49
-2957.102061108972
 53
334.9544
 43
12080.11495025698
 44
1375.146699397054
 45
10.9520365279484
 46
-0.0000117218229823
 79
     2
 49
4.636287175181989
 49
-2957.102061108972
 53
334.9544
 43
12080.11495025698
 44
1338.269600794983
 45
10.9520365279484
 46
-0.0000117218229823
 79
     2
 49
4.636287175181989
 49
-2957.102061108972
 53
334.9544
 43
12080.11495025698
 44
1301.392502192911
 45
10.9520365279484
 46
-0.0000117218229823
 79
     2
 49
4.636287175181989
 49
-2957.102061108972
 53
334.9544
 43
12080.11495025698
 44
1264.515403590843
 45
10.9520365279484
 46
-0.0000117218229823
 79
     2
 49
4.636287175181989
 49
-2957.102061108972
 53
334.9544
 43
12080.11495025698
 44
1227.638304988771
 45
10.9520365279484
 46
-0.0000117218229823
 79
     2
 49
4.636287175181989
 49
-2957.102061108972
 53
334.9544
 43
12080.11495025698
 44
1190.761206386695
 45
10.9520365279484
 46
-0.0000117218229823
 79
     2
 49
4.636287175181989
 49
-2957.102061108972
 53
334.9544
 43
12080.11495025698
 44
1153.884107784627
 45
10.9520365279484
 46
-0.0000117218229823
 79
     2
 49
4.636287175181989
 49
-2957.102061108972
 53
334.9544
 43
12080.11495025698
 44
1117.007009182556
 45
10.9520365279484
 46
-0.0000117218229823
 79
     2
 49
4.636287175181989
 49
-2957.102061108972
 53
334.9544
 43
12080.11495025698
 44
1080.129910580484
 45
10.9520365279484
 46
-0.0000117218229823
 79
     2
 49
4.636287175181989
 49
-2957.102061108972
 53
334.9544
 43
12080.11495025698
 44
1043.252811978408
 45
10.9520365279484
 46
-0.0000117218229823
 79
     2
 49
4.636287175181989
 49
-2957.102061108972
 53
334.9544
 43
12080.11495025698
 44
1006.37571337634
 45
10.9520365279484
 46
-0.0000117218229823
 79
     2
 49
4.636287175181989
 49
-2957.102061108972
 53
334.9544
 43
12080.11495025698
 44
969.4986147742685
 45
10.9520365279484
 46
-0.0000117218229823
 79
     2
 49
4.636287175181989
 49
-2957.102061108972
 53
334.9544
 43
12080.11495025698
 44
932.6215161721968
 45
10.9520365279484
 46
-0.0000117218229823
 79
     2
 49
4.636287175181989
 49
-2957.102061108972
 53
334.9544
 43
12080.11495025698
 44
895.7444175701214
 45
10.9520365279484
 46
-0.0000117218229823
 79
     2
 49
4.636287175181989
 49
-2957.102061108972
 53
334.9544
 43
12080.11495025698
 44
858.8673189680532
 45
10.9520365279484
 46
-0.0000117218229823
 79
     2
 49
4.636287175181989
 49
-2957.102061108972
 53
334.9544
 43
12080.11495025698
 44
821.9902203659851
 45
10.9520365279484
 46
-0.0000117218229823
 79
     2
 49
4.636287175181989
 49
-2957.102061108972
 53
334.9544
 43
12080.11495025698
 44
785.1131217639097
 45
10.9520365279484
 46
-0.0000117218229823
 79
     2
 49
4.636287175181989
 49
-2957.102061108972
 53
334.9544
 43
12080.11495025698
 44
748.2360231618415
 45
10.9520365279484
 46
-0.0000117218229823
 79
     2
 49
4.636287175181989
 49
-2957.102061108972
 53
334.9544
 43
12080.11495025698
 44
711.3589245597661
 45
10.9520365279484
 46
-0.0000117218229823
 79
     2
 49
4.636287175181989
 49
-2957.102061108972
 53
334.9544
 43
12080.11495025698
 44
674.4818259576907
 45
10.9520365279484
 46
-0.0000117218229823
 79
     2
 49
4.636287175181989
 49
-2957.102061108972
 53
334.9544
 43
12080.11495025698
 44
637.6047273556225
 45
10.9520365279484
 46
-0.0000117218229823
 79
     2
 49
4.636287175181989
 49
-2957.102061108972
 53
334.9544
 43
12080.11495025698
 44
600.7276287535544
 45
10.9520365279484
 46
-0.0000117218229823
 79
     2
 49
4.636287175181989
 49
-2957.102061108972
 53
334.9544
 43
12080.11495025698
 44
563.850530151479
 45
10.9520365279484
 46
-0.0000117218229823
 79
     2
 49
4.636287175181989
 49
-2957.102061108972
 53
334.9544
 43
12080.11495025698
 44
526.9734315494072
 45
10.9520365279484
 46
-0.0000117218229823
 79
     2
 49
4.636287175181989
 49
-2957.102061108972
 53
307.5647
 43
12081.4232185968
 44
1774.08584000501
 45
10.95203172566192
 46
-0.0000024731155069
 79
     2
 49
4.503300162712156
 49
-1809.889024393901
 53
307.5647
 43
12081.4232185968
 44
1737.20867584365
 45
10.95203172566192
 46
-0.0000024731155069
 79
     2
 49
4.503300162712156
 49
-1809.889024393901
 53
307.5647
 43
12081.4232185968
 44
1700.331577241578
 45
10.95203172566192
 46
-0.0000024731155069
 79
     2
 49
4.503300162712156
 49
-1809.889024393901
 53
307.5647
 43
12081.4232185968
 44
1663.45447863951
 45
10.95203172566192
 46
-0.0000024731155069
 79
     2
 49
4.503300162712156
 49
-1809.889024393901
 53
307.5647
 43
12081.4232185968
 44
1626.577380037435
 45
10.95203172566192
 46
-0.0000024731155069
 79
     2
 49
4.503300162712156
 49
-1809.889024393901
 53
307.5647
 43
12081.4232185968
 44
1589.700281435359
 45
10.95203172566192
 46
-0.0000024731155069
 79
     2
 49
4.503300162712156
 49
-1809.889024393901
 53
307.5647
 43
12081.4232185968
 44
1552.823182833291
 45
10.95203172566192
 46
-0.0000024731155069
 79
     2
 49
4.503300162712156
 49
-1809.889024393901
 53
307.5647
 43
12081.4232185968
 44
1515.946084231223
 45
10.95203172566192
 46
-0.0000024731155069
 79
     2
 49
4.503300162712156
 49
-1809.889024393901
 53
307.5647
 43
12081.4232185968
 44
1479.068985629148
 45
10.95203172566192
 46
-0.0000024731155069
 79
     2
 49
4.503300162712156
 49
-1809.889024393901
 53
307.5647
 43
12081.4232185968
 44
1442.190903637781
 45
10.95203172566192
 46
-0.0000024731155069
 79
     2
 49
4.503300162712156
 49
-1809.889024393901
 53
307.5647
 43
12081.4232185968
 44
1405.313805035713
 45
10.95203172566192
 46
-0.0000024731155069
 79
     2
 49
4.503300162712156
 49
-1809.889024393901
 53
307.5647
 43
12081.4232185968
 44
1368.436706433638
 45
10.95203172566192
 46
-0.0000024731155069
 79
     2
 49
4.503300162712156
 49
-1809.889024393901
 53
307.5647
 43
12081.4232185968
 44
1331.559607831562
 45
10.95203172566192
 46
-0.0000024731155069
 79
     2
 49
4.503300162712156
 49
-1809.889024393901
 53
307.5647
 43
12081.4232185968
 44
1294.682509229494
 45
10.95203172566192
 46
-0.0000024731155069
 79
     2
 49
4.503300162712156
 49
-1809.889024393901
 53
307.5647
 43
12081.4232185968
 44
1257.805410627426
 45
10.95203172566192
 46
-0.0000024731155069
 79
     2
 49
4.503300162712156
 49
-1809.889024393901
 53
307.5647
 43
12081.4232185968
 44
1220.92831202535
 45
10.95203172566192
 46
-0.0000024731155069
 79
     2
 49
4.503300162712156
 49
-1809.889024393901
 53
307.5647
 43
12081.4232185968
 44
1184.051213423279
 45
10.95203172566192
 46
-0.0000024731155069
 79
     2
 49
4.503300162712156
 49
-1809.889024393901
 53
307.5647
 43
12081.4232185968
 44
1147.174114821207
 45
10.95203172566192
 46
-0.0000024731155069
 79
     2
 49
4.503300162712156
 49
-1809.889024393901
 53
307.5647
 43
12081.4232185968
 44
1110.297016219139
 45
10.95203172566192
 46
-0.0000024731155069
 79
     2
 49
4.503300162712156
 49
-1809.889024393901
 53
307.5647
 43
12081.4232185968
 44
1073.419917617063
 45
10.95203172566192
 46
-0.0000024731155069
 79
     2
 49
4.503300162712156
 49
-1809.889024393901
 53
307.5647
 43
12081.4232185968
 44
1036.542819014995
 45
10.95203172566192
 46
-0.0000024731155069
 79
     2
 49
4.503300162712156
 49
-1809.889024393901
 53
307.5647
 43
12081.4232185968
 44
999.6657204129199
 45
10.95203172566192
 46
-0.0000024731155069
 79
     2
 49
4.503300162712156
 49
-1809.889024393901
 53
307.5647
 43
12081.4232185968
 44
962.7886218108518
 45
10.95203172566192
 46
-0.0000024731155069
 79
     2
 49
4.503300162712156
 49
-1809.889024393901
 53
307.5647
 43
12081.4232185968
 44
925.9115232087799
 45
10.95203172566192
 46
-0.0000024731155069
 79
     2
 49
4.503300162712156
 49
-1809.889024393901
 53
307.5647
 43
12081.4232185968
 44
889.0344246067082
 45
10.95203172566192
 46
-0.0000024731155069
 79
     2
 49
4.503300162712156
 49
-1809.889024393901
 53
307.5647
 43
12081.4232185968
 44
852.1573260046327
 45
10.95203172566192
 46
-0.0000024731155069
 79
     2
 49
4.503300162712156
 49
-1809.889024393901
 53
307.5647
 43
12081.4232185968
 44
815.2802274025646
 45
10.95203172566192
 46
-0.0000024731155069
 79
     2
 49
4.503300162712156
 49
-1809.889024393901
 53
307.5647
 43
12081.4232185968
 44
778.4031288004964
 45
10.95203172566192
 46
-0.0000024731155069
 79
     2
 49
4.503300162712156
 49
-1809.889024393901
 53
307.5647
 43
12081.4232185968
 44
741.526030198421
 45
10.95203172566192
 46
-0.0000024731155069
 79
     2
 49
4.503300162712156
 49
-1809.889024393901
 53
307.5647
 43
12081.4232185968
 44
704.6489315963492
 45
10.95203172566192
 46
-0.0000024731155069
 79
     2
 49
4.503300162712156
 49
-1809.889024393901
 53
307.5647
 43
12081.4232185968
 44
667.7718329942774
 45
10.95203172566192
 46
-0.0000024731155069
 79
     2
 49
4.503300162712156
 49
-1809.889024393901
 53
307.5647
 43
12081.4232185968
 44
630.894734392202
 45
10.95203172566192
 46
-0.0000024731155069
 79
     2
 49
4.503300162712156
 49
-1809.889024393901
 53
307.5647
 43
12081.4232185968
 44
594.0176357901375
 45
10.95203172566192
 46
-0.0000024731155069
 79
     2
 49
4.503300162712156
 49
-1809.889024393901
 53
307.5647
 43
12081.4232185968
 44
557.1405371880657
 45
10.95203172566192
 46
-0.0000024731155069
 79
     2
 49
4.503300162712156
 49
-1809.889024393901
 53
307.5647
 43
12081.4232185968
 44
520.2634385859903
 45
10.95203172566192
 46
-0.0000024731155069
 79
     2
 49
4.503300162712156
 49
-1809.889024393901
 53
307.5647
 43
12081.4232185968
 44
483.3863399839222
 45
10.95203172566192
 46
-0.0000024731155069
 79
     2
 49
4.503300162712156
 49
-1809.889024393901
 53
307.5647
 43
12081.4232185968
 44
446.5092413818504
 45
10.95203172566192
 46
-0.0000024731155069
 79
     2
 49
4.503300162712156
 49
-1809.889024393901
 53
307.5647
 43
12081.4232185968
 44
409.6321427797786
 45
10.95203172566192
 46
-0.0000024731155069
 79
     2
 49
4.503300162712156
 49
-1809.889024393901
 53
307.5647
 43
12081.4232185968
 44
372.7550441777069
 45
10.95203172566192
 46
-0.0000024731155069
 79
     2
 49
4.503300162712156
 49
-1809.889024393901
 53
292.9384
 43
12074.37230095427
 44
1762.502005792126
 45
10.95204222721493
 46
-0.0000045639384487
 79
     2
 49
8.386475035331912
 49
-1593.356600854789
 53
292.9384
 43
12074.37230095427
 44
1725.625005528983
 45
10.95204222721493
 46
-0.0000045639384487
 79
     2
 49
8.386475035331912
 49
-1593.356600854789
 53
292.9384
 43
12074.37230095427
 44
1688.747906926908
 45
10.95204222721493
 46
-0.0000045639384487
 79
     2
 49
8.386475035331912
 49
-1593.356600854789
 53
292.9384
 43
12074.37230095427
 44
1651.870808324839
 45
10.95204222721493
 46
-0.0000045639384487
 79
     2
 49
8.386475035331912
 49
-1593.356600854789
 53
292.9384
 43
12074.37230095427
 44
1614.993709722771
 45
10.95204222721493
 46
-0.0000045639384487
 79
     2
 49
8.386475035331912
 49
-1593.356600854789
 53
292.9384
 43
12074.37230095427
 44
1578.116611120696
 45
10.95204222721493
 46
-0.0000045639384487
 79
     2
 49
8.386475035331912
 49
-1593.356600854789
 53
292.9384
 43
12074.37230095427
 44
1541.239512518624
 45
10.95204222721493
 46
-0.0000045639384487
 79
     2
 49
8.386475035331912
 49
-1593.356600854789
 53
292.9384
 43
12074.37230095427
 44
1504.362413916552
 45
10.95204222721493
 46
-0.0000045639384487
 79
     2
 49
8.386475035331912
 49
-1593.356600854789
 53
292.9384
 43
12074.37230095427
 44
1467.485315314484
 45
10.95204222721493
 46
-0.0000045639384487
 79
     2
 49
8.386475035331912
 49
-1593.356600854789
 53
292.9384
 43
12074.37230095427
 44
1430.606577730251
 45
10.95204222721493
 46
-0.0000045639384487
 79
     2
 49
8.386475035331912
 49
-1593.356600854789
 53
292.9384
 43
12074.37230095427
 44
1393.729479128179
 45
10.95204222721493
 46
-0.0000045639384487
 79
     2
 49
8.386475035331912
 49
-1593.356600854789
 53
292.9384
 43
12074.37230095427
 44
1356.852380526104
 45
10.95204222721493
 46
-0.0000045639384487
 79
     2
 49
8.386475035331912
 49
-1593.356600854789
 53
292.9384
 43
12074.37230095427
 44
1319.975281924036
 45
10.95204222721493
 46
-0.0000045639384487
 79
     2
 49
8.386475035331912
 49
-1593.356600854789
 53
292.9384
 43
12074.37230095427
 44
1283.098183321968
 45
10.95204222721493
 46
-0.0000045639384487
 79
     2
 49
8.386475035331912
 49
-1593.356600854789
 53
292.9384
 43
12074.37230095427
 44
1246.221084719892
 45
10.95204222721493
 46
-0.0000045639384487
 79
     2
 49
8.386475035331912
 49
-1593.356600854789
 53
292.9384
 43
12074.37230095427
 44
1209.343986117821
 45
10.95204222721493
 46
-0.0000045639384487
 79
     2
 49
8.386475035331912
 49
-1593.356600854789
 53
292.9384
 43
12074.37230095427
 44
1172.466887515749
 45
10.95204222721493
 46
-0.0000045639384487
 79
     2
 49
8.386475035331912
 49
-1593.356600854789
 53
292.9384
 43
12074.37230095427
 44
1135.589788913677
 45
10.95204222721493
 46
-0.0000045639384487
 79
     2
 49
8.386475035331912
 49
-1593.356600854789
 53
292.9384
 43
12074.37230095427
 44
1098.712690311609
 45
10.95204222721493
 46
-0.0000045639384487
 79
     2
 49
8.386475035331912
 49
-1593.356600854789
 53
292.9384
 43
12074.37230095427
 44
1061.835591709537
 45
10.95204222721493
 46
-0.0000045639384487
 79
     2
 49
8.386475035331912
 49
-1593.356600854789
 53
292.9384
 43
12074.37230095427
 44
1024.958493107462
 45
10.95204222721493
 46
-0.0000045639384487
 79
     2
 49
8.386475035331912
 49
-1593.356600854789
 53
292.9384
 43
12074.37230095427
 44
988.0813945053935
 45
10.95204222721493
 46
-0.0000045639384487
 79
     2
 49
8.386475035331912
 49
-1593.356600854789
 53
292.9384
 43
12074.37230095427
 44
951.2042959033218
 45
10.95204222721493
 46
-0.0000045639384487
 79
     2
 49
8.386475035331912
 49
-1593.356600854789
 53
292.9384
 43
12074.37230095427
 44
914.3271973012499
 45
10.95204222721493
 46
-0.0000045639384487
 79
     2
 49
8.386475035331912
 49
-1593.356600854789
 53
292.9384
 43
12074.37230095427
 44
877.4500986991744
 45
10.95204222721493
 46
-0.0000045639384487
 79
     2
 49
8.386475035331912
 49
-1593.356600854789
 53
292.9384
 43
12074.37230095427
 44
840.5730000971063
 45
10.95204222721493
 46
-0.0000045639384487
 79
     2
 49
8.386475035331912
 49
-1593.356600854789
 53
292.9384
 43
12074.37230095427
 44
803.6959014950308
 45
10.95204222721493
 46
-0.0000045639384487
 79
     2
 49
8.386475035331912
 49
-1593.356600854789
 53
292.9384
 43
12074.37230095427
 44
766.8188028929628
 45
10.95204222721493
 46
-0.0000045639384487
 79
     2
 49
8.386475035331912
 49
-1593.356600854789
 53
292.9384
 43
12074.37230095427
 44
729.9417042908873
 45
10.95204222721493
 46
-0.0000045639384487
 79
     2
 49
8.386475035331912
 49
-1593.356600854789
 53
292.9384
 43
12074.37230095427
 44
693.0646056888193
 45
10.95204222721493
 46
-0.0000045639384487
 79
     2
 49
8.386475035331912
 49
-1593.356600854789
 53
292.9384
 43
12074.37230095427
 44
656.1875070867511
 45
10.95204222721493
 46
-0.0000045639384487
 79
     2
 49
8.386475035331912
 49
-1593.356600854789
 53
292.9384
 43
12074.37230095427
 44
619.3104084846757
 45
10.95204222721493
 46
-0.0000045639384487
 79
     2
 49
8.386475035331912
 49
-1593.356600854789
 53
292.9384
 43
12074.37230095427
 44
582.4333098826039
 45
10.95204222721493
 46
-0.0000045639384487
 79
     2
 49
8.386475035331912
 49
-1593.356600854789
 53
292.9384
 43
12074.37230095427
 44
545.5562112805321
 45
10.95204222721493
 46
-0.0000045639384487
 79
     2
 49
8.386475035331912
 49
-1593.356600854789
 53
292.9384
 43
12074.37230095427
 44
508.6791126784603
 45
10.95204222721493
 46
-0.0000045639384487
 79
     2
 49
8.386475035331912
 49
-1593.356600854789
 53
292.9384
 43
12074.37230095427
 44
471.8020140763885
 45
10.95204222721493
 46
-0.0000045639384487
 79
     2
 49
8.386475035331912
 49
-1593.356600854789
 53
292.9384
 43
12074.37230095427
 44
434.9249154743204
 45
10.95204222721493
 46
-0.0000045639384487
 79
     2
 49
8.386475035331912
 49
-1593.356600854789
 53
292.9384
 43
12074.37230095427
 44
398.0478168722486
 45
10.95204222721493
 46
-0.0000045639384487
 79
     2
 49
8.386475035331912
 49
-1593.356600854789
 53
292.9384
 43
12074.37230095427
 44
361.1707182701732
 45
10.95204222721493
 46
-0.0000045639384487
 79
     2
 49
8.386475035331912
 49
-1593.356600854789
 53
292.9384
 43
12074.37230095427
 44
324.2936196681051
 45
10.95204222721493
 46
-0.0000045639384487
 79
     2
 49
8.386475035331912
 49
-1593.356600854789
 53
285.109
 43
12079.16706131451
 44
1747.430188085066
 45
0.0000000992044029
 46
-36.87707611878427
 79
     2
 49
3.638966530766021
 49
-416.5337124354709
 53
285.109
 43
12090.11910068433
 44
1747.430188085066
 45
0.0000000992044029
 46
-36.87707611878427
 79
     2
 49
3.638966530766021
 49
-416.5337124354709
 53
285.109
 43
12101.07114005414
 44
1747.430188085066
 45
0.0000000992044029
 46
-36.87707611878427
 79
     2
 49
3.638966530766021
 49
-416.5337124354709
 53
285.109
 43
12112.02324498323
 44
1747.430188085066
 45
0.0000000992044029
 46
-36.87707611878427
 79
     2
 49
3.638966530766021
 49
-416.5337124354709
 53
285.109
 43
12122.9752515734
 44
1747.430188085066
 45
0.0000000992044029
 46
-36.87707611878427
 79
     2
 49
3.638966530766021
 49
-416.5337124354709
 53
285.109
 43
12133.92725816357
 44
1747.430188085066
 45
0.0000000992044029
 46
-36.87707611878427
 79
     2
 49
3.638966530766021
 49
-416.5337124354709
 53
285.109
 43
12144.87926475373
 44
1747.430188085066
 45
0.0000000992044029
 46
-36.87707611878427
 79
     2
 49
3.638966530766021
 49
-416.5337124354709
 53
285.109
 43
12155.8312713439
 44
1747.430188085066
 45
0.0000000992044029
 46
-36.87707611878427
 79
     2
 49
3.638966530766021
 49
-416.5337124354709
 53
285.109
 43
12166.78327793407
 44
1747.430188085066
 45
0.0000000992044029
 46
-36.87707611878427
 79
     2
 49
3.638966530766021
 49
-416.5337124354709
 53
285.109
 43
12177.73528452423
 44
1747.430188085066
 45
0.0000000992044029
 46
-36.87707611878427
 79
     2
 49
3.638966530766021
 49
-416.5337124354709
 53
276.7473999999999
 43
12077.64044777132
 44
1754.77853182019
 45
0.0000035818718473
 46
-36.87716375543
 79
     2
 49
7.399774995313284
 49
-4560.119085052519
 53
276.7473999999999
 43
12088.59248714112
 44
1754.77853182019
 45
0.0000035818718473
 46
-36.87716375543
 79
     2
 49
7.399774995313284
 49
-4560.119085052519
 53
276.7473999999999
 43
12099.54452651093
 44
1754.77853182019
 45
0.0000035818718473
 46
-36.87716375543
 79
     2
 49
7.399774995313284
 49
-4560.119085052519
 53
276.7473999999999
 43
12110.49669699932
 44
1754.77853182019
 45
0.0000035818718473
 46
-36.87716375543
 79
     2
 49
7.399774995313284
 49
-4560.119085052519
 53
276.7473999999999
 43
12121.44870358949
 44
1754.77853182019
 45
0.0000035818718473
 46
-36.87716375543
 79
     2
 49
7.399774995313284
 49
-4560.119085052519
 53
276.7473999999999
 43
12132.40071017966
 44
1754.77853182019
 45
0.0000035818718473
 46
-36.87716375543
 79
     2
 49
7.399774995313284
 49
-4560.119085052519
 53
276.7473999999999
 43
12143.35271676982
 44
1754.77853182019
 45
0.0000035818718473
 46
-36.87716375543
 79
     2
 49
7.399774995313284
 49
-4560.119085052519
 53
276.7473999999999
 43
12154.30472335999
 44
1754.77853182019
 45
0.0000035818718473
 46
-36.87716375543
 79
     2
 49
7.399774995313284
 49
-4560.119085052519
 53
276.7473999999999
 43
12165.25672995016
 44
1754.77853182019
 45
0.0000035818718473
 46
-36.87716375543
 79
     2
 49
7.399774995313284
 49
-4560.119085052519
 53
276.7473999999999
 43
12176.20873654033
 44
1754.77853182019
 45
0.0000035818718473
 46
-36.87716375543
 79
     2
 49
7.399774995313284
 49
-4560.119085052519
 53
276.7473999999999
 43
12187.16074313049
 44
1754.77853182019
 45
0.0000035818718473
 46
-36.87716375543
 79
     2
 49
7.399774995313284
 49
-4560.119085052519
 53
276.7473999999999
 43
12198.11274972066
 44
1754.77853182019
 45
0.0000035818718473
 46
-36.87716375543
 79
     2
 49
7.399774995313284
 49
-4560.119085052519
 53
276.7473999999999
 43
12209.06475631083
 44
1754.77853182019
 45
0.0000035818718473
 46
-36.87716375543
 79
     2
 49
7.399774995313284
 49
-4560.119085052519
 53
276.7473999999999
 43
12220.01676290099
 44
1754.77853182019
 45
0.0000035818718473
 46
-36.87716375543
 79
     2
 49
7.399774995313284
 49
-4560.119085052519
 53
276.7473999999999
 43
12230.9690972876
 44
1754.77853182019
 45
0.0000035818718473
 46
-36.87716375543
 79
     2
 49
7.399774995313284
 49
-4560.119085052519
 53
276.7473999999999
 43
12241.92110387776
 44
1754.77853182019
 45
0.0000035818718473
 46
-36.87716375543
 79
     2
 49
7.399774995313284
 49
-4560.119085052519
 53
276.7473999999999
 43
12252.87311046792
 44
1754.77853182019
 45
0.0000035818718473
 46
-36.87716375543
 79
     2
 49
7.399774995313284
 49
-4560.119085052519
 53
276.7473999999999
 43
12263.8251170581
 44
1754.77853182019
 45
0.0000035818718473
 46
-36.87716375543
 79
     2
 49
7.399774995313284
 49
-4560.119085052519
 53
276.7473999999999
 43
12274.77712364826
 44
1754.77853182019
 45
0.0000035818718473
 46
-36.87716375543
 79
     2
 49
7.399774995313284
 49
-4560.119085052519
 53
276.7473999999999
 43
12285.72913023843
 44
1754.77853182019
 45
0.0000035818718473
 46
-36.87716375543
 79
     2
 49
7.399774995313284
 49
-4560.119085052519
 53
276.7473999999999
 43
12296.6811368286
 44
1754.77853182019
 45
0.0000035818718473
 46
-36.87716375543
 79
     2
 49
7.399774995313284
 49
-4560.119085052519
 53
276.7473999999999
 43
12307.63314341877
 44
1754.77853182019
 45
0.0000035818718473
 46
-36.87716375543
 79
     2
 49
7.399774995313284
 49
-4560.119085052519
 53
276.7473999999999
 43
12318.58515000893
 44
1754.77853182019
 45
0.0000035818718473
 46
-36.87716375543
 79
     2
 49
7.399774995313284
 49
-4560.119085052519
 53
276.7473999999999
 43
12329.5371565991
 44
1754.77853182019
 45
0.0000035818718473
 46
-36.87716375543
 79
     2
 49
7.399774995313284
 49
-4560.119085052519
 53
276.7473999999999
 43
12340.4894909857
 44
1754.77853182019
 45
0.0000035818718473
 46
-36.87716375543
 79
     2
 49
7.399774995313284
 49
-4560.119085052519
 53
276.7473999999999
 43
12351.44149757586
 44
1754.77853182019
 45
0.0000035818718473
 46
-36.87716375543
 79
     2
 49
7.399774995313284
 49
-4560.119085052519
 53
276.7473999999999
 43
12362.39350416604
 44
1754.77853182019
 45
0.0000035818718473
 46
-36.87716375543
 79
     2
 49
7.399774995313284
 49
-4560.119085052519
 53
276.7473999999999
 43
12373.3455107562
 44
1754.77853182019
 45
0.0000035818718473
 46
-36.87716375543
 79
     2
 49
7.399774995313284
 49
-4560.119085052519
 53
276.7473999999999
 43
12384.29751734637
 44
1754.77853182019
 45
0.0000035818718473
 46
-36.87716375543
 79
     2
 49
7.399774995313284
 49
-4560.119085052519
 53
276.7473999999999
 43
12395.24952393654
 44
1754.77853182019
 45
0.0000035818718473
 46
-36.87716375543
 79
     2
 49
7.399774995313284
 49
-4560.119085052519
 53
276.7473999999999
 43
12406.20120273027
 44
1754.77853182019
 45
0.0000035818718473
 46
-36.87716375543
 79
     2
 49
7.399774995313284
 49
-4560.119085052519
 53
276.7473999999999
 43
12417.15288152401
 44
1754.77853182019
 45
0.0000035818718473
 46
-36.87716375543
 79
     2
 49
7.399774995313284
 49
-4560.119085052519
 53
276.7473999999999
 43
12428.10456031774
 44
1754.77853182019
 45
0.0000035818718473
 46
-36.87716375543
 79
     2
 49
7.399774995313284
 49
-4560.119085052519
 53
276.7473999999999
 43
12439.05623911147
 44
1754.77853182019
 45
0.0000035818718473
 46
-36.87716375543
 79
     2
 49
7.399774995313284
 49
-4560.119085052519
 53
276.7473999999999
 43
12450.01119586953
 44
1754.77853182019
 45
0.0000035818718473
 46
-36.87716375543
 79
     2
 49
7.399774995313284
 49
-4560.119085052519
 53
276.7473999999999
 43
12460.96287466326
 44
1754.77853182019
 45
0.0000035818718473
 46
-36.87716375543
 79
     2
 49
7.399774995313284
 49
-4560.119085052519
 53
276.7473999999999
 43
12471.91455345699
 44
1754.77853182019
 45
0.0000035818718473
 46
-36.87716375543
 79
     2
 49
7.399774995313284
 49
-4560.119085052519
 53
276.7473999999999
 43
12482.86623225073
 44
1754.77853182019
 45
0.0000035818718473
 46
-36.87716375543
 79
     2
 49
7.399774995313284
 49
-4560.119085052519
 53
276.7473999999999
 43
12493.81791104447
 44
1754.77853182019
 45
0.0000035818718473
 46
-36.87716375543
 79
     2
 49
7.399774995313284
 49
-4560.119085052519
 53
276.7473999999999
 43
12504.76958983821
 44
1754.77853182019
 45
0.0000035818718473
 46
-36.87716375543
 79
     2
 49
7.399774995313284
 49
-4560.119085052519
 53
276.7473999999999
 43
12515.72126863194
 44
1754.77853182019
 45
0.0000035818718473
 46
-36.87716375543
 79
     2
 49
7.399774995313284
 49
-4560.119085052519
 53
276.7473999999999
 43
12526.67294742568
 44
1754.77853182019
 45
0.0000035818718473
 46
-36.87716375543
 79
     2
 49
7.399774995313284
 49
-4560.119085052519
 53
276.7473999999999
 43
12537.62462621941
 44
1754.77853182019
 45
0.0000035818718473
 46
-36.87716375543
 79
     2
 49
7.399774995313284
 49
-4560.119085052519
 53
276.7473999999999
 43
12548.57958297746
 44
1754.77853182019
 45
0.0000035818718473
 46
-36.87716375543
 79
     2
 49
7.399774995313284
 49
-4560.119085052519
 53
276.7473999999999
 43
12559.5312617712
 44
1754.77853182019
 45
0.0000035818718473
 46
-36.87716375543
 79
     2
 49
7.399774995313284
 49
-4560.119085052519
 53
276.7473999999999
 43
12570.48294056493
 44
1754.77853182019
 45
0.0000035818718473
 46
-36.87716375543
 79
     2
 49
7.399774995313284
 49
-4560.119085052519
 53
276.7473999999999
 43
12581.43461935867
 44
1754.77853182019
 45
0.0000035818718473
 46
-36.87716375543
 79
     2
 49
7.399774995313284
 49
-4560.119085052519
 53
276.7473999999999
 43
12592.3862981524
 44
1754.77853182019
 45
0.0000035818718473
 46
-36.87716375543
 79
     2
 49
7.399774995313284
 49
-4560.119085052519
 53
276.7473999999999
 43
12603.33797694614
 44
1754.77853182019
 45
0.0000035818718473
 46
-36.87716375543
 79
     2
 49
7.399774995313284
 49
-4560.119085052519
 53
276.1416
 43
12073.50983084504
 44
1770.516267978904
 45
-0.0000356891682921
 46
-36.87700042616381
 79
     2
 49
8.060547042976009
 49
-2551.147945737283
 53
276.1416
 43
12084.46185874198
 44
1770.516267978904
 45
-0.0000356891682921
 46
-36.87700042616381
 79
     2
 49
8.060547042976009
 49
-2551.147945737283
 53
276.1416
 43
12095.41389811179
 44
1770.516267978904
 45
-0.0000356891682921
 46
-36.87700042616381
 79
     2
 49
8.060547042976009
 49
-2551.147945737283
 53
276.1416
 43
12106.36580636303
 44
1770.516267978904
 45
-0.0000356891682921
 46
-36.87700042616381
 79
     2
 49
8.060547042976009
 49
-2551.147945737283
 53
276.1416
 43
12117.31814074963
 44
1770.516267978904
 45
-0.0000356891682921
 46
-36.87700042616381
 79
     2
 49
8.060547042976009
 49
-2551.147945737283
 53
276.1416
 43
12128.27014733979
 44
1770.516267978904
 45
-0.0000356891682921
 46
-36.87700042616381
 79
     2
 49
8.060547042976009
 49
-2551.147945737283
 53
276.1416
 43
12139.22215392996
 44
1770.516267978904
 45
-0.0000356891682921
 46
-36.87700042616381
 79
     2
 49
8.060547042976009
 49
-2551.147945737283
 53
276.1416
 43
12150.17416052013
 44
1770.516267978904
 45
-0.0000356891682921
 46
-36.87700042616381
 79
     2
 49
8.060547042976009
 49
-2551.147945737283
 53
276.1416
 43
12161.12616711029
 44
1770.516267978904
 45
-0.0000356891682921
 46
-36.87700042616381
 79
     2
 49
8.060547042976009
 49
-2551.147945737283
 53
276.1416
 43
12172.07817370046
 44
1770.516267978904
 45
-0.0000356891682921
 46
-36.87700042616381
 79
     2
 49
8.060547042976009
 49
-2551.147945737283
 53
276.1416
 43
12183.03018029063
 44
1770.516267978904
 45
-0.0000356891682921
 46
-36.87700042616381
 79
     2
 49
8.060547042976009
 49
-2551.147945737283
 53
276.1416
 43
12193.9821868808
 44
1770.516267978904
 45
-0.0000356891682921
 46
-36.87700042616381
 79
     2
 49
8.060547042976009
 49
-2551.147945737283
 53
276.1416
 43
12204.93419347096
 44
1770.516267978904
 45
-0.0000356891682921
 46
-36.87700042616381
 79
     2
 49
8.060547042976009
 49
-2551.147945737283
 53
276.1416
 43
12215.88620006112
 44
1770.516267978904
 45
-0.0000356891682921
 46
-36.87700042616381
 79
     2
 49
8.060547042976009
 49
-2551.147945737283
 53
276.1416
 43
12226.8382066513
 44
1770.516267978904
 45
-0.0000356891682921
 46
-36.87700042616381
 79
     2
 49
8.060547042976009
 49
-2551.147945737283
 53
276.1416
 43
12237.79054103789
 44
1770.516267978904
 45
-0.0000356891682921
 46
-36.87700042616381
 79
     2
 49
8.060547042976009
 49
-2551.147945737283
 53
276.1416
 43
12248.74254762807
 44
1770.516267978904
 45
-0.0000356891682921
 46
-36.87700042616381
 79
     2
 49
8.060547042976009
 49
-2551.147945737283
 53
276.1416
 43
12259.69455421823
 44
1770.516267978904
 45
-0.0000356891682921
 46
-36.87700042616381
 79
     2
 49
8.060547042976009
 49
-2551.147945737283
 53
276.1416
 43
12270.64656080839
 44
1770.516267978904
 45
-0.0000356891682921
 46
-36.87700042616381
 79
     2
 49
8.060547042976009
 49
-2551.147945737283
 53
276.1416
 43
12281.59856739857
 44
1770.516267978904
 45
-0.0000356891682921
 46
-36.87700042616381
 79
     2
 49
8.060547042976009
 49
-2551.147945737283
 53
276.1416
 43
12292.55057398873
 44
1770.516267978904
 45
-0.0000356891682921
 46
-36.87700042616381
 79
     2
 49
8.060547042976009
 49
-2551.147945737283
 53
276.1416
 43
12303.5025805789
 44
1770.516267978904
 45
-0.0000356891682921
 46
-36.87700042616381
 79
     2
 49
8.060547042976009
 49
-2551.147945737283
 53
276.1416
 43
12314.45458716906
 44
1770.516267978904
 45
-0.0000356891682921
 46
-36.87700042616381
 79
     2
 49
8.060547042976009
 49
-2551.147945737283
 53
276.1416
 43
12325.40659375924
 44
1770.516267978904
 45
-0.0000356891682921
 46
-36.87700042616381
 79
     2
 49
8.060547042976009
 49
-2551.147945737283
 53
276.1416
 43
12336.3586003494
 44
1770.516267978904
 45
-0.0000356891682921
 46
-36.87700042616381
 79
     2
 49
8.060547042976009
 49
-2551.147945737283
 53
83.85800000000008
 43
12083.30624520054
 44
1762.502005792126
 45
10.9520277214346
 46
-0.0000684758235829
 79
     2
 49
8.060547042975887
 49
-2551.147945737251
 53
83.85800000000008
 43
12083.30624520054
 44
1725.625005528983
 45
10.9520277214346
 46
-0.0000684758235829
 79
     2
 49
8.060547042975887
 49
-2551.147945737251
 53
83.85800000000008
 43
12083.30624520054
 44
1688.747906926908
 45
10.9520277214346
 46
-0.0000684758235829
 79
     2
 49
8.060547042975887
 49
-2551.147945737251
 53
83.85800000000008
 43
12083.30624520054
 44
1651.870808324839
 45
10.9520277214346
 46
-0.0000684758235829
 79
     2
 49
8.060547042975887
 49
-2551.147945737251
 53
83.85800000000008
 43
12083.30624520054
 44
1614.993709722771
 45
10.9520277214346
 46
-0.0000684758235829
 79
     2
 49
8.060547042975887
 49
-2551.147945737251
 53
83.85800000000008
 43
12083.30624520054
 44
1578.116611120696
 45
10.9520277214346
 46
-0.0000684758235829
 79
     2
 49
8.060547042975887
 49
-2551.147945737251
 53
83.85800000000008
 43
12083.30624520054
 44
1541.239512518624
 45
10.9520277214346
 46
-0.0000684758235829
 79
     2
 49
8.060547042975887
 49
-2551.147945737251
 53
83.85800000000008
 43
12083.30624520054
 44
1504.362413916552
 45
10.9520277214346
 46
-0.0000684758235829
 79
     2
 49
8.060547042975887
 49
-2551.147945737251
 53
83.85800000000008
 43
12083.30624520054
 44
1467.485315314484
 45
10.9520277214346
 46
-0.0000684758235829
 79
     2
 49
8.060547042975887
 49
-2551.147945737251
 53
83.85800000000008
 43
12083.30624520054
 44
1430.606577730251
 45
10.9520277214346
 46
-0.0000684758235829
 79
     2
 49
8.060547042975887
 49
-2551.147945737251
 53
83.85800000000008
 43
12083.30624520054
 44
1393.729479128179
 45
10.9520277214346
 46
-0.0000684758235829
 79
     2
 49
8.060547042975887
 49
-2551.147945737251
 53
83.85800000000008
 43
12083.30624520054
 44
1356.852380526104
 45
10.9520277214346
 46
-0.0000684758235829
 79
     2
 49
8.060547042975887
 49
-2551.147945737251
 53
83.85800000000008
 43
12083.30624520054
 44
1319.975281924036
 45
10.9520277214346
 46
-0.0000684758235829
 79
     2
 49
8.060547042975887
 49
-2551.147945737251
 53
83.85800000000008
 43
12083.30624520054
 44
1283.098183321968
 45
10.9520277214346
 46
-0.0000684758235829
 79
     2
 49
8.060547042975887
 49
-2551.147945737251
 53
83.85800000000008
 43
12083.30624520054
 44
1246.221084719892
 45
10.9520277214346
 46
-0.0000684758235829
 79
     2
 49
8.060547042975887
 49
-2551.147945737251
 53
83.85800000000008
 43
12083.30624520054
 44
1209.343986117821
 45
10.9520277214346
 46
-0.0000684758235829
 79
     2
 49
8.060547042975887
 49
-2551.147945737251
 53
83.85800000000008
 43
12083.30624520054
 44
1172.466887515749
 45
10.9520277214346
 46
-0.0000684758235829
 79
     2
 49
8.060547042975887
 49
-2551.147945737251
 53
83.85800000000008
 43
12083.30624520054
 44
1135.589788913677
 45
10.9520277214346
 46
-0.0000684758235829
 79
     2
 49
8.060547042975887
 49
-2551.147945737251
 53
83.85800000000008
 43
12083.30624520054
 44
1098.712690311609
 45
10.9520277214346
 46
-0.0000684758235829
 79
     2
 49
8.060547042975887
 49
-2551.147945737251
 53
83.85800000000008
 43
12083.30624520054
 44
1061.835591709537
 45
10.9520277214346
 46
-0.0000684758235829
 79
     2
 49
8.060547042975887
 49
-2551.147945737251
 53
83.85800000000008
 43
12083.30624520054
 44
1024.958493107462
 45
10.9520277214346
 46
-0.0000684758235829
 79
     2
 49
8.060547042975887
 49
-2551.147945737251
 53
83.85800000000008
 43
12083.30624520054
 44
988.0813945053935
 45
10.9520277214346
 46
-0.0000684758235829
 79
     2
 49
8.060547042975887
 49
-2551.147945737251
 53
83.85800000000008
 43
12083.30624520054
 44
951.2042959033218
 45
10.9520277214346
 46
-0.0000684758235829
 79
     2
 49
8.060547042975887
 49
-2551.147945737251
 53
83.85800000000008
 43
12083.30624520054
 44
914.3271973012499
 45
10.9520277214346
 46
-0.0000684758235829
 79
     2
 49
8.060547042975887
 49
-2551.147945737251
 53
83.85800000000008
 43
12083.30624520054
 44
877.4500986991744
 45
10.9520277214346
 46
-0.0000684758235829
 79
     2
 49
8.060547042975887
 49
-2551.147945737251
 53
83.85800000000008
 43
12083.30624520054
 44
840.5730000971063
 45
10.9520277214346
 46
-0.0000684758235829
 79
     2
 49
8.060547042975887
 49
-2551.147945737251
 53
83.85800000000008
 43
12083.30624520054
 44
803.6959014950308
 45
10.9520277214346
 46
-0.0000684758235829
 79
     2
 49
8.060547042975887
 49
-2551.147945737251
 53
83.85800000000008
 43
12083.30624520054
 44
766.8188028929628
 45
10.9520277214346
 46
-0.0000684758235829
 79
     2
 49
8.060547042975887
 49
-2551.147945737251
 53
83.85800000000008
 43
12083.30624520054
 44
729.9417042908873
 45
10.9520277214346
 46
-0.0000684758235829
 79
     2
 49
8.060547042975887
 49
-2551.147945737251
 53
83.85800000000008
 43
12083.30624520054
 44
693.0646056888193
 45
10.9520277214346
 46
-0.0000684758235829
 79
     2
 49
8.060547042975887
 49
-2551.147945737251
 53
83.85800000000008
 43
12083.30624520054
 44
656.1875070867511
 45
10.9520277214346
 46
-0.0000684758235829
 79
     2
 49
8.060547042975887
 49
-2551.147945737251
 53
83.85800000000008
 43
12083.30624520054
 44
619.3104084846757
 45
10.9520277214346
 46
-0.0000684758235829
 79
     2
 49
8.060547042975887
 49
-2551.147945737251
 53
83.85800000000008
 43
12083.30624520054
 44
582.4333098826039
 45
10.9520277214346
 46
-0.0000684758235829
 79
     2
 49
8.060547042975887
 49
-2551.147945737251
 53
83.85800000000008
 43
12083.30624520054
 44
545.5562112805321
 45
10.9520277214346
 46
-0.0000684758235829
 79
     2
 49
8.060547042975887
 49
-2551.147945737251
 53
83.85800000000008
 43
12083.30624520054
 44
508.6791126784603
 45
10.9520277214346
 46
-0.0000684758235829
 79
     2
 49
8.060547042975887
 49
-2551.147945737251
 53
83.85800000000008
 43
12083.30624520054
 44
471.8020140763885
 45
10.9520277214346
 46
-0.0000684758235829
 79
     2
 49
8.060547042975887
 49
-2551.147945737251
 53
83.85800000000008
 43
12083.30624520054
 44
434.9249154743204
 45
10.9520277214346
 46
-0.0000684758235829
 79
     2
 49
8.060547042975887
 49
-2551.147945737251
 53
83.85800000000008
 43
12083.30624520054
 44
398.0478168722486
 45
10.9520277214346
 46
-0.0000684758235829
 79
     2
 49
8.060547042975887
 49
-2551.147945737251
 53
83.85800000000008
 43
12083.30624520054
 44
361.1707182701732
 45
10.9520277214346
 46
-0.0000684758235829
 79
     2
 49
8.060547042975887
 49
-2551.147945737251
 53
83.85800000000008
 43
12083.30624520054
 44
324.2936196681051
 45
10.9520277214346
 46
-0.0000684758235829
 79
     2
 49
8.060547042975887
 49
-2551.147945737251
 53
83.85800000000008
 43
12083.30624520054
 44
287.4165210660333
 45
10.9520277214346
 46
-0.0000684758235829
 79
     2
 49
8.060547042975887
 49
-2551.147945737251
 53
83.85800000000008
 43
12083.30624520054
 44
250.5394224639615
 45
10.9520277214346
 46
-0.0000684758235829
 79
     2
 49
8.060547042975887
 49
-2551.147945737251
 53
83.85800000000008
 43
12083.30624520054
 44
213.6623238618888
 45
10.9520277214346
 46
-0.0000684758235829
 79
     2
 49
8.060547042975887
 49
-2551.147945737251
 53
83.85800000000008
 43
12083.30624520054
 44
176.785225259817
 45
10.9520277214346
 46
-0.0000684758235829
 79
     2
 49
8.060547042975887
 49
-2551.147945737251
 53
83.85800000000008
 43
12083.30624520054
 44
139.9081266577452
 45
10.9520277214346
 46
-0.0000684758235829
 79
     2
 49
8.060547042975887
 49
-2551.147945737251
 53
83.85800000000008
 43
12083.30624520054
 44
103.0310280556734
 45
10.9520277214346
 46
-0.0000684758235829
 79
     2
 49
8.060547042975887
 49
-2551.147945737251
 53
83.85800000000008
 43
12083.30624520054
 44
66.15392945360167
 45
10.9520277214346
 46
-0.0000684758235829
 79
     2
 49
8.060547042975887
 49
-2551.147945737251
 53
83.85800000000008
 43
12083.30624520054
 44
29.27683085152626
 45
10.9520277214346
 46
-0.0000684758235829
 79
     2
 49
8.060547042975887
 49
-2551.147945737251
 53
83.85800000000008
 43
12083.30624520054
 44
-7.60026775053825
 45
10.9520277214346
 46
-0.0000684758235829
 79
     2
 49
8.060547042975887
 49
-2551.147945737251
 53
83.85800000000008
 43
12083.30624520054
 44
-44.47736635261003
 45
10.9520277214346
 46
-0.0000684758235829
 79
     2
 49
8.060547042975887
 49
-2551.147945737251
 53
83.85800000000008
 43
12083.30624520054
 44
-81.35446495468546
 45
10.9520277214346
 46
-0.0000684758235829
 79
     2
 49
8.060547042975887
 49
-2551.147945737251
 53
83.85800000000008
 43
12083.30624520054
 44
-118.2315635567572
 45
10.9520277214346
 46
-0.0000684758235829
 79
     2
 49
8.060547042975887
 49
-2551.147945737251
 53
83.85800000000008
 43
12083.30624520054
 44
-155.108662158829
 45
10.9520277214346
 46
-0.0000684758235829
 79
     2
 49
8.060547042975887
 49
-2551.147945737251
 53
83.85800000000008
 43
12083.30624520054
 44
-191.9857607609008
 45
10.9520277214346
 46
-0.0000684758235829
 79
     2
 49
8.060547042975887
 49
-2551.147945737251
 53
83.85800000000008
 43
12083.30624520054
 44
-228.8628593629689
 45
10.9520277214346
 46
-0.0000684758235829
 79
     2
 49
8.060547042975887
 49
-2551.147945737251
 53
83.85800000000008
 43
12083.30624520054
 44
-265.7399579650407
 45
10.9520277214346
 46
-0.0000684758235829
 79
     2
 49
8.060547042975887
 49
-2551.147945737251
 53
83.85800000000008
 43
12083.30624520054
 44
-302.6170565671161
 45
10.9520277214346
 46
-0.0000684758235829
 79
     2
 49
8.060547042975887
 49
-2551.147945737251
 53
83.85800000000008
 43
12083.30624520054
 44
-339.4941551691843
 45
10.9520277214346
 46
-0.0000684758235829
 79
     2
 49
8.060547042975887
 49
-2551.147945737251
 53
83.85800000000008
 43
12083.30624520054
 44
-376.3712537712561
 45
10.9520277214346
 46
-0.0000684758235829
 79
     2
 49
8.060547042975887
 49
-2551.147945737251
 53
83.85800000000008
 43
12083.30624520054
 44
-413.2483523733278
 45
10.9520277214346
 46
-0.0000684758235829
 79
     2
 49
8.060547042975887
 49
-2551.147945737251
 53
83.85800000000008
 43
12083.30624520054
 44
-450.1254509753996
 45
10.9520277214346
 46
-0.0000684758235829
 79
     2
 49
8.060547042975887
 49
-2551.147945737251
 53
83.85800000000008
 43
12083.30624520054
 44
-487.0025495774714
 45
10.9520277214346
 46
-0.0000684758235829
 79
     2
 49
8.060547042975887
 49
-2551.147945737251
 53
83.85800000000008
 43
12083.30624520054
 44
-523.8796481795431
 45
10.9520277214346
 46
-0.0000684758235829
 79
     2
 49
8.060547042975887
 49
-2551.147945737251
 53
83.85800000000008
 43
12083.30624520054
 44
-560.7567467816149
 45
10.9520277214346
 46
-0.0000684758235829
 79
     2
 49
8.060547042975887
 49
-2551.147945737251
 53
83.85800000000008
 43
12083.30624520054
 44
-597.6338453836867
 45
10.9520277214346
 46
-0.0000684758235829
 79
     2
 49
8.060547042975887
 49
-2551.147945737251
 53
83.85800000000008
 43
12083.30624520054
 44
-634.5109439857622
 45
10.9520277214346
 46
-0.0000684758235829
 79
     2
 49
8.060547042975887
 49
-2551.147945737251
 53
83.85800000000008
 43
12083.30624520054
 44
-671.3880425878303
 45
10.9520277214346
 46
-0.0000684758235829
 79
     2
 49
8.060547042975887
 49
-2551.147945737251
 53
83.85800000000008
 43
12083.30624520054
 44
-708.2651411898985
 45
10.9520277214346
 46
-0.0000684758235829
 79
     2
 49
8.060547042975887
 49
-2551.147945737251
 53
83.85800000000008
 43
12083.30624520054
 44
-745.1422397919738
 45
10.9520277214346
 46
-0.0000684758235829
 79
     2
 49
8.060547042975887
 49
-2551.147945737251
 53
83.25300000000003
 43
12079.16706131451
 44
1747.430188085066
 45
10.95204383447483
 46
0.0000798601498432
 79
     2
 49
7.399774995313283
 49
-4560.119085052519
 53
83.25300000000003
 43
12079.16706131451
 44
1710.553253381209
 45
10.95204383447483
 46
0.0000798601498432
 79
     2
 49
7.399774995313283
 49
-4560.119085052519
 53
83.25300000000003
 43
12079.16706131451
 44
1673.676154779137
 45
10.95204383447483
 46
0.0000798601498432
 79
     2
 49
7.399774995313283
 49
-4560.119085052519
 53
83.25300000000003
 43
12079.16706131451
 44
1636.799056177065
 45
10.95204383447483
 46
0.0000798601498432
 79
     2
 49
7.399774995313283
 49
-4560.119085052519
 53
83.25300000000003
 43
12079.16706131451
 44
1599.921957574997
 45
10.95204383447483
 46
0.0000798601498432
 79
     2
 49
7.399774995313283
 49
-4560.119085052519
 53
83.25300000000003
 43
12079.16706131451
 44
1563.044858972925
 45
10.95204383447483
 46
0.0000798601498432
 79
     2
 49
7.399774995313283
 49
-4560.119085052519
 53
83.25300000000003
 43
12079.16706131451
 44
1526.16776037085
 45
10.95204383447483
 46
0.0000798601498432
 79
     2
 49
7.399774995313283
 49
-4560.119085052519
 53
83.25300000000003
 43
12079.16706131451
 44
1489.290661768781
 45
10.95204383447483
 46
0.0000798601498432
 79
     2
 49
7.399774995313283
 49
-4560.119085052519
 53
83.25300000000003
 43
12079.16706131451
 44
1452.413563166706
 45
10.95204383447483
 46
0.0000798601498432
 79
     2
 49
7.399774995313283
 49
-4560.119085052519
 53
83.25300000000003
 43
12079.16706131451
 44
1415.537775750364
 45
10.95204383447483
 46
0.0000798601498432
 79
     2
 49
7.399774995313283
 49
-4560.119085052519
 53
83.25300000000003
 43
12079.16706131451
 44
1378.660677148296
 45
10.95204383447483
 46
0.0000798601498432
 79
     2
 49
7.399774995313283
 49
-4560.119085052519
 53
83.25300000000003
 43
12079.16706131451
 44
1341.78357854622
 45
10.95204383447483
 46
0.0000798601498432
 79
     2
 49
7.399774995313283
 49
-4560.119085052519
 53
83.25300000000003
 43
12079.16706131451
 44
1304.906479944152
 45
10.95204383447483
 46
0.0000798601498432
 79
     2
 49
7.399774995313283
 49
-4560.119085052519
 53
83.25300000000003
 43
12079.16706131451
 44
1268.029381342077
 45
10.95204383447483
 46
0.0000798601498432
 79
     2
 49
7.399774995313283
 49
-4560.119085052519
 53
83.25300000000003
 43
12079.16706131451
 44
1231.152282740001
 45
10.95204383447483
 46
0.0000798601498432
 79
     2
 49
7.399774995313283
 49
-4560.119085052519
 53
83.25300000000003
 43
12079.16706131451
 44
1194.275184137933
 45
10.95204383447483
 46
0.0000798601498432
 79
     2
 49
7.399774995313283
 49
-4560.119085052519
 53
83.25300000000003
 43
12079.16706131451
 44
1157.398085535865
 45
10.95204383447483
 46
0.0000798601498432
 79
     2
 49
7.399774995313283
 49
-4560.119085052519
 53
83.25300000000003
 43
12079.16706131451
 44
1120.520986933789
 45
10.95204383447483
 46
0.0000798601498432
 79
     2
 49
7.399774995313283
 49
-4560.119085052519
 53
83.25300000000003
 43
12079.16706131451
 44
1083.643888331718
 45
10.95204383447483
 46
0.0000798601498432
 79
     2
 49
7.399774995313283
 49
-4560.119085052519
 53
83.25300000000003
 43
12079.16706131451
 44
1046.766789729646
 45
10.95204383447483
 46
0.0000798601498432
 79
     2
 49
7.399774995313283
 49
-4560.119085052519
 53
83.25300000000003
 43
12079.16706131451
 44
1009.889691127578
 45
10.95204383447483
 46
0.0000798601498432
 79
     2
 49
7.399774995313283
 49
-4560.119085052519
 53
83.25300000000003
 43
12079.16706131451
 44
973.01259252551
 45
10.95204383447483
 46
0.0000798601498432
 79
     2
 49
7.399774995313283
 49
-4560.119085052519
 53
83.25300000000003
 43
12079.16706131451
 44
936.1354939234345
 45
10.95204383447483
 46
0.0000798601498432
 79
     2
 49
7.399774995313283
 49
-4560.119085052519
 53
83.25300000000003
 43
12079.16706131451
 44
899.2583953213591
 45
10.95204383447483
 46
0.0000798601498432
 79
     2
 49
7.399774995313283
 49
-4560.119085052519
 53
83.25300000000003
 43
12079.16706131451
 44
862.3812967192909
 45
10.95204383447483
 46
0.0000798601498432
 79
     2
 49
7.399774995313283
 49
-4560.119085052519
 53
83.25300000000003
 43
12079.16706131451
 44
825.5041981172192
 45
10.95204383447483
 46
0.0000798601498432
 79
     2
 49
7.399774995313283
 49
-4560.119085052519
 53
83.25300000000003
 43
12079.16706131451
 44
788.6270995151473
 45
10.95204383447483
 46
0.0000798601498432
 79
     2
 49
7.399774995313283
 49
-4560.119085052519
 53
83.25300000000003
 43
12079.16706131451
 44
751.7500009130756
 45
10.95204383447483
 46
0.0000798601498432
 79
     2
 49
7.399774995313283
 49
-4560.119085052519
 53
83.25300000000003
 43
12079.16706131451
 44
714.8729023110038
 45
10.95204383447483
 46
0.0000798601498432
 79
     2
 49
7.399774995313283
 49
-4560.119085052519
 53
83.25300000000003
 43
12079.16706131451
 44
677.995803708932
 45
10.95204383447483
 46
0.0000798601498432
 79
     2
 49
7.399774995313283
 49
-4560.119085052519
 53
83.25300000000003
 43
12079.16706131451
 44
641.1187051068602
 45
10.95204383447483
 46
0.0000798601498432
 79
     2
 49
7.399774995313283
 49
-4560.119085052519
 53
83.25300000000003
 43
12079.16706131451
 44
604.2416065047884
 45
10.95204383447483
 46
0.0000798601498432
 79
     2
 49
7.399774995313283
 49
-4560.119085052519
 53
83.25300000000003
 43
12079.16706131451
 44
567.3645079027166
 45
10.95204383447483
 46
0.0000798601498432
 79
     2
 49
7.399774995313283
 49
-4560.119085052519
 53
83.25300000000003
 43
12079.16706131451
 44
530.4874093006485
 45
10.95204383447483
 46
0.0000798601498432
 79
     2
 49
7.399774995313283
 49
-4560.119085052519
 53
83.25300000000003
 43
12079.16706131451
 44
493.6103106985767
 45
10.95204383447483
 46
0.0000798601498432
 79
     2
 49
7.399774995313283
 49
-4560.119085052519
 53
83.25300000000003
 43
12079.16706131451
 44
456.7332120965049
 45
10.95204383447483
 46
0.0000798601498432
 79
     2
 49
7.399774995313283
 49
-4560.119085052519
 53
83.25300000000003
 43
12079.16706131451
 44
419.8561134944295
 45
10.95204383447483
 46
0.0000798601498432
 79
     2
 49
7.399774995313283
 49
-4560.119085052519
 53
83.25300000000003
 43
12079.16706131451
 44
382.9790148923614
 45
10.95204383447483
 46
0.0000798601498432
 79
     2
 49
7.399774995313283
 49
-4560.119085052519
 53
83.25300000000003
 43
12079.16706131451
 44
346.101916290286
 45
10.95204383447483
 46
0.0000798601498432
 79
     2
 49
7.399774995313283
 49
-4560.119085052519
 53
83.25300000000003
 43
12079.16706131451
 44
309.2248176882179
 45
10.95204383447483
 46
0.0000798601498432
 79
     2
 49
7.399774995313283
 49
-4560.119085052519
 53
83.25300000000003
 43
12079.16706131451
 44
272.3477190861461
 45
10.95204383447483
 46
0.0000798601498432
 79
     2
 49
7.399774995313283
 49
-4560.119085052519
 53
83.25300000000003
 43
12079.16706131451
 44
235.4706204840743
 45
10.95204383447483
 46
0.0000798601498432
 79
     2
 49
7.399774995313283
 49
-4560.119085052519
 53
83.25300000000003
 43
12079.16706131451
 44
198.5935218820016
 45
10.95204383447483
 46
0.0000798601498432
 79
     2
 49
7.399774995313283
 49
-4560.119085052519
 53
83.25300000000003
 43
12079.16706131451
 44
161.7164232799298
 45
10.95204383447483
 46
0.0000798601498432
 79
     2
 49
7.399774995313283
 49
-4560.119085052519
 53
83.25300000000003
 43
12079.16706131451
 44
124.839324677858
 45
10.95204383447483
 46
0.0000798601498432
 79
     2
 49
7.399774995313283
 49
-4560.119085052519
 53
83.25300000000003
 43
12079.16706131451
 44
87.96222607578625
 45
10.95204383447483
 46
0.0000798601498432
 79
     2
 49
7.399774995313283
 49
-4560.119085052519
 53
83.25300000000003
 43
12079.16706131451
 44
51.0851274737181
 45
10.95204383447483
 46
0.0000798601498432
 79
     2
 49
7.399774995313283
 49
-4560.119085052519
 53
83.25300000000003
 43
12079.16706131451
 44
14.20802887164268
 45
10.95204383447483
 46
0.0000798601498432
 79
     2
 49
7.399774995313283
 49
-4560.119085052519
 53
83.25300000000003
 43
12079.16706131451
 44
-22.6690697304291
 45
10.95204383447483
 46
0.0000798601498432
 79
     2
 49
7.399774995313283
 49
-4560.119085052519
 53
83.25300000000003
 43
12079.16706131451
 44
-59.54616833250089
 45
10.95204383447483
 46
0.0000798601498432
 79
     2
 49
7.399774995313283
 49
-4560.119085052519
 53
83.25300000000003
 43
12079.16706131451
 44
-96.42326693457267
 45
10.95204383447483
 46
0.0000798601498432
 79
     2
 49
7.399774995313283
 49
-4560.119085052519
 53
83.25300000000003
 43
12079.16706131451
 44
-133.3003655366408
 45
10.95204383447483
 46
0.0000798601498432
 79
     2
 49
7.399774995313283
 49
-4560.119085052519
 53
83.25300000000003
 43
12079.16706131451
 44
-170.1774641387126
 45
10.95204383447483
 46
0.0000798601498432
 79
     2
 49
7.399774995313283
 49
-4560.119085052519
 53
83.25300000000003
 43
12079.16706131451
 44
-207.0545627407844
 45
10.95204383447483
 46
0.0000798601498432
 79
     2
 49
7.399774995313283
 49
-4560.119085052519
 53
83.25300000000003
 43
12079.16706131451
 44
-243.9316613428598
 45
10.95204383447483
 46
0.0000798601498432
 79
     2
 49
7.399774995313283
 49
-4560.119085052519
 53
83.25300000000003
 43
12079.16706131451
 44
-280.8087599449279
 45
10.95204383447483
 46
0.0000798601498432
 79
     2
 49
7.399774995313283
 49
-4560.119085052519
 53
83.25300000000003
 43
12079.16706131451
 44
-317.6858585470033
 45
10.95204383447483
 46
0.0000798601498432
 79
     2
 49
7.399774995313283
 49
-4560.119085052519
 53
83.25300000000003
 43
12079.16706131451
 44
-354.5629571490715
 45
10.95204383447483
 46
0.0000798601498432
 79
     2
 49
7.399774995313283
 49
-4560.119085052519
 53
83.25300000000003
 43
12079.16706131451
 44
-391.4400557511433
 45
10.95204383447483
 46
0.0000798601498432
 79
     2
 49
7.399774995313283
 49
-4560.119085052519
 53
83.25300000000003
 43
12079.16706131451
 44
-428.3171543532151
 45
10.95204383447483
 46
0.0000798601498432
 79
     2
 49
7.399774995313283
 49
-4560.119085052519
 53
83.25300000000003
 43
12079.16706131451
 44
-465.1942529552868
 45
10.95204383447483
 46
0.0000798601498432
 79
     2
 49
7.399774995313283
 49
-4560.119085052519
 53
83.25300000000003
 43
12079.16706131451
 44
-502.0713515573586
 45
10.95204383447483
 46
0.0000798601498432
 79
     2
 49
7.399774995313283
 49
-4560.119085052519
 53
83.25300000000003
 43
12079.16706131451
 44
-538.9484501594304
 45
10.95204383447483
 46
0.0000798601498432
 79
     2
 49
7.399774995313283
 49
-4560.119085052519
 53
83.25300000000003
 43
12079.16706131451
 44
-575.8255487615022
 45
10.95204383447483
 46
0.0000798601498432
 79
     2
 49
7.399774995313283
 49
-4560.119085052519
 53
83.25300000000003
 43
12079.16706131451
 44
-612.702647363574
 45
10.95204383447483
 46
0.0000798601498432
 79
     2
 49
7.399774995313283
 49
-4560.119085052519
 53
83.25300000000003
 43
12079.16706131451
 44
-649.5797459656421
 45
10.95204383447483
 46
0.0000798601498432
 79
     2
 49
7.399774995313283
 49
-4560.119085052519
 53
83.25300000000003
 43
12079.16706131451
 44
-686.4568445677175
 45
10.95204383447483
 46
0.0000798601498432
 79
     2
 49
7.399774995313283
 49
-4560.119085052519
 53
83.25300000000003
 43
12079.16706131451
 44
-723.3339431697893
 45
10.95204383447483
 46
0.0000798601498432
 79
     2
 49
7.399774995313283
 49
-4560.119085052519
 53
83.25300000000003
 43
12079.16706131451
 44
-760.2110417718611
 45
10.95204383447483
 46
0.0000798601498432
 79
     2
 49
7.399774995313283
 49
-4560.119085052519
 53
83.25300000000003
 43
12079.16706131451
 44
-797.0881403739292
 45
10.95204383447483
 46
0.0000798601498432
 79
     2
 49
7.399774995313283
 49
-4560.119085052519
 53
83.25300000000003
 43
12079.16706131451
 44
-833.965238976001
 45
10.95204383447483
 46
0.0000798601498432
 79
     2
 49
7.399774995313283
 49
-4560.119085052519
 53
83.25300000000003
 43
12079.16706131451
 44
-870.8423375780729
 45
10.95204383447483
 46
0.0000798601498432
 79
     2
 49
7.399774995313283
 49
-4560.119085052519
 53
83.25300000000003
 43
12079.16706131451
 44
-907.7194361801483
 45
10.95204383447483
 46
0.0000798601498432
 79
     2
 49
7.399774995313283
 49
-4560.119085052519
 53
83.25300000000003
 43
12079.16706131451
 44
-944.5965347822165
 45
10.95204383447483
 46
0.0000798601498432
 79
     2
 49
7.399774995313283
 49
-4560.119085052519
 53
83.25300000000003
 43
12079.16706131451
 44
-981.4736333842844
 45
10.95204383447483
 46
0.0000798601498432
 79
     2
 49
7.399774995313283
 49
-4560.119085052519
 53
83.25300000000003
 43
12079.16706131451
 44
-1018.35073198636
 45
10.95204383447483
 46
0.0000798601498432
 79
     2
 49
7.399774995313283
 49
-4560.119085052519
 53
83.25300000000003
 43
12079.16706131451
 44
-1055.227830588432
 45
10.95204383447483
 46
0.0000798601498432
 79
     2
 49
7.399774995313283
 49
-4560.119085052519
 53
83.25300000000003
 43
12079.16706131451
 44
-1092.104929190503
 45
10.95204383447483
 46
0.0000798601498432
 79
     2
 49
7.399774995313283
 49
-4560.119085052519
 53
83.25300000000003
 43
12079.16706131451
 44
-1128.982027792575
 45
10.95204383447483
 46
0.0000798601498432
 79
     2
 49
7.399774995313283
 49
-4560.119085052519
 53
83.25300000000003
 43
12079.16706131451
 44
-1165.859126394647
 45
10.95204383447483
 46
0.0000798601498432
 79
     2
 49
7.399774995313283
 49
-4560.119085052519
 53
83.25300000000003
 43
12079.16706131451
 44
-1202.736224996719
 45
10.95204383447483
 46
0.0000798601498432
 79
     2
 49
7.399774995313283
 49
-4560.119085052519
 53
83.25300000000003
 43
12079.16706131451
 44
-1239.61332359879
 45
10.95204383447483
 46
0.0000798601498432
 79
     2
 49
7.399774995313283
 49
-4560.119085052519
 53
83.25300000000003
 43
12079.16706131451
 44
-1276.490422200862
 45
10.95204383447483
 46
0.0000798601498432
 79
     2
 49
7.399774995313283
 49
-4560.119085052519
 53
83.25300000000003
 43
12079.16706131451
 44
-1313.36752080293
 45
10.95204383447483
 46
0.0000798601498432
 79
     2
 49
7.399774995313283
 49
-4560.119085052519
 53
83.25300000000003
 43
12079.16706131451
 44
-1350.244619405006
 45
10.95204383447483
 46
0.0000798601498432
 79
     2
 49
7.399774995313283
 49
-4560.119085052519
 53
83.25300000000003
 43
12079.16706131451
 44
-1387.121718007078
 45
10.95204383447483
 46
0.0000798601498432
 79
     2
 49
7.399774995313283
 49
-4560.119085052519
 53
83.25300000000003
 43
12079.16706131451
 44
-1423.998816609146
 45
10.95204383447483
 46
0.0000798601498432
 79
     2
 49
7.399774995313283
 49
-4560.119085052519
 53
83.25300000000003
 43
12079.16706131451
 44
-1460.875915211218
 45
10.95204383447483
 46
0.0000798601498432
 79
     2
 49
7.399774995313283
 49
-4560.119085052519
 53
83.25300000000003
 43
12079.16706131451
 44
-1497.753013813289
 45
10.95204383447483
 46
0.0000798601498432
 79
     2
 49
7.399774995313283
 49
-4560.119085052519
 53
83.25300000000003
 43
12079.16706131451
 44
-1534.633390379684
 45
10.95204383447483
 46
0.0000798601498432
 79
     2
 49
7.399774995313283
 49
-4560.119085052519
 53
83.25300000000003
 43
12079.16706131451
 44
-1571.510488981755
 45
10.95204383447483
 46
0.0000798601498432
 79
     2
 49
7.399774995313283
 49
-4560.119085052519
 53
83.25300000000003
 43
12079.16706131451
 44
-1608.387587583827
 45
10.95204383447483
 46
0.0000798601498432
 79
     2
 49
7.399774995313283
 49
-4560.119085052519
 53
83.25300000000003
 43
12079.16706131451
 44
-1645.264686185895
 45
10.95204383447483
 46
0.0000798601498432
 79
     2
 49
7.399774995313283
 49
-4560.119085052519
 53
83.25300000000003
 43
12079.16706131451
 44
-1682.141784787967
 45
10.95204383447483
 46
0.0000798601498432
 79
     2
 49
7.399774995313283
 49
-4560.119085052519
 53
83.25300000000003
 43
12079.16706131451
 44
-1719.018883390043
 45
10.95204383447483
 46
0.0000798601498432
 79
     2
 49
7.399774995313283
 49
-4560.119085052519
 53
83.25300000000003
 43
12079.16706131451
 44
-1755.895981992114
 45
10.95204383447483
 46
0.0000798601498432
 79
     2
 49
7.399774995313283
 49
-4560.119085052519
 53
83.25300000000003
 43
12079.16706131451
 44
-1792.773080594186
 45
10.95204383447483
 46
0.0000798601498432
 79
     2
 49
7.399774995313283
 49
-4560.119085052519
 53
83.25300000000003
 43
12079.16706131451
 44
-1829.650179196258
 45
10.95204383447483
 46
0.0000798601498432
 79
     2
 49
7.399774995313283
 49
-4560.119085052519
 53
83.25300000000003
 43
12079.16706131451
 44
-1866.527277798326
 45
10.95204383447483
 46
0.0000798601498432
 79
     2
 49
7.399774995313283
 49
-4560.119085052519
 53
83.25300000000003
 43
12079.16706131451
 44
-1903.404376400398
 45
10.95204383447483
 46
0.0000798601498432
 79
     2
 49
7.399774995313283
 49
-4560.119085052519
 53
83.25300000000003
 43
12079.16706131451
 44
-1940.281475002473
 45
10.95204383447483
 46
0.0000798601498432
 79
     2
 49
7.399774995313283
 49
-4560.119085052519
 53
83.25300000000003
 43
12079.16706131451
 44
-1977.158573604542
 45
10.95204383447483
 46
0.0000798601498432
 79
     2
 49
7.399774995313283
 49
-4560.119085052519
 53
83.25300000000003
 43
12079.16706131451
 44
-2014.035672206613
 45
10.95204383447483
 46
0.0000798601498432
 79
     2
 49
7.399774995313283
 49
-4560.119085052519
 53
83.25300000000003
 43
12079.16706131451
 44
-2050.912770808686
 45
10.95204383447483
 46
0.0000798601498432
 79
     2
 49
7.399774995313283
 49
-4560.119085052519
 53
83.25300000000003
 43
12079.16706131451
 44
-2087.789869410757
 45
10.95204383447483
 46
0.0000798601498432
 79
     2
 49
7.399774995313283
 49
-4560.119085052519
 53
83.25300000000003
 43
12079.16706131451
 44
-2124.666968012829
 45
10.95204383447483
 46
0.0000798601498432
 79
     2
 49
7.399774995313283
 49
-4560.119085052519
 53
83.25300000000003
 43
12079.16706131451
 44
-2161.544066614901
 45
10.95204383447483
 46
0.0000798601498432
 79
     2
 49
7.399774995313283
 49
-4560.119085052519
 53
83.25300000000003
 43
12079.16706131451
 44
-2198.421165216973
 45
10.95204383447483
 46
0.0000798601498432
 79
     2
 49
7.399774995313283
 49
-4560.119085052519
 53
83.25300000000003
 43
12079.16706131451
 44
-2235.298263819045
 45
10.95204383447483
 46
0.0000798601498432
 79
     2
 49
7.399774995313283
 49
-4560.119085052519
 53
83.25300000000003
 43
12079.16706131451
 44
-2272.17536242112
 45
10.95204383447483
 46
0.0000798601498432
 79
     2
 49
7.399774995313283
 49
-4560.119085052519
 53
83.25300000000003
 43
12079.16706131451
 44
-2309.052461023188
 45
10.95204383447483
 46
0.0000798601498432
 79
     2
 49
7.399774995313283
 49
-4560.119085052519
 53
83.25300000000003
 43
12079.16706131451
 44
-2345.929559625259
 45
10.95204383447483
 46
0.0000798601498432
 79
     2
 49
7.399774995313283
 49
-4560.119085052519
 53
83.25300000000003
 43
12079.16706131451
 44
-2382.806658227332
 45
10.95204383447483
 46
0.0000798601498432
 79
     2
 49
7.399774995313283
 49
-4560.119085052519
 53
83.25300000000003
 43
12079.16706131451
 44
-2419.683756829404
 45
10.95204383447483
 46
0.0000798601498432
 79
     2
 49
7.399774995313283
 49
-4560.119085052519
 53
83.25300000000003
 43
12079.16706131451
 44
-2456.560855431475
 45
10.95204383447483
 46
0.0000798601498432
 79
     2
 49
7.399774995313283
 49
-4560.119085052519
 53
83.25300000000003
 43
12079.16706131451
 44
-2493.437954033547
 45
10.95204383447483
 46
0.0000798601498432
 79
     2
 49
7.399774995313283
 49
-4560.119085052519
 53
83.25300000000003
 43
12079.16706131451
 44
-2530.315052635615
 45
10.95204383447483
 46
0.0000798601498432
 79
     2
 49
7.399774995313283
 49
-4560.119085052519
 53
83.25300000000003
 43
12079.16706131451
 44
-2567.192151237687
 45
10.95204383447483
 46
0.0000798601498432
 79
     2
 49
7.399774995313283
 49
-4560.119085052519
 53
83.25300000000003
 43
12079.16706131451
 44
-2604.069249839762
 45
10.95204383447483
 46
0.0000798601498432
 79
     2
 49
7.399774995313283
 49
-4560.119085052519
 53
83.25300000000003
 43
12079.16706131451
 44
-2640.94634844183
 45
10.95204383447483
 46
0.0000798601498432
 79
     2
 49
7.399774995313283
 49
-4560.119085052519
 53
83.25300000000003
 43
12079.16706131451
 44
-2677.823447043902
 45
10.95204383447483
 46
0.0000798601498432
 79
     2
 49
7.399774995313283
 49
-4560.119085052519
 53
83.25300000000003
 43
12079.16706131451
 44
-2714.700545645974
 45
10.95204383447483
 46
0.0000798601498432
 79
     2
 49
7.399774995313283
 49
-4560.119085052519
 53
83.25300000000003
 43
12079.16706131451
 44
-2751.577644248046
 45
10.95204383447483
 46
0.0000798601498432
 79
     2
 49
7.399774995313283
 49
-4560.119085052519
 53
74.89100000000004
 43
12077.56361228765
 44
1743.916702028478
 45
10.95202665113163
 46
-0.000003043705463
 79
     2
 49
3.63896653076602
 49
-416.5337124354707
 53
74.89100000000004
 43
12077.56361228765
 44
1707.039603426402
 45
10.95202665113163
 46
-0.000003043705463
 79
     2
 49
3.63896653076602
 49
-416.5337124354707
 53
74.89100000000004
 43
12077.56361228765
 44
1670.162504824334
 45
10.95202665113163
 46
-0.000003043705463
 79
     2
 49
3.63896653076602
 49
-416.5337124354707
 53
74.89100000000004
 43
12077.56361228765
 44
1633.285406222259
 45
10.95202665113163
 46
-0.000003043705463
 79
     2
 49
3.63896653076602
 49
-416.5337124354707
 53
74.89100000000004
 43
12077.56361228765
 44
1596.408307620187
 45
10.95202665113163
 46
-0.000003043705463
 79
     2
 49
3.63896653076602
 49
-416.5337124354707
 53
74.89100000000004
 43
12077.56361228765
 44
1559.531209018115
 45
10.95202665113163
 46
-0.000003043705463
 79
     2
 49
3.63896653076602
 49
-416.5337124354707
 53
74.89100000000004
 43
12077.56361228765
 44
1522.654110416047
 45
10.95202665113163
 46
-0.000003043705463
 79
     2
 49
3.63896653076602
 49
-416.5337124354707
 53
74.89100000000004
 43
12077.56361228765
 44
1485.777011813971
 45
10.95202665113163
 46
-0.000003043705463
 79
     2
 49
3.63896653076602
 49
-416.5337124354707
 53
74.89100000000004
 43
12077.56361228765
 44
1448.900896601202
 45
10.95202665113163
 46
-0.000003043705463
 79
     2
 49
3.63896653076602
 49
-416.5337124354707
 53
74.89100000000004
 43
12077.56361228765
 44
1412.023797999126
 45
10.95202665113163
 46
-0.000003043705463
 79
     2
 49
3.63896653076602
 49
-416.5337124354707
 53
74.89100000000004
 43
12077.56361228765
 44
1375.146699397054
 45
10.95202665113163
 46
-0.000003043705463
 79
     2
 49
3.63896653076602
 49
-416.5337124354707
 53
67.06200000000002
 43
12080.03811477332
 44
1754.77853182019
 45
10.95204222691618
 46
0.0000810236171289
 79
     2
 49
8.386475035331908
 49
-1593.356600854788
 53
67.06200000000002
 43
12080.03811477332
 44
1717.901465997767
 45
10.95204222691618
 46
0.0000810236171289
 79
     2
 49
8.386475035331908
 49
-1593.356600854788
 53
67.06200000000002
 43
12080.03811477332
 44
1681.024367395695
 45
10.95204222691618
 46
0.0000810236171289
 79
     2
 49
8.386475035331908
 49
-1593.356600854788
 53
67.06200000000002
 43
12080.03811477332
 44
1644.147268793623
 45
10.95204222691618
 46
0.0000810236171289
 79
     2
 49
8.386475035331908
 49
-1593.356600854788
 53
67.06200000000002
 43
12080.03811477332
 44
1607.270170191547
 45
10.95204222691618
 46
0.0000810236171289
 79
     2
 49
8.386475035331908
 49
-1593.356600854788
 53
67.06200000000002
 43
12080.03811477332
 44
1570.39307158948
 45
10.95204222691618
 46
0.0000810236171289
 79
     2
 49
8.386475035331908
 49
-1593.356600854788
 53
67.06200000000002
 43
12080.03811477332
 44
1533.515972987408
 45
10.95204222691618
 46
0.0000810236171289
 79
     2
 49
8.386475035331908
 49
-1593.356600854788
 53
67.06200000000002
 43
12080.03811477332
 44
1496.638874385336
 45
10.95204222691618
 46
0.0000810236171289
 79
     2
 49
8.386475035331908
 49
-1593.356600854788
 53
67.06200000000002
 43
12080.03811477332
 44
1459.761775783268
 45
10.95204222691618
 46
0.0000810236171289
 79
     2
 49
8.386475035331908
 49
-1593.356600854788
 53
67.06200000000002
 43
12080.03811477332
 44
1422.883693791894
 45
10.95204222691618
 46
0.0000810236171289
 79
     2
 49
8.386475035331908
 49
-1593.356600854788
 53
67.06200000000002
 43
12080.03811477332
 44
1386.006595189826
 45
10.95204222691618
 46
0.0000810236171289
 79
     2
 49
8.386475035331908
 49
-1593.356600854788
 53
67.06200000000002
 43
12080.03811477332
 44
1349.129496587751
 45
10.95204222691618
 46
0.0000810236171289
 79
     2
 49
8.386475035331908
 49
-1593.356600854788
 53
67.06200000000002
 43
12080.03811477332
 44
1312.252397985682
 45
10.95204222691618
 46
0.0000810236171289
 79
     2
 49
8.386475035331908
 49
-1593.356600854788
 53
67.06200000000002
 43
12080.03811477332
 44
1275.375299383614
 45
10.95204222691618
 46
0.0000810236171289
 79
     2
 49
8.386475035331908
 49
-1593.356600854788
 53
67.06200000000002
 43
12080.03811477332
 44
1238.498200781539
 45
10.95204222691618
 46
0.0000810236171289
 79
     2
 49
8.386475035331908
 49
-1593.356600854788
 53
67.06200000000002
 43
12080.03811477332
 44
1201.621102179471
 45
10.95204222691618
 46
0.0000810236171289
 79
     2
 49
8.386475035331908
 49
-1593.356600854788
 53
67.06200000000002
 43
12080.03811477332
 44
1164.744003577395
 45
10.95204222691618
 46
0.0000810236171289
 79
     2
 49
8.386475035331908
 49
-1593.356600854788
 53
67.06200000000002
 43
12080.03811477332
 44
1127.86690497532
 45
10.95204222691618
 46
0.0000810236171289
 79
     2
 49
8.386475035331908
 49
-1593.356600854788
 53
67.06200000000002
 43
12080.03811477332
 44
1090.989806373252
 45
10.95204222691618
 46
0.0000810236171289
 79
     2
 49
8.386475035331908
 49
-1593.356600854788
 53
67.06200000000002
 43
12080.03811477332
 44
1054.112707771184
 45
10.95204222691618
 46
0.0000810236171289
 79
     2
 49
8.386475035331908
 49
-1593.356600854788
 53
67.06200000000002
 43
12080.03811477332
 44
1017.235609169108
 45
10.95204222691618
 46
0.0000810236171289
 79
     2
 49
8.386475035331908
 49
-1593.356600854788
 53
67.06200000000002
 43
12080.03811477332
 44
980.3585105670364
 45
10.95204222691618
 46
0.0000810236171289
 79
     2
 49
8.386475035331908
 49
-1593.356600854788
 53
67.06200000000002
 43
12080.03811477332
 44
943.4814119649647
 45
10.95204222691618
 46
0.0000810236171289
 79
     2
 49
8.386475035331908
 49
-1593.356600854788
 53
67.06200000000002
 43
12080.03811477332
 44
906.604313362893
 45
10.95204222691618
 46
0.0000810236171289
 79
     2
 49
8.386475035331908
 49
-1593.356600854788
 53
67.06200000000002
 43
12080.03811477332
 44
869.7272147608249
 45
10.95204222691618
 46
0.0000810236171289
 79
     2
 49
8.386475035331908
 49
-1593.356600854788
 53
67.06200000000002
 43
12080.03811477332
 44
832.850116158753
 45
10.95204222691618
 46
0.0000810236171289
 79
     2
 49
8.386475035331908
 49
-1593.356600854788
 53
67.06200000000002
 43
12080.03811477332
 44
795.9730175566776
 45
10.95204222691618
 46
0.0000810236171289
 79
     2
 49
8.386475035331908
 49
-1593.356600854788
 53
67.06200000000002
 43
12080.03811477332
 44
759.0959189546095
 45
10.95204222691618
 46
0.0000810236171289
 79
     2
 49
8.386475035331908
 49
-1593.356600854788
 53
67.06200000000002
 43
12080.03811477332
 44
722.2188203525377
 45
10.95204222691618
 46
0.0000810236171289
 79
     2
 49
8.386475035331908
 49
-1593.356600854788
 53
67.06200000000002
 43
12080.03811477332
 44
685.3417217504659
 45
10.95204222691618
 46
0.0000810236171289
 79
     2
 49
8.386475035331908
 49
-1593.356600854788
 53
67.06200000000002
 43
12080.03811477332
 44
648.4646231483905
 45
10.95204222691618
 46
0.0000810236171289
 79
     2
 49
8.386475035331908
 49
-1593.356600854788
 53
67.06200000000002
 43
12080.03811477332
 44
611.5875245463223
 45
10.95204222691618
 46
0.0000810236171289
 79
     2
 49
8.386475035331908
 49
-1593.356600854788
 53
67.06200000000002
 43
12080.03811477332
 44
574.7104259442505
 45
10.95204222691618
 46
0.0000810236171289
 79
     2
 49
8.386475035331908
 49
-1593.356600854788
 53
67.06200000000002
 43
12080.03811477332
 44
537.8333273421787
 45
10.95204222691618
 46
0.0000810236171289
 79
     2
 49
8.386475035331908
 49
-1593.356600854788
 53
67.06200000000002
 43
12080.03811477332
 44
500.9562287401069
 45
10.95204222691618
 46
0.0000810236171289
 79
     2
 49
8.386475035331908
 49
-1593.356600854788
 53
67.06200000000002
 43
12080.03811477332
 44
464.0791301380352
 45
10.95204222691618
 46
0.0000810236171289
 79
     2
 49
8.386475035331908
 49
-1593.356600854788
 53
67.06200000000002
 43
12080.03811477332
 44
427.2020315359634
 45
10.95204222691618
 46
0.0000810236171289
 79
     2
 49
8.386475035331908
 49
-1593.356600854788
 53
67.06200000000002
 43
12080.03811477332
 44
390.3249329338953
 45
10.95204222691618
 46
0.0000810236171289
 79
     2
 49
8.386475035331908
 49
-1593.356600854788
 53
67.06200000000002
 43
12080.03811477332
 44
353.4478343318235
 45
10.95204222691618
 46
0.0000810236171289
 79
     2
 49
8.386475035331908
 49
-1593.356600854788
 53
67.06200000000002
 43
12080.03811477332
 44
316.5707357297481
 45
10.95204222691618
 46
0.0000810236171289
 79
     2
 49
8.386475035331908
 49
-1593.356600854788
 53
52.43499999999998
 43
12073.50983084504
 44
1770.516267978904
 45
10.95203172552474
 46
-0.000054871588512
 79
     2
 49
4.503300162712174
 49
-1809.889024393906
 53
52.43499999999998
 43
12073.50983084504
 44
1733.639300495405
 45
10.95203172552474
 46
-0.000054871588512
 79
     2
 49
4.503300162712174
 49
-1809.889024393906
 53
52.43499999999998
 43
12073.50983084504
 44
1696.76220189333
 45
10.95203172552474
 46
-0.000054871588512
 79
     2
 49
4.503300162712174
 49
-1809.889024393906
 53
52.43499999999998
 43
12073.50983084504
 44
1659.885103291254
 45
10.95203172552474
 46
-0.000054871588512
 79
     2
 49
4.503300162712174
 49
-1809.889024393906
 53
52.43499999999998
 43
12073.50983084504
 44
1623.008004689186
 45
10.95203172552474
 46
-0.000054871588512
 79
     2
 49
4.503300162712174
 49
-1809.889024393906
 53
52.43499999999998
 43
12073.50983084504
 44
1586.130906087118
 45
10.95203172552474
 46
-0.000054871588512
 79
     2
 49
4.503300162712174
 49
-1809.889024393906
 53
52.43499999999998
 43
12073.50983084504
 44
1549.253807485046
 45
10.95203172552474
 46
-0.000054871588512
 79
     2
 49
4.503300162712174
 49
-1809.889024393906
 53
52.43499999999998
 43
12073.50983084504
 44
1512.376708882975
 45
10.95203172552474
 46
-0.000054871588512
 79
     2
 49
4.503300162712174
 49
-1809.889024393906
 53
52.43499999999998
 43
12073.50983084504
 44
1475.499610280899
 45
10.95203172552474
 46
-0.000054871588512
 79
     2
 49
4.503300162712174
 49
-1809.889024393906
 53
52.43499999999998
 43
12073.50983084504
 44
1438.621200493098
 45
10.95203172552474
 46
-0.000054871588512
 79
     2
 49
4.503300162712174
 49
-1809.889024393906
 53
52.43499999999998
 43
12073.50983084504
 44
1401.744101891029
 45
10.95203172552474
 46
-0.000054871588512
 79
     2
 49
4.503300162712174
 49
-1809.889024393906
 53
52.43499999999998
 43
12073.50983084504
 44
1364.867003288961
 45
10.95203172552474
 46
-0.000054871588512
 79
     2
 49
4.503300162712174
 49
-1809.889024393906
 53
52.43499999999998
 43
12073.50983084504
 44
1327.989904686886
 45
10.95203172552474
 46
-0.000054871588512
 79
     2
 49
4.503300162712174
 49
-1809.889024393906
 53
52.43499999999998
 43
12073.50983084504
 44
1291.11280608481
 45
10.95203172552474
 46
-0.000054871588512
 79
     2
 49
4.503300162712174
 49
-1809.889024393906
 53
52.43499999999998
 43
12073.50983084504
 44
1254.235707482742
 45
10.95203172552474
 46
-0.000054871588512
 79
     2
 49
4.503300162712174
 49
-1809.889024393906
 53
52.43499999999998
 43
12073.50983084504
 44
1217.358608880674
 45
10.95203172552474
 46
-0.000054871588512
 79
     2
 49
4.503300162712174
 49
-1809.889024393906
 53
52.43499999999998
 43
12073.50983084504
 44
1180.481510278599
 45
10.95203172552474
 46
-0.000054871588512
 79
     2
 49
4.503300162712174
 49
-1809.889024393906
 53
52.43499999999998
 43
12073.50983084504
 44
1143.604411676531
 45
10.95203172552474
 46
-0.000054871588512
 79
     2
 49
4.503300162712174
 49
-1809.889024393906
 53
52.43499999999998
 43
12073.50983084504
 44
1106.727313074455
 45
10.95203172552474
 46
-0.000054871588512
 79
     2
 49
4.503300162712174
 49
-1809.889024393906
 53
52.43499999999998
 43
12073.50983084504
 44
1069.850214472387
 45
10.95203172552474
 46
-0.000054871588512
 79
     2
 49
4.503300162712174
 49
-1809.889024393906
 53
52.43499999999998
 43
12073.50983084504
 44
1032.973115870319
 45
10.95203172552474
 46
-0.000054871588512
 79
     2
 49
4.503300162712174
 49
-1809.889024393906
 53
52.43499999999998
 43
12073.50983084504
 44
996.0960172682437
 45
10.95203172552474
 46
-0.000054871588512
 79
     2
 49
4.503300162712174
 49
-1809.889024393906
 53
52.43499999999998
 43
12073.50983084504
 44
959.2189186661682
 45
10.95203172552474
 46
-0.000054871588512
 79
     2
 49
4.503300162712174
 49
-1809.889024393906
 53
52.43499999999998
 43
12073.50983084504
 44
922.3418200641001
 45
10.95203172552474
 46
-0.000054871588512
 79
     2
 49
4.503300162712174
 49
-1809.889024393906
 53
52.43499999999998
 43
12073.50983084504
 44
885.4647214620246
 45
10.95203172552474
 46
-0.000054871588512
 79
     2
 49
4.503300162712174
 49
-1809.889024393906
 53
52.43499999999998
 43
12073.50983084504
 44
848.5876228599565
 45
10.95203172552474
 46
-0.000054871588512
 79
     2
 49
4.503300162712174
 49
-1809.889024393906
 53
52.43499999999998
 43
12073.50983084504
 44
811.7105242578812
 45
10.95203172552474
 46
-0.000054871588512
 79
     2
 49
4.503300162712174
 49
-1809.889024393906
 53
52.43499999999998
 43
12073.50983084504
 44
774.833425655813
 45
10.95203172552474
 46
-0.000054871588512
 79
     2
 49
4.503300162712174
 49
-1809.889024393906
 53
52.43499999999998
 43
12073.50983084504
 44
737.9563270537412
 45
10.95203172552474
 46
-0.000054871588512
 79
     2
 49
4.503300162712174
 49
-1809.889024393906
 53
52.43499999999998
 43
12073.50983084504
 44
701.0792284516695
 45
10.95203172552474
 46
-0.000054871588512
 79
     2
 49
4.503300162712174
 49
-1809.889024393906
 53
52.43499999999998
 43
12073.50983084504
 44
664.2021298495976
 45
10.95203172552474
 46
-0.000054871588512
 79
     2
 49
4.503300162712174
 49
-1809.889024393906
 53
52.43499999999998
 43
12073.50983084504
 44
627.3250312475258
 45
10.95203172552474
 46
-0.000054871588512
 79
     2
 49
4.503300162712174
 49
-1809.889024393906
 53
52.43499999999998
 43
12073.50983084504
 44
590.4479326454577
 45
10.95203172552474
 46
-0.000054871588512
 79
     2
 49
4.503300162712174
 49
-1809.889024393906
 53
52.43499999999998
 43
12073.50983084504
 44
553.5708340433822
 45
10.95203172552474
 46
-0.000054871588512
 79
     2
 49
4.503300162712174
 49
-1809.889024393906
 53
52.43499999999998
 43
12073.50983084504
 44
516.6937354413142
 45
10.95203172552474
 46
-0.000054871588512
 79
     2
 49
4.503300162712174
 49
-1809.889024393906
 53
52.43499999999998
 43
12073.50983084504
 44
479.8166368392387
 45
10.95203172552474
 46
-0.000054871588512
 79
     2
 49
4.503300162712174
 49
-1809.889024393906
 53
52.43499999999998
 43
12073.50983084504
 44
442.9395382371669
 45
10.95203172552474
 46
-0.000054871588512
 79
     2
 49
4.503300162712174
 49
-1809.889024393906
 53
52.43499999999998
 43
12073.50983084504
 44
406.0624396350951
 45
10.95203172552474
 46
-0.000054871588512
 79
     2
 49
4.503300162712174
 49
-1809.889024393906
 53
52.43499999999998
 43
12073.50983084504
 44
369.1853410330271
 45
10.95203172552474
 46
-0.000054871588512
 79
     2
 49
4.503300162712174
 49
-1809.889024393906
 53
25.04599999999999
 43
12073.36326158741
 44
1741.954184789983
 45
10.95203652759968
 46
0.0000881814618674
 79
     2
 49
4.636287175181982
 49
-2957.102061108969
 53
25.04599999999999
 43
12073.36326158741
 44
1705.077086187911
 45
10.95203652759968
 46
0.0000881814618674
 79
     2
 49
4.636287175181982
 49
-2957.102061108969
 53
25.04599999999999
 43
12073.36326158741
 44
1668.199987585836
 45
10.95203652759968
 46
0.0000881814618674
 79
     2
 49
4.636287175181982
 49
-2957.102061108969
 53
25.04599999999999
 43
12073.36326158741
 44
1631.322888983768
 45
10.95203652759968
 46
0.0000881814618674
 79
     2
 49
4.636287175181982
 49
-2957.102061108969
 53
25.04599999999999
 43
12073.36326158741
 44
1594.445790381692
 45
10.95203652759968
 46
0.0000881814618674
 79
     2
 49
4.636287175181982
 49
-2957.102061108969
 53
25.04599999999999
 43
12073.36326158741
 44
1557.568691779624
 45
10.95203652759968
 46
0.0000881814618674
 79
     2
 49
4.636287175181982
 49
-2957.102061108969
 53
25.04599999999999
 43
12073.36326158741
 44
1520.691593177552
 45
10.95203652759968
 46
0.0000881814618674
 79
     2
 49
4.636287175181982
 49
-2957.102061108969
 53
25.04599999999999
 43
12073.36326158741
 44
1483.81449457548
 45
10.95203652759968
 46
0.0000881814618674
 79
     2
 49
4.636287175181982
 49
-2957.102061108969
 53
25.04599999999999
 43
12073.36326158741
 44
1446.937395973405
 45
10.95203652759968
 46
0.0000881814618674
 79
     2
 49
4.636287175181982
 49
-2957.102061108969
 53
25.04599999999999
 43
12073.36326158741
 44
1410.060297371337
 45
10.95203652759968
 46
0.0000881814618674
 79
     2
 49
4.636287175181982
 49
-2957.102061108969
 53
25.04599999999999
 43
12073.36326158741
 44
1373.183198769261
 45
10.95203652759968
 46
0.0000881814618674
 79
     2
 49
4.636287175181982
 49
-2957.102061108969
 53
25.04599999999999
 43
12073.36326158741
 44
1336.306100167193
 45
10.95203652759968
 46
0.0000881814618674
 79
     2
 49
4.636287175181982
 49
-2957.102061108969
 53
25.04599999999999
 43
12073.36326158741
 44
1299.429001565125
 45
10.95203652759968
 46
0.0000881814618674
 79
     2
 49
4.636287175181982
 49
-2957.102061108969
 53
25.04599999999999
 43
12073.36326158741
 44
1262.55190296305
 45
10.95203652759968
 46
0.0000881814618674
 79
     2
 49
4.636287175181982
 49
-2957.102061108969
 53
25.04599999999999
 43
12073.36326158741
 44
1225.674804360981
 45
10.95203652759968
 46
0.0000881814618674
 79
     2
 49
4.636287175181982
 49
-2957.102061108969
 53
25.04599999999999
 43
12073.36326158741
 44
1188.797705758906
 45
10.95203652759968
 46
0.0000881814618674
 79
     2
 49
4.636287175181982
 49
-2957.102061108969
 53
25.04599999999999
 43
12073.36326158741
 44
1151.920607156831
 45
10.95203652759968
 46
0.0000881814618674
 79
     2
 49
4.636287175181982
 49
-2957.102061108969
 53
25.04599999999999
 43
12073.36326158741
 44
1115.043508554762
 45
10.95203652759968
 46
0.0000881814618674
 79
     2
 49
4.636287175181982
 49
-2957.102061108969
 53
25.04599999999999
 43
12073.36326158741
 44
1078.166409952694
 45
10.95203652759968
 46
0.0000881814618674
 79
     2
 49
4.636287175181982
 49
-2957.102061108969
 53
25.04599999999999
 43
12073.36326158741
 44
1041.289311350619
 45
10.95203652759968
 46
0.0000881814618674
 79
     2
 49
4.636287175181982
 49
-2957.102061108969
 53
25.04599999999999
 43
12073.36326158741
 44
1004.412212748551
 45
10.95203652759968
 46
0.0000881814618674
 79
     2
 49
4.636287175181982
 49
-2957.102061108969
 53
25.04599999999999
 43
12073.36326158741
 44
967.5351141464755
 45
10.95203652759968
 46
0.0000881814618674
 79
     2
 49
4.636287175181982
 49
-2957.102061108969
 53
25.04599999999999
 43
12073.36326158741
 44
930.6580155444036
 45
10.95203652759968
 46
0.0000881814618674
 79
     2
 49
4.636287175181982
 49
-2957.102061108969
 53
25.04599999999999
 43
12073.36326158741
 44
893.7809169423356
 45
10.95203652759968
 46
0.0000881814618674
 79
     2
 49
4.636287175181982
 49
-2957.102061108969
 53
25.04599999999999
 43
12073.36326158741
 44
856.9038183402637
 45
10.95203652759968
 46
0.0000881814618674
 79
     2
 49
4.636287175181982
 49
-2957.102061108969
 53
25.04599999999999
 43
12073.36326158741
 44
820.0267197381883
 45
10.95203652759968
 46
0.0000881814618674
 79
     2
 49
4.636287175181982
 49
-2957.102061108969
 53
25.04599999999999
 43
12073.36326158741
 44
783.1496211361202
 45
10.95203652759968
 46
0.0000881814618674
 79
     2
 49
4.636287175181982
 49
-2957.102061108969
 53
25.04599999999999
 43
12073.36326158741
 44
746.2725225340484
 45
10.95203652759968
 46
0.0000881814618674
 79
     2
 49
4.636287175181982
 49
-2957.102061108969
 53
25.04599999999999
 43
12073.36326158741
 44
709.3954239319766
 45
10.95203652759968
 46
0.0000881814618674
 79
     2
 49
4.636287175181982
 49
-2957.102061108969
 53
25.04599999999999
 43
12073.36326158741
 44
672.5183253299012
 45
10.95203652759968
 46
0.0000881814618674
 79
     2
 49
4.636287175181982
 49
-2957.102061108969
 53
25.04599999999999
 43
12073.36326158741
 44
635.641226727833
 45
10.95203652759968
 46
0.0000881814618674
 79
     2
 49
4.636287175181982
 49
-2957.102061108969
 53
25.04599999999999
 43
12073.36326158741
 44
598.7641281257613
 45
10.95203652759968
 46
0.0000881814618674
 79
     2
 49
4.636287175181982
 49
-2957.102061108969
 53
25.04599999999999
 43
12073.36326158741
 44
561.8870295236895
 45
10.95203652759968
 46
0.0000881814618674
 79
     2
 49
4.636287175181982
 49
-2957.102061108969
 53
25.04599999999999
 43
12073.36326158741
 44
525.0099309216177
 45
10.95203652759968
 46
0.0000881814618674
 79
     2
 49
4.636287175181982
 49
-2957.102061108969
 53
14.07599999999998
 43
12076.25533739189
 44
1774.08584000501
 45
10.95202660951167
 46
-0.0000805056871684
 79
     2
 49
2.663936043727242
 49
-1058.697838380728
 53
14.07599999999998
 43
12076.25533739189
 44
1737.20867584365
 45
10.95202660951167
 46
-0.0000805056871684
 79
     2
 49
2.663936043727242
 49
-1058.697838380728
 53
14.07599999999998
 43
12076.25533739189
 44
1700.331577241578
 45
10.95202660951167
 46
-0.0000805056871684
 79
     2
 49
2.663936043727242
 49
-1058.697838380728
 53
14.07599999999998
 43
12076.25533739189
 44
1663.45447863951
 45
10.95202660951167
 46
-0.0000805056871684
 79
     2
 49
2.663936043727242
 49
-1058.697838380728
 53
14.07599999999998
 43
12076.25533739189
 44
1626.577380037435
 45
10.95202660951167
 46
-0.0000805056871684
 79
     2
 49
2.663936043727242
 49
-1058.697838380728
 53
14.07599999999998
 43
12076.25533739189
 44
1589.700281435359
 45
10.95202660951167
 46
-0.0000805056871684
 79
     2
 49
2.663936043727242
 49
-1058.697838380728
 53
14.07599999999998
 43
12076.25533739189
 44
1552.823182833291
 45
10.95202660951167
 46
-0.0000805056871684
 79
     2
 49
2.663936043727242
 49
-1058.697838380728
 98
        1
 10
1598.097791606554
 20
611.221221602301
  0
LWPOLYLINE
  5
79B4
330
67
100
AcDbEntity
  8
F_01 sichtbar
370
    13
100
AcDbPolyline
 90
       28
 70
     1
 43
0.0
 10
456.8858383105334
 20
337.5031453324384
 10
453.7582647652825
 20
337.5031450036634
 42
0.3394542588633794
 10
453.661672190451
 20
337.4290268980197
 10
453.6210072163312
 20
337.2772630847223
 42
-0.3394542588633798
 10
453.5244146414997
 20
337.2031449790786
 10
453.4778800390931
 20
337.2031449741892
 42
-0.3394542588633751
 10
453.3812874486693
 20
337.2772630595257
 10
453.3406224426516
 20
337.4290268642701
 42
0.3394542588633729
 10
453.2440298522351
 20
337.5031449496066
 10
453.1207625510297
 20
337.5031449366482
 10
452.9974952498242
 20
337.5031449236896
 42
0.3394542588633786
 10
452.9009026749927
 20
337.4290268180459
 10
452.8602377008728
 20
337.2772630047523
 42
-0.3394542588633769
 10
452.7636451260414
 20
337.2031448991086
 10
452.7171105236347
 20
337.2031448942155
 42
-0.3394542588633807
 10
452.620517933211
 20
337.277262979552
 10
452.5798529271932
 20
337.4290267842964
 42
0.3394542588633759
 10
452.4832603367768
 20
337.5031448696329
 10
449.3556867915185
 20
337.5031445408579
 42
0.6681786379192993
 10
449.1789101410914
 20
337.0763678269771
 10
451.3531860472149
 20
334.9020923779765
 42
-0.3679559611094144
 10
451.8184806747531
 20
334.4508626026156
 10
452.2707628243451
 20
334.9031448472936
 10
453.1207628243437
 20
334.9031449366496
 10
453.9707628243422
 20
334.903145026002
 10
454.3593667621252
 20
334.5145411699207
 42
0.4142135623730948
 10
454.5007881183637
 20
334.5145411847854
 10
457.062615050695
 20
337.0763686557232
 42
0.6681786379192982
  0
POLYLINE
  5
79B5
330
67
100
AcDbEntity
  8
F_31 Ansichtsfenster
370
    13
100
AcDb2dPolyline
 66
     1
 10
0.0
 20
0.0
 30
0.0
  0
VERTEX
  5
79B6
330
79B5
100
AcDbEntity
  8
F_31 Ansichtsfenster
370
    13
100
AcDbVertex
100
AcDb2dVertex
 10
665.4631121400025
 20
283.0031432029585
 30
0.0
  0
VERTEX
  5
79B7
330
79B5
100
AcDbEntity
  8
F_31 Ansichtsfenster
370
    13
100
AcDbVertex
100
AcDb2dVertex
 10
665.4631121400025
 20
611.0031433606575
 30
0.0
  0
SEQEND
  5
79B8
330
79B5
100
AcDbEntity
  8
F_31 Ansichtsfenster
370
    13
  0
LWPOLYLINE
  5
79B9
330
67
100
AcDbEntity
  8
F_01 sichtbar
370
    13
100
AcDbPolyline
 90
       10
 70
     1
 43
0.0
 10
446.1207528789464
 20
298.0031427235165
 10
446.1207539917896
 20
338.5031440431169
 10
451.1207539917895
 20
338.5031445687248
 10
451.1207531508198
 20
346.5031445687248
 10
455.1207531508198
 20
346.5031449892097
 10
455.1207539917895
 20
338.5031449892097
 10
459.1207539917895
 20
338.5031454096945
 10
459.1217709356069
 20
611.0031433606612
 10
434.1207267641448
 20
611.0031433606612
 10
434.1207554380971
 20
298.0031432029584
  0
LWPOLYLINE
  5
79BA
330
67
100
AcDbEntity
  8
F_01 sichtbar
370
    13
100
AcDbPolyline
 90
        7
 70
     0
 43
0.0
 10
665.4631121400025
 20
298.0031790476762
 10
448.6050057205875
 20
298.0031790476762
 10
448.6050057205875
 20
303.0031790476762
 10
450.2050057205788
 20
334.5031790476762
 10
467.6050057205875
 20
334.5031790476762
 10
467.6050101882437
 20
340.0029309954746
 10
665.4631121400025
 20
340.002931143573
  0
LWPOLYLINE
  5
79BB
330
67
100
AcDbEntity
  8
F_01 sichtbar
370
    13
100
AcDbPolyline
 90
        4
 70
     1
 43
0.0
 10
429.1207662987954
 20
320.0031432029584
 10
429.1207681766472
 20
298.0031432029584
 10
374.1207681766473
 20
298.0031432029584
 10
374.1207681766473
 20
320.0031432029584
  0
POLYLINE
  5
79BC
330
67
100
AcDbEntity
  8
F_01 sichtbar
370
    13
100
AcDb2dPolyline
 66
     1
 10
0.0
 20
0.0
 30
0.0
  0
VERTEX
  5
79BD
330
79BC
100
AcDbEntity
  8
F_01 sichtbar
370
    13
100
AcDbVertex
100
AcDb2dVertex
 10
429.1207662987954
 20
320.0031427235165
 30
0.0
  0
VERTEX
  5
79BE
330
79BC
100
AcDbEntity
  8
F_01 sichtbar
370
    13
100
AcDbVertex
100
AcDb2dVertex
 10
374.1207681348687
 20
298.0031432029584
 30
0.0
  0
SEQEND
  5
79BF
330
79BC
100
AcDbEntity
  8
F_01 sichtbar
370
    13
  0
POLYLINE
  5
79C0
330
67
100
AcDbEntity
  8
F_01 sichtbar
370
    13
100
AcDb2dPolyline
 66
     1
 10
0.0
 20
0.0
 30
0.0
  0
VERTEX
  5
79C1
330
79C0
100
AcDbEntity
  8
F_01 sichtbar
370
    13
100
AcDbVertex
100
AcDb2dVertex
 10
374.1207681766473
 20
320.0031432029584
 30
0.0
  0
VERTEX
  5
79C2
330
79C0
100
AcDbEntity
  8
F_01 sichtbar
370
    13
100
AcDbVertex
100
AcDb2dVertex
 10
429.1207681766472
 20
298.0031432029584
 30
0.0
  0
SEQEND
  5
79C3
330
79C0
100
AcDbEntity
  8
F_01 sichtbar
370
    13
  0
POLYLINE
  5
79C4
330
67
100
AcDbEntity
  8
F_01 sichtbar
370
    13
100
AcDb2dPolyline
 66
     1
 10
0.0
 20
0.0
 30
0.0
  0
VERTEX
  5
79C5
330
79C4
100
AcDbEntity
  8
F_01 sichtbar
370
    13
100
AcDbVertex
100
AcDb2dVertex
 10
267.17711493357
 20
298.0031432029584
 30
0.0
  0
VERTEX
  5
79C6
330
79C4
100
AcDbEntity
  8
F_01 sichtbar
370
    13
100
AcDbVertex
100
AcDb2dVertex
 10
431.1207547150197
 20
298.0031432029584
 30
0.0
  0
VERTEX
  5
79C7
330
79C4
100
AcDbEntity
  8
F_01 sichtbar
370
    13
100
AcDbVertex
100
AcDb2dVertex
 10
446.1207528789464
 20
298.0031427235165
 30
0.0
  0
VERTEX
  5
79C8
330
79C4
100
AcDbEntity
  8
F_01 sichtbar
370
    13
100
AcDbVertex
100
AcDb2dVertex
 10
446.1207528789464
 20
298.0031427235165
 30
0.0
  0
VERTEX
  5
79C9
330
79C4
100
AcDbEntity
  8
F_01 sichtbar
370
    13
100
AcDbVertex
100
AcDb2dVertex
 10
446.1207546829618
 20
283.0031162244352
 30
0.0
  0
VERTEX
  5
79CA
330
79C4
100
AcDbEntity
  8
F_01 sichtbar
370
    13
100
AcDbVertex
100
AcDb2dVertex
 10
267.17711493357
 20
283.0031432029585
 30
0.0
  0
SEQEND
  5
79CB
330
79C4
100
AcDbEntity
  8
F_01 sichtbar
370
    13
  0
POLYLINE
  5
79CC
330
67
100
AcDbEntity
  8
F_01 sichtbar
370
    13
100
AcDb2dPolyline
 66
     1
 10
0.0
 20
0.0
 30
0.0
  0
VERTEX
  5
79CD
330
79CC
100
AcDbEntity
  8
F_01 sichtbar
370
    13
100
AcDbVertex
100
AcDb2dVertex
 10
665.4631121400025
 20
283.0031432029585
 30
0.0
  0
VERTEX
  5
79CE
330
79CC
100
AcDbEntity
  8
F_01 sichtbar
370
    13
100
AcDbVertex
100
AcDb2dVertex
 10
448.6207547150197
 20
283.0031432029585
 30
0.0
  0
VERTEX
  5
79CF
330
79CC
100
AcDbEntity
  8
F_01 sichtbar
370
    13
100
AcDbVertex
100
AcDb2dVertex
 10
448.6207547150197
 20
298.0031790476762
 30
0.0
  0
VERTEX
  5
79D0
330
79CC
100
AcDbEntity
  8
F_01 sichtbar
370
    13
100
AcDbVertex
100
AcDb2dVertex
 10
448.6210235455883
 20
298.0031432029584
 30
0.0
  0
VERTEX
  5
79D1
330
79CC
100
AcDbEntity
  8
F_01 sichtbar
370
    13
100
AcDbVertex
100
AcDb2dVertex
 10
448.6210235455883
 20
298.0031432029584
 30
0.0
  0
VERTEX
  5
79D2
330
79CC
100
AcDbEntity
  8
F_01 sichtbar
370
    13
100
AcDbVertex
100
AcDb2dVertex
 10
665.4631121400025
 20
298.0031432029584
 30
0.0
  0
SEQEND
  5
79D3
330
79CC
100
AcDbEntity
  8
F_01 sichtbar
370
    13
  0
LINE
  5
79D4
330
67
100
AcDbEntity
  8
F_01 sichtbar
370
    13
100
AcDbLine
 10
544.7532205351608
 20
268.0031432029584
 30
0.0
 11
544.7532205351608
 21
234.6802480211056
 31
0.0
  0
SOLID
  5
79D5
330
67
100
AcDbEntity
  8
F_01 sichtbar
370
    13
100
AcDbTrace
 10
542.2532205351608
 20
268.0031432029584
 30
0.0
 11
547.2532205351608
 21
268.0031432029584
 31
0.0
 12
544.7532205351608
 22
283.0031432029585
 32
0.0
 13
544.7532205351608
 23
283.0031432029585
 33
0.0
  0
LINE
  5
79D6
330
67
100
AcDbEntity
  8
F_01 sichtbar
370
    13
100
AcDbLine
 10
544.7532205351608
 20
313.0031790476762
 30
0.0
 11
544.7532205351608
 21
346.3260742295254
 31
0.0
  0
SOLID
  5
79D7
330
67
100
AcDbEntity
  8
F_01 sichtbar
370
    13
100
AcDbTrace
 10
542.2532205351608
 20
313.0031790476762
 30
0.0
 11
547.2532205351608
 21
313.0031790476762
 31
0.0
 12
544.7532205351608
 22
298.0031790476762
 32
0.0
 13
544.7532205351608
 23
298.0031790476762
 33
0.0
  0
LINE
  5
79D8
330
67
100
AcDbEntity
  8
F_01 sichtbar
370
    13
100
AcDbLine
 10
363.8921689479694
 20
603.5031433606575
 30
0.0
 11
363.8921689479694
 21
290.5031432029548
 31
0.0
  0
SOLID
  5
79D9
330
67
100
AcDbEntity
  8
F_01 sichtbar
370
    13
100
AcDbTrace
 10
361.3921689479694
 20
298.0031432029548
 30
0.0
 11
366.3921689479693
 21
298.0031432029548
 31
0.0
 12
363.8921689479694
 22
283.0031432029548
 32
0.0
 13
363.8921689479694
 23
283.0031432029548
 33
0.0
  0
SOLID
  5
79DA
330
67
100
AcDbEntity
  8
F_01 sichtbar
370
    13
100
AcDbTrace
 10
361.3921689479694
 20
596.0031433606575
 30
0.0
 11
366.3921689479693
 21
596.0031433606575
 31
0.0
 12
363.8921689479694
 22
611.0031433606575
 32
0.0
 13
363.8921689479694
 23
611.0031433606575
 33
0.0
  0
TEXT
  5
79DB
330
67
100
AcDbEntity
  8
F_01 sichtbar
370
    13
100
AcDbText
 10
358.8921689479694
 20
207.736130305828
 30
0.0
 40
15.0
  1
RH
 50
90.0
  7
Arial
100
AcDbText
  0
LINE
  5
79DC
330
67
100
AcDbEntity
  8
F_01 sichtbar
370
    13
100
AcDbLine
 10
314.8036866806588
 20
603.5031433606575
 30
0.0
 11
314.8036866806588
 21
88.91512693713616
 31
0.0
  0
SOLID
  5
79DD
330
67
100
AcDbEntity
  8
F_01 sichtbar
370
    13
100
AcDbTrace
 10
312.3036866806588
 20
596.0031433606575
 30
0.0
 11
317.3036866806588
 21
596.0031433606575
 31
0.0
 12
314.8036866806588
 22
611.0031433606575
 32
0.0
 13
314.8036866806588
 23
611.0031433606575
 33
0.0
  0
LINE
  5
79DE
330
67
100
AcDbEntity
  8
F_01 sichtbar
370
    13
100
AcDbLine
 10
363.8921689479694
 20
275.5031432029548
 30
0.0
 11
363.8921689479694
 21
88.91512693713616
 31
0.0
  0
TEXT
  5
79DF
330
67
100
AcDbEntity
  8
F_01 sichtbar
370
    13
100
AcDbText
 10
309.4199895455977
 20
213.7188226726942
 30
0.0
 40
15.0
  1
C
 50
90.0
  7
Arial
100
AcDbText
  0
SOLID
  5
79E0
330
67
100
AcDbEntity
  8
F_01 sichtbar
370
    13
100
AcDbTrace
 10
361.3921689479694
 20
268.0031432029548
 30
0.0
 11
366.3921689479693
 21
268.0031432029548
 31
0.0
 12
363.8921689479694
 22
283.0031432029548
 32
0.0
 13
363.8921689479694
 23
283.0031432029548
 33
0.0
  0
TEXT
  5
79E1
330
67
100
AcDbEntity
  8
F_01 sichtbar
370
    13
100
AcDbText
 10
358.8921689479694
 20
444.1859535713095
 30
0.0
 40
15.0
  1
D
 50
90.0
  7
Arial
100
AcDbText
  0
HATCH
  5
79E2
330
67
100
AcDbEntity
  8
F_01 sichtbar
370
    13
100
AcDbHatch
 10
0.0
 20
0.0
 30
0.0
210
0.0
220
0.0
230
1.0
  2
HEX
 70
     0
 71
     0
 91
        1
 92
        7
 72
     0
 73
     1
 93
        4
 10
429.1207674974075
 20
611.0031433606575
 10
267.17711493357
 20
611.0031433606575
 10
267.17711493357
 20
521.0031433606575
 10
429.1207674974002
 20
521.0031433606575
 97
        0
 75
     0
 76
     1
 52
0.0
 41
2.0
 77
     0
 78
     3
 53
0.0
 43
-36105.21488649494
 44
-14113.04525087429
 45
0.0
 46
10.99852
 79
     2
 49
6.349999999999999
 49
-12.7
 53
120.0
 43
-36105.21488649494
 44
-14113.04525087429
 45
-9.524997724031223
 46
-5.499259999999996
 79
     2
 49
6.349999999999994
 49
-12.69999999999999
 53
60.0
 43
-36098.86488649495
 44
-14113.04525087429
 45
-9.524997724031223
 46
5.49926
 79
     2
 49
6.349999999999999
 49
-12.7
 47
0.536036505142345
 98
        1
 10
351.3728481520093
 20
565.4221678886144
1001
ACAD
1010
0.0
1020
0.0
1030
0.0
  0
HATCH
  5
79E3
330
67
100
AcDbEntity
  8
F_01 sichtbar
370
    13
100
AcDbHatch
 10
0.0
 20
0.0
 30
0.0
210
0.0
220
0.0
230
1.0
  2
JIS_WOOD
 70
     0
 71
     0
 91
        1
 92
        1
 93
        4
 72
     1
 10
446.1207546829618
 20
283.0031162244352
 11
446.1207528789464
 21
298.0031427235183
 72
     1
 10
446.1207528789464
 20
298.0031427235165
 11
267.17711493357
 21
298.0031432029566
 72
     1
 10
267.17711493357
 20
298.0031432029584
 11
267.17711493357
 21
283.0031432029585
 72
     1
 10
267.17711493357
 20
283.0031432029585
 11
446.1207546829618
 21
283.0031162244352
 97
        0
 75
     0
 76
     1
 52
0.0
 41
20.0
 77
     0
 78
     1
 53
45.0
 43
-36105.21488649494
 44
-14113.04525087429
 45
-9.999999983219684
 46
9.999999983219684
 79
     0
 98
        3
 10
-36105.21488649494
 20
-14113.04525087429
 10
343.7528127196793
 20
289.0221458787575
 10
315.8835252364088
 20
288.3961958765915
1001
ACAD
1010
0.0
1020
0.0
1030
0.0
  0
HATCH
  5
79E4
330
67
100
AcDbEntity
  8
F_01 sichtbar
370
    13
100
AcDbHatch
 10
0.0
 20
0.0
 30
0.0
210
0.0
220
0.0
230
1.0
  2
JIS_WOOD
 70
     0
 71
     0
 91
        1
 92
        1
 93
        4
 72
     1
 10
665.4631121400025
 20
283.0031432029585
 11
665.4631121400025
 21
298.0031427235165
 72
     1
 10
665.4631121400025
 20
298.0031427235165
 11
448.6210235455883
 21
298.0031432029566
 72
     1
 10
448.6210235455883
 20
298.0031432029584
 11
448.6210235455883
 21
283.0031432029585
 72
     1
 10
448.6210235455883
 20
283.0031432029585
 11
665.4631121400025
 21
283.0031432029603
 97
        0
 75
     0
 76
     1
 52
0.0
 41
20.0
 77
     0
 78
     1
 53
45.0
 43
-36105.21488649494
 44
-14113.04525087429
 45
-9.999999983219684
 46
9.999999983219684
 79
     0
 98
        2
 10
525.1967213316975
 20
289.0221458787575
 10
497.327433848427
 20
288.3961958765915
1001
ACAD
1010
0.0
1020
0.0
1030
0.0
  0
TEXT
  5
79E5
330
67
100
AcDbEntity
  8
F_01 sichtbar
370
    13
100
AcDbText
 10
539.7532205351608
 20
246.4552646807472
 30
0.0
 40
15.0
  1
Z
 50
90.0
  7
Arial
100
AcDbText
  0
MTEXT
  5
79E6
330
67
100
AcDbEntity
  8
F_01 sichtbar
370
    13
100
AcDbMText
 10
317.17711493357
 20
711.0031433606575
 30
0.0
 40
30.0
 41
187.1747820159653
 71
     1
 72
     5
  1
\A1;{\fArial Narrow|b1|i0|c0|p34;H}
 73
     1
 44
1.0
  0
ENDSEC
  0
SECTION
  2
OBJECTS
  0
DICTIONARY
  5
C
330
0
100
AcDbDictionary
281
     1
  3
ACAD_2007HEADERVARS_RT
350
79F3
  3
ACAD_COLOR
350
5E
  3
ACAD_GROUP
350
D
  3
ACAD_LAYOUT
350
5D
  3
ACAD_MATERIAL
350
10
  3
ACAD_MLEADERSTYLE
350
61
  3
ACAD_MLINESTYLE
350
5A
  3
ACAD_PLOTSETTINGS
350
5C
  3
ACAD_PLOTSTYLENAME
350
E
  3
ACAD_SCALELIST
350
3D
  3
ACAD_TABLESTYLE
350
5F
  3
ACAD_VISUALSTYLE
350
29
  3
ACDB_RECOMPOSE_DATA
350
79F2
  3
AcDbVariableDictionary
350
79E7
  3
AEC_PROPERTY_SET_DEFS
350
798D
  0
DICTIONARY
  5
792E
330
2
100
AcDbDictionary
280
     1
281
     1
  3
ACAD_LAYERSTATES
360
792F
  0
DICTIONARY
  5
7919
330
7918
100
AcDbDictionary
280
     1
281
     1
  3
ACAD_SORTENTS
360
791A
  0
DICTIONARY
  5
79F3
102
{ACAD_REACTORS
330
C
102
}
330
C
100
AcDbDictionary
281
     1
  3
DIMJOGANG
350
79F4
  0
DICTIONARY
  5
5E
102
{ACAD_REACTORS
330
C
102
}
330
C
100
AcDbDictionary
281
     1
  0
DICTIONARY
  5
D
102
{ACAD_REACTORS
330
C
102
}
330
C
100
AcDbDictionary
281
     1
  0
DICTIONARY
  5
5D
102
{ACAD_REACTORS
330
C
102
}
330
C
100
AcDbDictionary
281
     1
  3
Layout1
350
66
  3
Layout2
350
6E
  3
Model
350
6A
  0
DICTIONARY
  5
10
102
{ACAD_REACTORS
330
C
102
}
330
C
100
AcDbDictionary
281
     1
  3
ByBlock
350
19
  3
ByLayer
350
11
  3
Global
350
21
  0
DICTIONARY
  5
61
102
{ACAD_REACTORS
330
C
102
}
330
C
100
AcDbDictionary
281
     1
  3
Standard
350
62
  0
DICTIONARY
  5
5A
102
{ACAD_REACTORS
330
C
102
}
330
C
100
AcDbDictionary
281
     1
  3
Standard
350
5B
  0
DICTIONARY
  5
5C
102
{ACAD_REACTORS
330
C
102
}
330
C
100
AcDbDictionary
281
     1
  0
ACDBDICTIONARYWDFLT
  5
E
102
{ACAD_REACTORS
330
C
102
}
330
C
100
AcDbDictionary
281
     1
  3
Normal
350
F
100
AcDbDictionaryWithDefault
340
F
  0
DICTIONARY
  5
3D
102
{ACAD_REACTORS
330
C
102
}
330
C
100
AcDbDictionary
281
     1
  3
A0
350
3E
  3
A1
350
3F
  3
A2
350
40
  3
A3
350
41
  3
A4
350
42
  3
A5
350
43
  3
A6
350
44
  3
A7
350
45
  3
A8
350
46
  3
A9
350
47
  3
B0
350
48
  3
B1
350
49
  3
B2
350
4A
  3
B3
350
4B
  3
B4
350
4C
  3
B5
350
4D
  3
B6
350
4E
  0
DICTIONARY
  5
5F
102
{ACAD_REACTORS
330
C
102
}
330
C
100
AcDbDictionary
281
     1
  3
Standard
350
60
  0
DICTIONARY
  5
29
102
{ACAD_REACTORS
330
C
102
}
330
C
100
AcDbDictionary
281
     1
  3
2dWireframe
350
2F
  3
3D Hidden
350
31
  3
3dWireframe
350
30
  3
Basic
350
2E
  3
Brighten
350
35
  3
ColorChange
350
39
  3
Conceptual
350
32
  3
Dim
350
34
  3
EdgeColorOff
350
3C
  3
Facepattern
350
38
  3
Flat
350
2A
  3
FlatWithEdges
350
2B
  3
Gouraud
350
2C
  3
GouraudWithEdges
350
2D
  3
JitterOff
350
3A
  3
Linepattern
350
37
  3
OverhangOff
350
3B
  3
Realistic
350
33
  3
Thicken
350
36
  0
XRECORD
  5
79F2
102
{ACAD_REACTORS
330
C
102
}
330
C
100
AcDbXrecord
280
     1
 90
        1
330
60
  0
DICTIONARY
  5
79E7
102
{ACAD_REACTORS
330
C
102
}
330
C
100
AcDbDictionary
281
     1
  3
CANNOSCALE
350
79EB
  3
CMLEADERSTYLE
350
79E9
  3
CTABLESTYLE
350
79E8
  3
LAYEREVAL
350
79ED
  3
LAYERNOTIFY
350
79EE
  3
LIGHTINGUNITS
350
79EC
  3
MSLTSCALE
350
79EA
  3
XCLIPFRAME
350
79EF
  0
DICTIONARY
  5
798D
102
{ACAD_REACTORS
330
C
102
}
330
C
100
AcDbDictionary
281
     1
  0
DICTIONARY
  5
792F
102
{ACAD_REACTORS
330
792E
102
}
330
792E
100
AcDbDictionary
281
     1
  0
SORTENTSTABLE
  5
791A
102
{ACAD_REACTORS
330
7919
102
}
330
7919
100
AcDbSortentsTable
330
7918
  0
XRECORD
  5
79F4
102
{ACAD_REACTORS
330
79F3
102
}
330
79F3
100
AcDbXrecord
280
     1
 40
1.570796326794896
  0
LAYOUT
  5
66
102
{ACAD_REACTORS
330
5D
102
}
330
5D
100
AcDbPlotSettings
  1

  2
HP Deskjet 1280 series
  4

  6

 40
0.0
 41
0.0
 42
0.0
 43
0.0
 44
0.0
 45
0.0
 46
0.0
 47
0.0
 48
0.0
 49
0.0
140
0.0
141
0.0
142
1.0
143
1.0
 70
   688
 72
     0
 73
     0
 74
     5
  7

 75
    16
147
1.0
 76
     0
 77
     2
 78
   300
148
0.0
149
0.0
100
AcDbLayout
  1
Layout1
 70
     1
 71
     1
 10
0.0
 20
0.0
 11
420.0
 21
297.0
 12
0.0
 22
0.0
 32
0.0
 14
1.000000000000000E+20
 24
1.000000000000000E+20
 34
1.000000000000000E+20
 15
-1.000000000000000E+20
 25
-1.000000000000000E+20
 35
-1.000000000000000E+20
146
0.0
 13
0.0
 23
0.0
 33
0.0
 16
1.0
 26
0.0
 36
0.0
 17
0.0
 27
1.0
 37
0.0
 76
     0
330
63
  0
LAYOUT
  5
6E
102
{ACAD_REACTORS
330
5D
102
}
330
5D
100
AcDbPlotSettings
  1

  2
HP Deskjet 1280 series
  4

  6

 40
0.0
 41
0.0
 42
0.0
 43
0.0
 44
0.0
 45
0.0
 46
0.0
 47
0.0
 48
0.0
 49
0.0
140
0.0
141
0.0
142
1.0
143
1.0
 70
   688
 72
     0
 73
     0
 74
     5
  7

 75
    16
147
1.0
 76
     0
 77
     2
 78
   300
148
0.0
149
0.0
100
AcDbLayout
  1
Layout2
 70
     1
 71
     2
 10
0.0
 20
0.0
 11
12.0
 21
9.0
 12
0.0
 22
0.0
 32
0.0
 14
0.0
 24
0.0
 34
0.0
 15
0.0
 25
0.0
 35
0.0
146
0.0
 13
0.0
 23
0.0
 33
0.0
 16
1.0
 26
0.0
 36
0.0
 17
0.0
 27
1.0
 37
0.0
 76
     0
330
6B
  0
LAYOUT
  5
6A
102
{ACAD_REACTORS
330
5D
102
}
330
5D
100
AcDbPlotSettings
  1

  2
HP Deskjet 1280 series
  4

  6

 40
0.0
 41
0.0
 42
0.0
 43
0.0
 44
0.0
 45
0.0
 46
0.0
 47
0.0
 48
0.0
 49
0.0
140
0.0
141
0.0
142
1.0
143
1.0
 70
  1712
 72
     0
 73
     0
 74
     0
  7

 75
     0
147
1.0
 76
     0
 77
     2
 78
   300
148
0.0
149
0.0
100
AcDbLayout
  1
Model
 70
     1
 71
     0
 10
0.0
 20
0.0
 11
12.0
 21
9.0
 12
0.0
 22
0.0
 32
0.0
 14
0.0
 24
0.0
 34
0.0
 15
0.0
 25
0.0
 35
0.0
146
0.0
 13
0.0
 23
0.0
 33
0.0
 16
1.0
 26
0.0
 36
0.0
 17
0.0
 27
1.0
 37
0.0
 76
     0
330
67
331
52
  0
MATERIAL
  5
19
102
{ACAD_XDICTIONARY
360
1A
102
}
102
{ACAD_REACTORS
330
10
102
}
330
10
100
AcDbMaterial
  1
ByBlock
 72
     0
 43
0.0208333333333333
 43
0.0
 43
0.0
 43
0.0
 43
0.0
 43
0.0208333333333333
 43
0.0
 43
0.0
 43
0.0
 43
0.0
 43
1.0
 43
0.0
 43
0.0
 43
0.0
 43
0.0
 43
1.0
 77
     0
 47
0.0208333333333333
 47
0.0
 47
0.0
 47
0.0
 47
0.0
 47
0.0208333333333333
 47
0.0
 47
0.0
 47
0.0
 47
0.0
 47
1.0
 47
0.0
 47
0.0
 47
0.0
 47
0.0
 47
1.0
171
     0
 49
0.0208333333333333
 49
0.0
 49
0.0
 49
0.0
 49
0.0
 49
0.0208333333333333
 49
0.0
 49
0.0
 49
0.0
 49
0.0
 49
1.0
 49
0.0
 49
0.0
 49
0.0
 49
0.0
 49
1.0
175
     0
142
0.0208333333333333
142
0.0
142
0.0
142
0.0
142
0.0
142
0.0208333333333333
142
0.0
142
0.0
142
0.0
142
0.0
142
1.0
142
0.0
142
0.0
142
0.0
142
0.0
142
1.0
179
     0
144
0.0208333333333333
144
0.0
144
0.0
144
0.0
144
0.0
144
0.0208333333333333
144
0.0
144
0.0
144
0.0
144
0.0
144
1.0
144
0.0
144
0.0
144
0.0
144
0.0
144
1.0
147
0.0208333333333333
147
0.0
147
0.0
147
0.0
147
0.0
147
0.0208333333333333
147
0.0
147
0.0
147
0.0
147
0.0
147
1.0
147
0.0
147
0.0
147
0.0
147
0.0
147
1.0
  0
MATERIAL
  5
11
102
{ACAD_XDICTIONARY
360
12
102
}
102
{ACAD_REACTORS
330
10
102
}
330
10
100
AcDbMaterial
  1
ByLayer
 72
     0
 43
0.0208333333333333
 43
0.0
 43
0.0
 43
0.0
 43
0.0
 43
0.0208333333333333
 43
0.0
 43
0.0
 43
0.0
 43
0.0
 43
1.0
 43
0.0
 43
0.0
 43
0.0
 43
0.0
 43
1.0
 77
     0
 47
0.0208333333333333
 47
0.0
 47
0.0
 47
0.0
 47
0.0
 47
0.0208333333333333
 47
0.0
 47
0.0
 47
0.0
 47
0.0
 47
1.0
 47
0.0
 47
0.0
 47
0.0
 47
0.0
 47
1.0
171
     0
 49
0.0208333333333333
 49
0.0
 49
0.0
 49
0.0
 49
0.0
 49
0.0208333333333333
 49
0.0
 49
0.0
 49
0.0
 49
0.0
 49
1.0
 49
0.0
 49
0.0
 49
0.0
 49
0.0
 49
1.0
175
     0
142
0.0208333333333333
142
0.0
142
0.0
142
0.0
142
0.0
142
0.0208333333333333
142
0.0
142
0.0
142
0.0
142
0.0
142
1.0
142
0.0
142
0.0
142
0.0
142
0.0
142
1.0
179
     0
144
0.0208333333333333
144
0.0
144
0.0
144
0.0
144
0.0
144
0.0208333333333333
144
0.0
144
0.0
144
0.0
144
0.0
144
1.0
144
0.0
144
0.0
144
0.0
144
0.0
144
1.0
147
0.0208333333333333
147
0.0
147
0.0
147
0.0
147
0.0
147
0.0208333333333333
147
0.0
147
0.0
147
0.0
147
0.0
147
1.0
147
0.0
147
0.0
147
0.0
147
0.0
147
1.0
  0
MATERIAL
  5
21
102
{ACAD_XDICTIONARY
360
22
102
}
102
{ACAD_REACTORS
330
10
102
}
330
10
100
AcDbMaterial
  1
Global
 72
     0
 43
0.0208333333333333
 43
0.0
 43
0.0
 43
0.0
 43
0.0
 43
0.0208333333333333
 43
0.0
 43
0.0
 43
0.0
 43
0.0
 43
1.0
 43
0.0
 43
0.0
 43
0.0
 43
0.0
 43
1.0
 77
     0
 47
0.0208333333333333
 47
0.0
 47
0.0
 47
0.0
 47
0.0
 47
0.0208333333333333
 47
0.0
 47
0.0
 47
0.0
 47
0.0
 47
1.0
 47
0.0
 47
0.0
 47
0.0
 47
0.0
 47
1.0
171
     0
 49
0.0208333333333333
 49
0.0
 49
0.0
 49
0.0
 49
0.0
 49
0.0208333333333333
 49
0.0
 49
0.0
 49
0.0
 49
0.0
 49
1.0
 49
0.0
 49
0.0
 49
0.0
 49
0.0
 49
1.0
175
     0
142
0.0208333333333333
142
0.0
142
0.0
142
0.0
142
0.0
142
0.0208333333333333
142
0.0
142
0.0
142
0.0
142
0.0
142
1.0
142
0.0
142
0.0
142
0.0
142
0.0
142
1.0
179
     0
144
0.0208333333333333
144
0.0
144
0.0
144
0.0
144
0.0
144
0.0208333333333333
144
0.0
144
0.0
144
0.0
144
0.0
144
1.0
144
0.0
144
0.0
144
0.0
144
0.0
144
1.0
147
0.0208333333333333
147
0.0
147
0.0
147
0.0
147
0.0
147
0.0208333333333333
147
0.0
147
0.0
147
0.0
147
0.0
147
1.0
147
0.0
147
0.0
147
0.0
147
0.0
147
1.0
  0
MLEADERSTYLE
  5
62
102
{ACAD_REACTORS
330
61
102
}
330
61
100
AcDbMLeaderStyle
170
     2
171
     1
172
     0
 90
        2
 40
0.0
 41
0.0
173
     1
 91
-1056964608
340
56
 92
       -2
290
     1
 42
0.09
291
     1
 43
0.36
  3
Standard
 44
0.18
300

342
50
174
     1
178
     6
175
     1
176
     0
 93
-1056964608
 45
0.18
292
     0
297
     0
 46
0.18
 94
-1056964608
 47
1.0
 49
1.0
140
1.0
293
     1
141
0.0
294
     1
177
     0
142
1.0
295
     0
296
     0
143
0.125
1001
ACAD_MLEADERVER
1070
     2
  0
MLINESTYLE
  5
5B
102
{ACAD_REACTORS
330
5A
102
}
330
5A
100
AcDbMlineStyle
  2
STANDARD
 70
     0
  3

 62
   256
 51
90.0
 52
90.0
 71
     2
 49
0.5
 62
   256
  6
BYLAYER
 49
-0.5
 62
   256
  6
BYLAYER
  0
ACDBPLACEHOLDER
  5
F
102
{ACAD_REACTORS
330
E
102
}
330
E
  0
SCALE
  5
3E
102
{ACAD_REACTORS
330
3D
102
}
330
3D
100
AcDbScale
 70
     0
300
1:1
140
1.0
141
1.0
290
     1
  0
SCALE
  5
3F
102
{ACAD_REACTORS
330
3D
102
}
330
3D
100
AcDbScale
 70
     0
300
1:2
140
1.0
141
2.0
290
     0
  0
SCALE
  5
40
102
{ACAD_REACTORS
330
3D
102
}
330
3D
100
AcDbScale
 70
     0
300
1:4
140
1.0
141
4.0
290
     0
  0
SCALE
  5
41
102
{ACAD_REACTORS
330
3D
102
}
330
3D
100
AcDbScale
 70
     0
300
1:5
140
1.0
141
5.0
290
     0
  0
SCALE
  5
42
102
{ACAD_REACTORS
330
3D
102
}
330
3D
100
AcDbScale
 70
     0
300
1:8
140
1.0
141
8.0
290
     0
  0
SCALE
  5
43
102
{ACAD_REACTORS
330
3D
102
}
330
3D
100
AcDbScale
 70
     0
300
1:10
140
1.0
141
10.0
290
     0
  0
SCALE
  5
44
102
{ACAD_REACTORS
330
3D
102
}
330
3D
100
AcDbScale
 70
     0
300
1:16
140
1.0
141
16.0
290
     0
  0
SCALE
  5
45
102
{ACAD_REACTORS
330
3D
102
}
330
3D
100
AcDbScale
 70
     0
300
1:20
140
1.0
141
20.0
290
     0
  0
SCALE
  5
46
102
{ACAD_REACTORS
330
3D
102
}
330
3D
100
AcDbScale
 70
     0
300
1:30
140
1.0
141
30.0
290
     0
  0
SCALE
  5
47
102
{ACAD_REACTORS
330
3D
102
}
330
3D
100
AcDbScale
 70
     0
300
1:40
140
1.0
141
40.0
290
     0
  0
SCALE
  5
48
102
{ACAD_REACTORS
330
3D
102
}
330
3D
100
AcDbScale
 70
     0
300
1:50
140
1.0
141
50.0
290
     0
  0
SCALE
  5
49
102
{ACAD_REACTORS
330
3D
102
}
330
3D
100
AcDbScale
 70
     0
300
1:100
140
1.0
141
100.0
290
     0
  0
SCALE
  5
4A
102
{ACAD_REACTORS
330
3D
102
}
330
3D
100
AcDbScale
 70
     0
300
2:1
140
2.0
141
1.0
290
     0
  0
SCALE
  5
4B
102
{ACAD_REACTORS
330
3D
102
}
330
3D
100
AcDbScale
 70
     0
300
4:1
140
4.0
141
1.0
290
     0
  0
SCALE
  5
4C
102
{ACAD_REACTORS
330
3D
102
}
330
3D
100
AcDbScale
 70
     0
300
8:1
140
8.0
141
1.0
290
     0
  0
SCALE
  5
4D
102
{ACAD_REACTORS
330
3D
102
}
330
3D
100
AcDbScale
 70
     0
300
10:1
140
10.0
141
1.0
290
     0
  0
SCALE
  5
4E
102
{ACAD_REACTORS
330
3D
102
}
330
3D
100
AcDbScale
 70
     0
300
100:1
140
100.0
141
1.0
290
     0
  0
TABLESTYLE
  5
60
102
{ACAD_XDICTIONARY
360
79F0
102
}
102
{ACAD_REACTORS
330
5F
102
}
330
5F
100
AcDbTableStyle
  3
Standard
 70
     0
 71
     0
 40
1.5
 41
1.5
280
     0
281
     0
  7
Standard
140
4.5
170
     2
 62
     0
 63
     7
283
     0
274
    -2
284
     1
 64
     0
275
    -2
285
     1
 65
     0
276
    -2
286
     1
 66
     0
277
    -2
287
     1
 67
     0
278
    -2
288
     1
 68
     0
279
    -2
289
     1
 69
     0
  7
Standard
140
6.0
170
     5
 62
     0
 63
     7
283
     0
274
    -2
284
     1
 64
     0
275
    -2
285
     1
 65
     0
276
    -2
286
     1
 66
     0
277
    -2
287
     1
 67
     0
278
    -2
288
     1
 68
     0
279
    -2
289
     1
 69
     0
  7
Standard
140
4.5
170
     5
 62
     0
 63
     7
283
     0
274
    -2
284
     1
 64
     0
275
    -2
285
     1
 65
     0
276
    -2
286
     1
 66
     0
277
    -2
287
     1
 67
     0
278
    -2
288
     1
 68
     0
279
    -2
289
     1
 69
     0
  0
VISUALSTYLE
  5
2F
102
{ACAD_XDICTIONARY
360
7A02
102
}
102
{ACAD_REACTORS
330
29
102
}
330
29
100
AcDbVisualStyle
  2
2dWireframe
 70
     4
 71
     0
 72
     2
 73
     0
 90
        0
 40
-0.6
 41
-30.0
 62
     5
 63
     7
421
 16777215
 74
     1
 91
        4
 64
     7
 65
   257
 75
     1
175
     1
 42
1.0
 92
        0
 66
   257
 43
1.0
 76
     1
 77
     6
 78
     2
 67
     7
 79
     5
170
     0
171
     0
290
     0
174
     0
 93
        1
 44
0.0
173
     0
291
     0
 45
0.0
1001
ACAD
1000
AcDbSavedByObjectVersion
1070
     0
  0
VISUALSTYLE
  5
31
102
{ACAD_XDICTIONARY
360
7A06
102
}
102
{ACAD_REACTORS
330
29
102
}
330
29
100
AcDbVisualStyle
  2
3D Hidden
 70
     6
 71
     1
 72
     2
 73
     2
 90
        0
 40
-0.6
 41
-30.0
 62
     5
 63
     7
421
 16777215
 74
     2
 91
        2
 64
     7
 65
   257
 75
     2
175
     1
 42
179.0
 92
        0
 66
   257
 43
1.0
 76
     1
 77
     6
 78
     2
 67
     7
 79
     3
170
     0
171
     0
290
     0
174
     0
 93
        1
 44
0.0
173
     0
291
     0
 45
0.0
1001
ACAD
1000
AcDbSavedByObjectVersion
1070
     0
  0
VISUALSTYLE
  5
30
102
{ACAD_XDICTIONARY
360
7A04
102
}
102
{ACAD_REACTORS
330
29
102
}
330
29
100
AcDbVisualStyle
  2
3dWireframe
 70
     5
 71
     0
 72
     2
 73
     0
 90
        0
 40
-0.6
 41
-30.0
 62
     5
 63
     7
421
 16777215
 74
     1
 91
        4
 64
     7
 65
   257
 75
     1
175
     1
 42
1.0
 92
        0
 66
   257
 43
1.0
 76
     1
 77
     6
 78
     2
 67
     7
 79
     5
170
     0
171
     0
290
     0
174
     0
 93
        1
 44
0.0
173
     0
291
     0
 45
0.0
1001
ACAD
1000
AcDbSavedByObjectVersion
1070
     0
  0
VISUALSTYLE
  5
2E
102
{ACAD_XDICTIONARY
360
7A00
102
}
102
{ACAD_REACTORS
330
29
102
}
330
29
100
AcDbVisualStyle
  2
Basic
 70
     7
 71
     1
 72
     0
 73
     1
 90
        0
 40
-0.6
 41
-30.0
 62
     5
 63
     7
421
 16777215
 74
     0
 91
        4
 64
     7
 65
   257
 75
     1
175
     1
 42
1.0
 92
        8
 66
     7
 43
1.0
 76
     1
 77
     6
 78
     2
 67
     7
 79
     5
170
     0
171
     0
290
     0
174
     0
 93
        1
 44
0.0
173
     0
291
     1
 45
0.0
1001
ACAD
1000
AcDbSavedByObjectVersion
1070
     0
  0
VISUALSTYLE
  5
35
102
{ACAD_XDICTIONARY
360
7A0E
102
}
102
{ACAD_REACTORS
330
29
102
}
330
29
100
AcDbVisualStyle
  2
Brighten
 70
    12
 71
     2
 72
     2
 73
     0
 90
        0
 40
-0.6
 41
-30.0
 62
     5
 63
     7
421
 16777215
 74
     1
 91
        4
 64
     7
 65
   257
 75
     1
175
     1
 42
1.0
 92
        8
 66
     7
 43
1.0
 76
     1
 77
     6
 78
     2
 67
     7
 79
     5
170
     0
171
     0
290
     0
174
     0
 93
        1
 44
50.0
173
     0
291
     1
 45
0.0
1001
ACAD
1000
AcDbSavedByObjectVersion
1070
     0
  0
VISUALSTYLE
  5
39
102
{ACAD_XDICTIONARY
360
7A16
102
}
102
{ACAD_REACTORS
330
29
102
}
330
29
100
AcDbVisualStyle
  2
ColorChange
 70
    16
 71
     2
 72
     2
 73
     3
 90
        0
 40
-0.6
 41
-30.0
 62
     5
 63
     8
421
  8421504
 74
     1
 91
        4
 64
     7
 65
   257
 75
     1
175
     1
 42
1.0
 92
        8
 66
     8
424
  8421504
 43
1.0
 76
     1
 77
     6
 78
     2
 67
     7
 79
     5
170
     0
171
     0
290
     0
174
     0
 93
        1
 44
0.0
173
     0
291
     1
 45
0.0
1001
ACAD
1000
AcDbSavedByObjectVersion
1070
     0
  0
VISUALSTYLE
  5
32
102
{ACAD_XDICTIONARY
360
7A08
102
}
102
{ACAD_REACTORS
330
29
102
}
330
29
100
AcDbVisualStyle
  2
Conceptual
 70
     9
 71
     3
 72
     2
 73
     0
 90
        0
 40
-0.6
 41
-30.0
 62
     5
 63
     7
421
 16777215
 74
     2
 91
        2
 64
     7
 65
   257
 75
     1
175
     1
 42
179.0
 92
        8
 66
     7
 43
1.0
 76
     1
 77
     6
 78
     2
 67
     7
 79
     3
170
     0
171
     0
290
     0
174
     0
 93
        1
 44
0.0
173
     0
291
     0
 45
0.0
1001
ACAD
1000
AcDbSavedByObjectVersion
1070
     0
  0
VISUALSTYLE
  5
34
102
{ACAD_XDICTIONARY
360
7A0C
102
}
102
{ACAD_REACTORS
330
29
102
}
330
29
100
AcDbVisualStyle
  2
Dim
 70
    11
 71
     2
 72
     2
 73
     0
 90
        0
 40
-0.6
 41
-30.0
 62
     5
 63
     7
421
 16777215
 74
     1
 91
        4
 64
     7
 65
   257
 75
     1
175
     1
 42
1.0
 92
        8
 66
     7
 43
1.0
 76
     1
 77
     6
 78
     2
 67
     7
 79
     5
170
     0
171
     0
290
     0
174
     0
 93
        1
 44
-50.0
173
     0
291
     1
 45
0.0
1001
ACAD
1000
AcDbSavedByObjectVersion
1070
     0
  0
VISUALSTYLE
  5
3C
102
{ACAD_XDICTIONARY
360
7A1C
102
}
102
{ACAD_REACTORS
330
29
102
}
330
29
100
AcDbVisualStyle
  2
EdgeColorOff
 70
    22
 71
     2
 72
     2
 73
     0
 90
        0
 40
-0.6
 41
-30.0
 62
     5
 63
     7
421
 16777215
 74
     1
 91
        4
 64
     7
 65
   257
 75
     1
175
     1
 42
1.0
 92
        8
 66
     7
 43
1.0
 76
     1
 77
     6
 78
     2
 67
     7
 79
     5
170
     0
171
     0
290
     0
174
     0
 93
        1
 44
0.0
173
     0
291
     1
 45
0.0
1001
ACAD
1000
AcDbSavedByObjectVersion
1070
     0
  0
VISUALSTYLE
  5
38
102
{ACAD_XDICTIONARY
360
7A14
102
}
102
{ACAD_REACTORS
330
29
102
}
330
29
100
AcDbVisualStyle
  2
Facepattern
 70
    15
 71
     2
 72
     2
 73
     0
 90
        0
 40
-0.6
 41
-30.0
 62
     5
 63
     7
421
 16777215
 74
     1
 91
        4
 64
     7
 65
   257
 75
     1
175
     1
 42
1.0
 92
        8
 66
     7
 43
1.0
 76
     1
 77
     6
 78
     2
 67
     7
 79
     5
170
     0
171
     0
290
     0
174
     0
 93
        1
 44
0.0
173
     0
291
     1
 45
0.0
1001
ACAD
1000
AcDbSavedByObjectVersion
1070
     0
  0
VISUALSTYLE
  5
2A
102
{ACAD_XDICTIONARY
360
79F8
102
}
102
{ACAD_REACTORS
330
29
102
}
330
29
100
AcDbVisualStyle
  2
Flat
 70
     0
 71
     2
 72
     1
 73
     1
 90
        2
 40
-0.6
 41
30.0
 62
     5
 63
     7
421
 16777215
 74
     0
 91
        4
 64
     7
 65
   257
 75
     1
175
     1
 42
1.0
 92
        8
 66
     7
 43
1.0
 76
     1
 77
     6
 78
     2
 67
     7
 79
     5
170
     0
171
     0
290
     0
174
     0
 93
       13
 44
0.0
173
     0
291
     1
 45
0.0
1001
ACAD
1000
AcDbSavedByObjectVersion
1070
     0
  0
VISUALSTYLE
  5
2B
102
{ACAD_XDICTIONARY
360
79FA
102
}
102
{ACAD_REACTORS
330
29
102
}
330
29
100
AcDbVisualStyle
  2
FlatWithEdges
 70
     1
 71
     2
 72
     1
 73
     1
 90
        2
 40
-0.6
 41
30.0
 62
     5
 63
     7
421
 16777215
 74
     1
 91
        4
 64
     7
 65
   257
 75
     1
175
     1
 42
1.0
 92
        0
 66
   257
 43
1.0
 76
     1
 77
     6
 78
     2
 67
     7
 79
     5
170
     0
171
     0
290
     0
174
     0
 93
       13
 44
0.0
173
     0
291
     1
 45
0.0
1001
ACAD
1000
AcDbSavedByObjectVersion
1070
     0
  0
VISUALSTYLE
  5
2C
102
{ACAD_XDICTIONARY
360
79FC
102
}
102
{ACAD_REACTORS
330
29
102
}
330
29
100
AcDbVisualStyle
  2
Gouraud
 70
     2
 71
     2
 72
     2
 73
     1
 90
        2
 40
-0.6
 41
30.0
 62
     5
 63
     7
421
 16777215
 74
     0
 91
        4
 64
     7
 65
   257
 75
     1
175
     1
 42
1.0
 92
        0
 66
     7
 43
1.0
 76
     1
 77
     6
 78
     2
 67
     7
 79
     5
170
     0
171
     0
290
     0
174
     0
 93
       13
 44
0.0
173
     0
291
     1
 45
0.0
1001
ACAD
1000
AcDbSavedByObjectVersion
1070
     0
  0
VISUALSTYLE
  5
2D
102
{ACAD_XDICTIONARY
360
79FE
102
}
102
{ACAD_REACTORS
330
29
102
}
330
29
100
AcDbVisualStyle
  2
GouraudWithEdges
 70
     3
 71
     2
 72
     2
 73
     1
 90
        2
 40
-0.6
 41
30.0
 62
     5
 63
     7
421
 16777215
 74
     1
 91
        4
 64
     7
 65
   257
 75
     1
175
     1
 42
1.0
 92
        0
 66
   257
 43
1.0
 76
     1
 77
     6
 78
     2
 67
     7
 79
     5
170
     0
171
     0
290
     0
174
     0
 93
       13
 44
0.0
173
     0
291
     1
 45
0.0
1001
ACAD
1000
AcDbSavedByObjectVersion
1070
     0
  0
VISUALSTYLE
  5
3A
102
{ACAD_XDICTIONARY
360
7A18
102
}
102
{ACAD_REACTORS
330
29
102
}
330
29
100
AcDbVisualStyle
  2
JitterOff
 70
    20
 71
     2
 72
     2
 73
     0
 90
        0
 40
-0.6
 41
-30.0
 62
     5
 63
     7
421
 16777215
 74
     1
 91
        4
 64
     7
 65
   257
 75
     1
175
     1
 42
1.0
 92
       10
 66
     7
 43
1.0
 76
     1
 77
     6
 78
     2
 67
     7
 79
     5
170
     0
171
     0
290
     0
174
     0
 93
        1
 44
0.0
173
     0
291
     1
 45
0.0
1001
ACAD
1000
AcDbSavedByObjectVersion
1070
     0
  0
VISUALSTYLE
  5
37
102
{ACAD_XDICTIONARY
360
7A12
102
}
102
{ACAD_REACTORS
330
29
102
}
330
29
100
AcDbVisualStyle
  2
Linepattern
 70
    14
 71
     2
 72
     2
 73
     0
 90
        0
 40
-0.6
 41
-30.0
 62
     5
 63
     7
421
 16777215
 74
     1
 91
        4
 64
     7
 65
   257
 75
     7
175
     7
 42
1.0
 92
        8
 66
     7
 43
1.0
 76
     1
 77
     6
 78
     2
 67
     7
 79
     5
170
     0
171
     0
290
     0
174
     0
 93
        1
 44
0.0
173
     0
291
     1
 45
0.0
1001
ACAD
1000
AcDbSavedByObjectVersion
1070
     0
  0
VISUALSTYLE
  5
3B
102
{ACAD_XDICTIONARY
360
7A1A
102
}
102
{ACAD_REACTORS
330
29
102
}
330
29
100
AcDbVisualStyle
  2
OverhangOff
 70
    21
 71
     2
 72
     2
 73
     0
 90
        0
 40
-0.6
 41
-30.0
 62
     5
 63
     7
421
 16777215
 74
     1
 91
        4
 64
     7
 65
   257
 75
     1
175
     1
 42
1.0
 92
        9
 66
     7
 43
1.0
 76
     1
 77
     6
 78
     2
 67
     7
 79
     5
170
     0
171
     0
290
     0
174
     0
 93
        1
 44
0.0
173
     0
291
     1
 45
0.0
1001
ACAD
1000
AcDbSavedByObjectVersion
1070
     0
  0
VISUALSTYLE
  5
33
102
{ACAD_XDICTIONARY
360
7A0A
102
}
102
{ACAD_REACTORS
330
29
102
}
330
29
100
AcDbVisualStyle
  2
Realistic
 70
     8
 71
     2
 72
     2
 73
     0
 90
        0
 40
-0.6
 41
-30.0
 62
     5
 63
     7
421
 16777215
 74
     1
 91
        0
 64
     7
 65
   257
 75
     1
175
     1
 42
1.0
 92
        8
 66
     8
424
  7895160
 43
1.0
 76
     1
 77
     6
 78
     2
 67
     7
 79
     5
170
     0
171
     0
290
     0
174
     0
 93
       13
 44
0.0
173
     0
291
     0
 45
0.0
1001
ACAD
1000
AcDbSavedByObjectVersion
1070
     0
  0
VISUALSTYLE
  5
36
102
{ACAD_XDICTIONARY
360
7A10
102
}
102
{ACAD_REACTORS
330
29
102
}
330
29
100
AcDbVisualStyle
  2
Thicken
 70
    13
 71
     2
 72
     2
 73
     0
 90
        0
 40
-0.6
 41
-30.0
 62
     5
 63
     7
421
 16777215
 74
     1
 91
        4
 64
     7
 65
   257
 75
     1
175
     1
 42
1.0
 92
       12
 66
     7
 43
1.0
 76
     1
 77
     6
 78
     2
 67
     7
 79
     5
170
     0
171
     0
290
     0
174
     0
 93
        1
 44
0.0
173
     0
291
     1
 45
0.0
1001
ACAD
1000
AcDbSavedByObjectVersion
1070
     0
  0
DICTIONARYVAR
  5
79EB
102
{ACAD_REACTORS
330
79E7
102
}
330
79E7
100
DictionaryVariables
280
     0
  1
1:1
  0
DICTIONARYVAR
  5
79E9
102
{ACAD_REACTORS
330
79E7
102
}
330
79E7
100
DictionaryVariables
280
     0
  1
STANDARD
  0
DICTIONARYVAR
  5
79E8
102
{ACAD_REACTORS
330
79E7
102
}
330
79E7
100
DictionaryVariables
280
     0
  1
STANDARD
  0
DICTIONARYVAR
  5
79ED
102
{ACAD_REACTORS
330
79E7
102
}
330
79E7
100
DictionaryVariables
280
     0
  1
0
  0
DICTIONARYVAR
  5
79EE
102
{ACAD_REACTORS
330
79E7
102
}
330
79E7
100
DictionaryVariables
280
     0
  1
0
  0
DICTIONARYVAR
  5
79EC
102
{ACAD_REACTORS
330
79E7
102
}
330
79E7
100
DictionaryVariables
280
     0
  1
2
  0
DICTIONARYVAR
  5
79EA
102
{ACAD_REACTORS
330
79E7
102
}
330
79E7
100
DictionaryVariables
280
     0
  1
1
  0
DICTIONARYVAR
  5
79EF
102
{ACAD_REACTORS
330
79E7
102
}
330
79E7
100
DictionaryVariables
280
     0
  1
2
  0
DICTIONARY
  5
1A
330
19
100
AcDbDictionary
280
     1
281
     1
  3
ACAD_XREC_ROUNDTRIP
360
79F6
  3
BUMPTILE
360
1C
  3
DIFFUSETILE
360
1B
  3
OPACITYTILE
360
1F
  3
REFLECTIONTILE
360
1E
  3
REFRACTIONTILE
360
20
  3
SPECULARTILE
360
1D
  0
DICTIONARY
  5
12
330
11
100
AcDbDictionary
280
     1
281
     1
  3
ACAD_XREC_ROUNDTRIP
360
79F5
  3
BUMPTILE
360
14
  3
DIFFUSETILE
360
13
  3
OPACITYTILE
360
17
  3
REFLECTIONTILE
360
16
  3
REFRACTIONTILE
360
18
  3
SPECULARTILE
360
15
  0
DICTIONARY
  5
22
330
21
100
AcDbDictionary
280
     1
281
     1
  3
ACAD_XREC_ROUNDTRIP
360
79F7
  3
BUMPTILE
360
24
  3
DIFFUSETILE
360
23
  3
OPACITYTILE
360
27
  3
REFLECTIONTILE
360
26
  3
REFRACTIONTILE
360
28
  3
SPECULARTILE
360
25
  0
DICTIONARY
  5
79F0
330
60
100
AcDbDictionary
280
     1
281
     1
  3
ACAD_ROUNDTRIP_2008_TABLESTYLE_CELLSTYLEMAP
360
79F1
  3
ACAD_XREC_ROUNDTRIP
360
7A1F
  0
DICTIONARY
  5
7A02
330
2F
100
AcDbDictionary
280
     1
281
     1
  3
ACAD_XREC_ROUNDTRIP
360
7A03
  0
DICTIONARY
  5
7A06
330
31
100
AcDbDictionary
280
     1
281
     1
  3
ACAD_XREC_ROUNDTRIP
360
7A07
  0
DICTIONARY
  5
7A04
330
30
100
AcDbDictionary
280
     1
281
     1
  3
ACAD_XREC_ROUNDTRIP
360
7A05
  0
DICTIONARY
  5
7A00
330
2E
100
AcDbDictionary
280
     1
281
     1
  3
ACAD_XREC_ROUNDTRIP
360
7A01
  0
DICTIONARY
  5
7A0E
330
35
100
AcDbDictionary
280
     1
281
     1
  3
ACAD_XREC_ROUNDTRIP
360
7A0F
  0
DICTIONARY
  5
7A16
330
39
100
AcDbDictionary
280
     1
281
     1
  3
ACAD_XREC_ROUNDTRIP
360
7A17
  0
DICTIONARY
  5
7A08
330
32
100
AcDbDictionary
280
     1
281
     1
  3
ACAD_XREC_ROUNDTRIP
360
7A09
  0
DICTIONARY
  5
7A0C
330
34
100
AcDbDictionary
280
     1
281
     1
  3
ACAD_XREC_ROUNDTRIP
360
7A0D
  0
DICTIONARY
  5
7A1C
330
3C
100
AcDbDictionary
280
     1
281
     1
  3
ACAD_XREC_ROUNDTRIP
360
7A1D
  0
DICTIONARY
  5
7A14
330
38
100
AcDbDictionary
280
     1
281
     1
  3
ACAD_XREC_ROUNDTRIP
360
7A15
  0
DICTIONARY
  5
79F8
330
2A
100
AcDbDictionary
280
     1
281
     1
  3
ACAD_XREC_ROUNDTRIP
360
79F9
  0
DICTIONARY
  5
79FA
330
2B
100
AcDbDictionary
280
     1
281
     1
  3
ACAD_XREC_ROUNDTRIP
360
79FB
  0
DICTIONARY
  5
79FC
330
2C
100
AcDbDictionary
280
     1
281
     1
  3
ACAD_XREC_ROUNDTRIP
360
79FD
  0
DICTIONARY
  5
79FE
330
2D
100
AcDbDictionary
280
     1
281
     1
  3
ACAD_XREC_ROUNDTRIP
360
79FF
  0
DICTIONARY
  5
7A18
330
3A
100
AcDbDictionary
280
     1
281
     1
  3
ACAD_XREC_ROUNDTRIP
360
7A19
  0
DICTIONARY
  5
7A12
330
37
100
AcDbDictionary
280
     1
281
     1
  3
ACAD_XREC_ROUNDTRIP
360
7A13
  0
DICTIONARY
  5
7A1A
330
3B
100
AcDbDictionary
280
     1
281
     1
  3
ACAD_XREC_ROUNDTRIP
360
7A1B
  0
DICTIONARY
  5
7A0A
330
33
100
AcDbDictionary
280
     1
281
     1
  3
ACAD_XREC_ROUNDTRIP
360
7A0B
  0
DICTIONARY
  5
7A10
330
36
100
AcDbDictionary
280
     1
281
     1
  3
ACAD_XREC_ROUNDTRIP
360
7A11
  0
XRECORD
  5
79F6
102
{ACAD_REACTORS
330
1A
102
}
330
1A
100
AcDbXrecord
280
     1
102
MATERIAL
148
0.0
149
0.0
149
0.0
 93
        0
 94
      127
282
     0
 72
     0
 77
     0
171
     0
175
     0
179
     0
273
     0
  0
XRECORD
  5
1C
102
{ACAD_REACTORS
330
1A
102
}
330
1A
100
AcDbXrecord
280
     1
270
     1
271
     1
  0
XRECORD
  5
1B
102
{ACAD_REACTORS
330
1A
102
}
330
1A
100
AcDbXrecord
280
     1
270
     1
271
     1
  0
XRECORD
  5
1F
102
{ACAD_REACTORS
330
1A
102
}
330
1A
100
AcDbXrecord
280
     1
270
     1
271
     1
  0
XRECORD
  5
1E
102
{ACAD_REACTORS
330
1A
102
}
330
1A
100
AcDbXrecord
280
     1
270
     1
271
     1
  0
XRECORD
  5
20
102
{ACAD_REACTORS
330
1A
102
}
330
1A
100
AcDbXrecord
280
     1
270
     1
271
     1
  0
XRECORD
  5
1D
102
{ACAD_REACTORS
330
1A
102
}
330
1A
100
AcDbXrecord
280
     1
270
     1
271
     1
  0
XRECORD
  5
79F5
102
{ACAD_REACTORS
330
12
102
}
330
12
100
AcDbXrecord
280
     1
102
MATERIAL
148
0.0
149
0.0
149
0.0
 93
        0
 94
      127
282
     0
 72
     0
 77
     0
171
     0
175
     0
179
     0
273
     0
  0
XRECORD
  5
14
102
{ACAD_REACTORS
330
12
102
}
330
12
100
AcDbXrecord
280
     1
270
     1
271
     1
  0
XRECORD
  5
13
102
{ACAD_REACTORS
330
12
102
}
330
12
100
AcDbXrecord
280
     1
270
     1
271
     1
  0
XRECORD
  5
17
102
{ACAD_REACTORS
330
12
102
}
330
12
100
AcDbXrecord
280
     1
270
     1
271
     1
  0
XRECORD
  5
16
102
{ACAD_REACTORS
330
12
102
}
330
12
100
AcDbXrecord
280
     1
270
     1
271
     1
  0
XRECORD
  5
18
102
{ACAD_REACTORS
330
12
102
}
330
12
100
AcDbXrecord
280
     1
270
     1
271
     1
  0
XRECORD
  5
15
102
{ACAD_REACTORS
330
12
102
}
330
12
100
AcDbXrecord
280
     1
270
     1
271
     1
  0
XRECORD
  5
79F7
102
{ACAD_REACTORS
330
22
102
}
330
22
100
AcDbXrecord
280
     1
102
MATERIAL
148
0.0
149
0.0
149
0.0
 93
        0
 94
      127
282
     0
 72
     0
 77
     0
171
     0
175
     0
179
     0
273
     0
  0
XRECORD
  5
24
102
{ACAD_REACTORS
330
22
102
}
330
22
100
AcDbXrecord
280
     1
270
     1
271
     1
  0
XRECORD
  5
23
102
{ACAD_REACTORS
330
22
102
}
330
22
100
AcDbXrecord
280
     1
270
     1
271
     1
  0
XRECORD
  5
27
102
{ACAD_REACTORS
330
22
102
}
330
22
100
AcDbXrecord
280
     1
270
     1
271
     1
  0
XRECORD
  5
26
102
{ACAD_REACTORS
330
22
102
}
330
22
100
AcDbXrecord
280
     1
270
     1
271
     1
  0
XRECORD
  5
28
102
{ACAD_REACTORS
330
22
102
}
330
22
100
AcDbXrecord
280
     1
270
     1
271
     1
  0
XRECORD
  5
25
102
{ACAD_REACTORS
330
22
102
}
330
22
100
AcDbXrecord
280
     1
270
     1
271
     1
  0
CELLSTYLEMAP
  5
79F1
102
{ACAD_REACTORS
330
79F0
102
}
330
79F0
100
AcDbCellStyleMap
 90
        3
300
CELLSTYLE
  1
TABLEFORMAT_BEGIN
 90
        5
170
     1
 91
        0
 92
    32768
 62
   257
 93
        1
300
CONTENTFORMAT
  1
CONTENTFORMAT_BEGIN
 90
        0
 91
        0
 92
      512
 93
        0
300

 40
0.0
140
1.0
 94
        5
 62
     0
340
50
144
6.0
309
CONTENTFORMAT_END
171
     1
301
MARGIN
  1
CELLMARGIN_BEGIN
 40
1.5
 40
1.5
 40
1.5
 40
1.5
 40
4.5
 40
4.5
309
CELLMARGIN_END
 94
        6
 95
        1
302
GRIDFORMAT
  1
GRIDFORMAT_BEGIN
 90
        0
 91
        1
 62
     0
 92
       -2
340
0
 93
        0
 40
1.125
309
GRIDFORMAT_END
 95
        2
302
GRIDFORMAT
  1
GRIDFORMAT_BEGIN
 90
        0
 91
        1
 62
     0
 92
       -2
340
0
 93
        0
 40
1.125
309
GRIDFORMAT_END
 95
        4
302
GRIDFORMAT
  1
GRIDFORMAT_BEGIN
 90
        0
 91
        1
 62
     0
 92
       -2
340
0
 93
        0
 40
1.125
309
GRIDFORMAT_END
 95
        8
302
GRIDFORMAT
  1
GRIDFORMAT_BEGIN
 90
        0
 91
        1
 62
     0
 92
       -2
340
0
 93
        0
 40
1.125
309
GRIDFORMAT_END
 95
       16
302
GRIDFORMAT
  1
GRIDFORMAT_BEGIN
 90
        0
 91
        1
 62
     0
 92
       -2
340
0
 93
        0
 40
1.125
309
GRIDFORMAT_END
 95
       32
302
GRIDFORMAT
  1
GRIDFORMAT_BEGIN
 90
        0
 91
        1
 62
     0
 92
       -2
340
0
 93
        0
 40
1.125
309
GRIDFORMAT_END
309
TABLEFORMAT_END
  1
CELLSTYLE_BEGIN
 90
        1
 91
        1
300
_TITLE
309
CELLSTYLE_END
300
CELLSTYLE
  1
TABLEFORMAT_BEGIN
 90
        5
170
     1
 91
        0
 92
        0
 62
   257
 93
        1
300
CONTENTFORMAT
  1
CONTENTFORMAT_BEGIN
 90
        0
 91
        0
 92
      512
 93
        0
300

 40
0.0
140
1.0
 94
        5
 62
     0
340
50
144
4.5
309
CONTENTFORMAT_END
171
     1
301
MARGIN
  1
CELLMARGIN_BEGIN
 40
1.5
 40
1.5
 40
1.5
 40
1.5
 40
4.5
 40
4.5
309
CELLMARGIN_END
 94
        6
 95
        1
302
GRIDFORMAT
  1
GRIDFORMAT_BEGIN
 90
        0
 91
        1
 62
     0
 92
       -2
340
0
 93
        0
 40
1.125
309
GRIDFORMAT_END
 95
        2
302
GRIDFORMAT
  1
GRIDFORMAT_BEGIN
 90
        0
 91
        1
 62
     0
 92
       -2
340
0
 93
        0
 40
1.125
309
GRIDFORMAT_END
 95
        4
302
GRIDFORMAT
  1
GRIDFORMAT_BEGIN
 90
        0
 91
        1
 62
     0
 92
       -2
340
0
 93
        0
 40
1.125
309
GRIDFORMAT_END
 95
        8
302
GRIDFORMAT
  1
GRIDFORMAT_BEGIN
 90
        0
 91
        1
 62
     0
 92
       -2
340
0
 93
        0
 40
1.125
309
GRIDFORMAT_END
 95
       16
302
GRIDFORMAT
  1
GRIDFORMAT_BEGIN
 90
        0
 91
        1
 62
     0
 92
       -2
340
0
 93
        0
 40
1.125
309
GRIDFORMAT_END
 95
       32
302
GRIDFORMAT
  1
GRIDFORMAT_BEGIN
 90
        0
 91
        1
 62
     0
 92
       -2
340
0
 93
        0
 40
1.125
309
GRIDFORMAT_END
309
TABLEFORMAT_END
  1
CELLSTYLE_BEGIN
 90
        2
 91
        1
300
_HEADER
309
CELLSTYLE_END
300
CELLSTYLE
  1
TABLEFORMAT_BEGIN
 90
        5
170
     1
 91
        0
 92
        0
 62
   257
 93
        1
300
CONTENTFORMAT
  1
CONTENTFORMAT_BEGIN
 90
        0
 91
        0
 92
      512
 93
        0
300

 40
0.0
140
1.0
 94
        2
 62
     0
340
50
144
4.5
309
CONTENTFORMAT_END
171
     1
301
MARGIN
  1
CELLMARGIN_BEGIN
 40
1.5
 40
1.5
 40
1.5
 40
1.5
 40
4.5
 40
4.5
309
CELLMARGIN_END
 94
        6
 95
        1
302
GRIDFORMAT
  1
GRIDFORMAT_BEGIN
 90
        0
 91
        1
 62
     0
 92
       -2
340
0
 93
        0
 40
1.125
309
GRIDFORMAT_END
 95
        2
302
GRIDFORMAT
  1
GRIDFORMAT_BEGIN
 90
        0
 91
        1
 62
     0
 92
       -2
340
0
 93
        0
 40
1.125
309
GRIDFORMAT_END
 95
        4
302
GRIDFORMAT
  1
GRIDFORMAT_BEGIN
 90
        0
 91
        1
 62
     0
 92
       -2
340
0
 93
        0
 40
1.125
309
GRIDFORMAT_END
 95
        8
302
GRIDFORMAT
  1
GRIDFORMAT_BEGIN
 90
        0
 91
        1
 62
     0
 92
       -2
340
0
 93
        0
 40
1.125
309
GRIDFORMAT_END
 95
       16
302
GRIDFORMAT
  1
GRIDFORMAT_BEGIN
 90
        0
 91
        1
 62
     0
 92
       -2
340
0
 93
        0
 40
1.125
309
GRIDFORMAT_END
 95
       32
302
GRIDFORMAT
  1
GRIDFORMAT_BEGIN
 90
        0
 91
        1
 62
     0
 92
       -2
340
0
 93
        0
 40
1.125
309
GRIDFORMAT_END
309
TABLEFORMAT_END
  1
CELLSTYLE_BEGIN
 90
        3
 91
        2
300
_DATA
309
CELLSTYLE_END
  0
XRECORD
  5
7A1F
102
{ACAD_REACTORS
330
79F0
102
}
330
79F0
100
AcDbXrecord
280
     1
102
ACAD_ROUNDTRIP_PRE2007_TABLESTYLE
 90
      512
 91
        0
  1

 92
      512
 93
        0
  2

 94
      512
 95
        0
  3

  0
XRECORD
  5
7A03
102
{ACAD_REACTORS
330
7A02
102
}
330
7A02
100
AcDbXrecord
280
     1
102
RTVSPropertyOp0
 70
     1
102
RTVSPropertyOp1
 70
     1
102
RTVSPropertyOp2
 70
     1
102
RTVSPropertyOp3
 70
     1
102
RTVSPropertyOp4
 70
     1
102
RTVSPropertyOp5
 70
     1
102
RTVSPropertyOp6
 70
     1
102
RTVSPropertyOp7
 70
     1
102
RTVSPropertyOp8
 70
     1
102
RTVSPropertyOp9
 70
     1
102
RTVSPropertyOp10
 70
     1
102
RTVSPropertyOp11
 70
     1
102
RTVSPropertyOp12
 70
     1
102
RTVSPropertyOp13
 70
     1
102
RTVSPropertyOp14
 70
     1
102
RTVSPropertyOp15
 70
     1
102
RTVSPropertyOp16
 70
     1
102
RTVSPropertyOp17
 70
     1
102
RTVSPropertyOp18
 70
     1
102
RTVSPropertyOp19
 70
     1
102
RTVSPropertyOp20
 70
     1
102
RTVSPropertyOp21
 70
     1
102
RTVSPropertyOp22
 70
     1
102
RTVSPropertyOp23
 70
     1
102
RTVSPropertyOp24
 70
     1
102
RTVSPropertyOp25
 70
     1
102
RTVSPropertyOp26
 70
     1
102
RTVSPropertyOp27
 70
     1
  0
XRECORD
  5
7A07
102
{ACAD_REACTORS
330
7A06
102
}
330
7A06
100
AcDbXrecord
280
     1
102
RTVSPropertyOp0
 70
     1
102
RTVSPropertyOp1
 70
     1
102
RTVSPropertyOp2
 70
     1
102
RTVSPropertyOp3
 70
     1
102
RTVSPropertyOp4
 70
     1
102
RTVSPropertyOp5
 70
     1
102
RTVSPropertyOp6
 70
     1
102
RTVSPropertyOp7
 70
     1
102
RTVSPropertyOp8
 70
     1
102
RTVSPropertyOp9
 70
     1
102
RTVSPropertyOp10
 70
     1
102
RTVSPropertyOp11
 70
     1
102
RTVSPropertyOp12
 70
     1
102
RTVSPropertyOp13
 70
     1
102
RTVSPropertyOp14
 70
     1
102
RTVSPropertyOp15
 70
     1
102
RTVSPropertyOp16
 70
     1
102
RTVSPropertyOp17
 70
     1
102
RTVSPropertyOp18
 70
     1
102
RTVSPropertyOp19
 70
     1
102
RTVSPropertyOp20
 70
     1
102
RTVSPropertyOp21
 70
     1
102
RTVSPropertyOp22
 70
     1
102
RTVSPropertyOp23
 70
     1
102
RTVSPropertyOp24
 70
     1
102
RTVSPropertyOp25
 70
     1
102
RTVSPropertyOp26
 70
     1
102
RTVSPropertyOp27
 70
     1
  0
XRECORD
  5
7A05
102
{ACAD_REACTORS
330
7A04
102
}
330
7A04
100
AcDbXrecord
280
     1
102
RTVSPropertyOp0
 70
     1
102
RTVSPropertyOp1
 70
     1
102
RTVSPropertyOp2
 70
     1
102
RTVSPropertyOp3
 70
     1
102
RTVSPropertyOp4
 70
     1
102
RTVSPropertyOp5
 70
     1
102
RTVSPropertyOp6
 70
     1
102
RTVSPropertyOp7
 70
     1
102
RTVSPropertyOp8
 70
     1
102
RTVSPropertyOp9
 70
     1
102
RTVSPropertyOp10
 70
     1
102
RTVSPropertyOp11
 70
     1
102
RTVSPropertyOp12
 70
     1
102
RTVSPropertyOp13
 70
     1
102
RTVSPropertyOp14
 70
     1
102
RTVSPropertyOp15
 70
     1
102
RTVSPropertyOp16
 70
     1
102
RTVSPropertyOp17
 70
     1
102
RTVSPropertyOp18
 70
     1
102
RTVSPropertyOp19
 70
     1
102
RTVSPropertyOp20
 70
     1
102
RTVSPropertyOp21
 70
     1
102
RTVSPropertyOp22
 70
     1
102
RTVSPropertyOp23
 70
     1
102
RTVSPropertyOp24
 70
     1
102
RTVSPropertyOp25
 70
     1
102
RTVSPropertyOp26
 70
     1
102
RTVSPropertyOp27
 70
     1
  0
XRECORD
  5
7A01
102
{ACAD_REACTORS
330
7A00
102
}
330
7A00
100
AcDbXrecord
280
     1
102
RTVSPropertyOp0
 70
     1
102
RTVSPropertyOp1
 70
     1
102
RTVSPropertyOp2
 70
     1
102
RTVSPropertyOp3
 70
     1
102
RTVSPropertyOp4
 70
     1
102
RTVSPropertyOp5
 70
     1
102
RTVSPropertyOp6
 70
     1
102
RTVSPropertyOp7
 70
     1
102
RTVSPropertyOp8
 70
     1
102
RTVSPropertyOp9
 70
     1
102
RTVSPropertyOp10
 70
     1
102
RTVSPropertyOp11
 70
     1
102
RTVSPropertyOp12
 70
     1
102
RTVSPropertyOp13
 70
     1
102
RTVSPropertyOp14
 70
     1
102
RTVSPropertyOp15
 70
     1
102
RTVSPropertyOp16
 70
     1
102
RTVSPropertyOp17
 70
     1
102
RTVSPropertyOp18
 70
     1
102
RTVSPropertyOp19
 70
     1
102
RTVSPropertyOp20
 70
     1
102
RTVSPropertyOp21
 70
     1
102
RTVSPropertyOp22
 70
     1
102
RTVSPropertyOp23
 70
     1
102
RTVSPropertyOp24
 70
     1
102
RTVSPropertyOp25
 70
     1
102
RTVSPropertyOp26
 70
     1
102
RTVSPropertyOp27
 70
     1
  0
XRECORD
  5
7A0F
102
{ACAD_REACTORS
330
7A0E
102
}
330
7A0E
100
AcDbXrecord
280
     1
102
RTVSPropertyOp0
 70
     1
102
RTVSPropertyOp1
 70
     1
102
RTVSPropertyOp2
 70
     1
102
RTVSPropertyOp3
 70
     1
102
RTVSPropertyOp4
 70
     1
102
RTVSPropertyOp5
 70
     1
102
RTVSPropertyOp6
 70
     1
102
RTVSPropertyOp7
 70
     1
102
RTVSPropertyOp8
 70
     1
102
RTVSPropertyOp9
 70
     1
102
RTVSPropertyOp10
 70
     1
102
RTVSPropertyOp11
 70
     1
102
RTVSPropertyOp12
 70
     1
102
RTVSPropertyOp13
 70
     1
102
RTVSPropertyOp14
 70
     1
102
RTVSPropertyOp15
 70
     1
102
RTVSPropertyOp16
 70
     1
102
RTVSPropertyOp17
 70
     1
102
RTVSPropertyOp18
 70
     1
102
RTVSPropertyOp19
 70
     1
102
RTVSPropertyOp20
 70
     1
102
RTVSPropertyOp21
 70
     1
102
RTVSPropertyOp22
 70
     1
102
RTVSPropertyOp23
 70
     1
102
RTVSPropertyOp24
 70
     1
102
RTVSPropertyOp25
 70
     1
102
RTVSPropertyOp26
 70
     1
102
RTVSPropertyOp27
 70
     1
  0
XRECORD
  5
7A17
102
{ACAD_REACTORS
330
7A16
102
}
330
7A16
100
AcDbXrecord
280
     1
102
RTVSPropertyOp0
 70
     1
102
RTVSPropertyOp1
 70
     1
102
RTVSPropertyOp2
 70
     1
102
RTVSPropertyOp3
 70
     1
102
RTVSPropertyOp4
 70
     1
102
RTVSPropertyOp5
 70
     1
102
RTVSPropertyOp6
 70
     1
102
RTVSPropertyOp7
 70
     1
102
RTVSPropertyOp8
 70
     1
102
RTVSPropertyOp9
 70
     1
102
RTVSPropertyOp10
 70
     1
102
RTVSPropertyOp11
 70
     1
102
RTVSPropertyOp12
 70
     1
102
RTVSPropertyOp13
 70
     1
102
RTVSPropertyOp14
 70
     1
102
RTVSPropertyOp15
 70
     1
102
RTVSPropertyOp16
 70
     1
102
RTVSPropertyOp17
 70
     1
102
RTVSPropertyOp18
 70
     1
102
RTVSPropertyOp19
 70
     1
102
RTVSPropertyOp20
 70
     1
102
RTVSPropertyOp21
 70
     1
102
RTVSPropertyOp22
 70
     1
102
RTVSPropertyOp23
 70
     1
102
RTVSPropertyOp24
 70
     1
102
RTVSPropertyOp25
 70
     1
102
RTVSPropertyOp26
 70
     1
102
RTVSPropertyOp27
 70
     1
  0
XRECORD
  5
7A09
102
{ACAD_REACTORS
330
7A08
102
}
330
7A08
100
AcDbXrecord
280
     1
102
RTVSPropertyOp0
 70
     1
102
RTVSPropertyOp1
 70
     1
102
RTVSPropertyOp2
 70
     1
102
RTVSPropertyOp3
 70
     1
102
RTVSPropertyOp4
 70
     1
102
RTVSPropertyOp5
 70
     1
102
RTVSPropertyOp6
 70
     1
102
RTVSPropertyOp7
 70
     1
102
RTVSPropertyOp8
 70
     1
102
RTVSPropertyOp9
 70
     1
102
RTVSPropertyOp10
 70
     1
102
RTVSPropertyOp11
 70
     1
102
RTVSPropertyOp12
 70
     1
102
RTVSPropertyOp13
 70
     1
102
RTVSPropertyOp14
 70
     1
102
RTVSPropertyOp15
 70
     1
102
RTVSPropertyOp16
 70
     1
102
RTVSPropertyOp17
 70
     1
102
RTVSPropertyOp18
 70
     1
102
RTVSPropertyOp19
 70
     1
102
RTVSPropertyOp20
 70
     1
102
RTVSPropertyOp21
 70
     1
102
RTVSPropertyOp22
 70
     1
102
RTVSPropertyOp23
 70
     1
102
RTVSPropertyOp24
 70
     1
102
RTVSPropertyOp25
 70
     1
102
RTVSPropertyOp26
 70
     1
102
RTVSPropertyOp27
 70
     1
  0
XRECORD
  5
7A0D
102
{ACAD_REACTORS
330
7A0C
102
}
330
7A0C
100
AcDbXrecord
280
     1
102
RTVSPropertyOp0
 70
     1
102
RTVSPropertyOp1
 70
     1
102
RTVSPropertyOp2
 70
     1
102
RTVSPropertyOp3
 70
     1
102
RTVSPropertyOp4
 70
     1
102
RTVSPropertyOp5
 70
     1
102
RTVSPropertyOp6
 70
     1
102
RTVSPropertyOp7
 70
     1
102
RTVSPropertyOp8
 70
     1
102
RTVSPropertyOp9
 70
     1
102
RTVSPropertyOp10
 70
     1
102
RTVSPropertyOp11
 70
     1
102
RTVSPropertyOp12
 70
     1
102
RTVSPropertyOp13
 70
     1
102
RTVSPropertyOp14
 70
     1
102
RTVSPropertyOp15
 70
     1
102
RTVSPropertyOp16
 70
     1
102
RTVSPropertyOp17
 70
     1
102
RTVSPropertyOp18
 70
     1
102
RTVSPropertyOp19
 70
     1
102
RTVSPropertyOp20
 70
     1
102
RTVSPropertyOp21
 70
     1
102
RTVSPropertyOp22
 70
     1
102
RTVSPropertyOp23
 70
     1
102
RTVSPropertyOp24
 70
     1
102
RTVSPropertyOp25
 70
     1
102
RTVSPropertyOp26
 70
     1
102
RTVSPropertyOp27
 70
     1
  0
XRECORD
  5
7A1D
102
{ACAD_REACTORS
330
7A1C
102
}
330
7A1C
100
AcDbXrecord
280
     1
102
RTVSPropertyOp0
 70
     0
102
RTVSPropertyOp1
 70
     0
102
RTVSPropertyOp2
 70
     0
102
RTVSPropertyOp3
 70
     0
102
RTVSPropertyOp4
 70
     0
102
RTVSPropertyOp5
 70
     0
102
RTVSPropertyOp6
 70
     0
102
RTVSPropertyOp7
 70
     0
102
RTVSPropertyOp8
 70
     0
102
RTVSPropertyOp9
 70
     0
102
RTVSPropertyOp10
 70
     0
102
RTVSPropertyOp11
 70
     0
102
RTVSPropertyOp12
 70
     0
102
RTVSPropertyOp13
 70
     0
102
RTVSPropertyOp14
 70
     2
102
RTVSPropertyOp15
 70
     0
102
RTVSPropertyOp16
 70
     0
102
RTVSPropertyOp17
 70
     0
102
RTVSPropertyOp18
 70
     0
102
RTVSPropertyOp19
 70
     0
102
RTVSPropertyOp20
 70
     0
102
RTVSPropertyOp21
 70
     0
102
RTVSPropertyOp22
 70
     0
102
RTVSPropertyOp23
 70
     0
102
RTVSPropertyOp24
 70
     0
102
RTVSPropertyOp25
 70
     0
102
RTVSPropertyOp26
 70
     0
102
RTVSPropertyOp27
 70
     0
  0
XRECORD
  5
7A15
102
{ACAD_REACTORS
330
7A14
102
}
330
7A14
100
AcDbXrecord
280
     1
102
RTVSPropertyOp0
 70
     1
102
RTVSPropertyOp1
 70
     1
102
RTVSPropertyOp2
 70
     1
102
RTVSPropertyOp3
 70
     1
102
RTVSPropertyOp4
 70
     1
102
RTVSPropertyOp5
 70
     1
102
RTVSPropertyOp6
 70
     1
102
RTVSPropertyOp7
 70
     1
102
RTVSPropertyOp8
 70
     1
102
RTVSPropertyOp9
 70
     1
102
RTVSPropertyOp10
 70
     1
102
RTVSPropertyOp11
 70
     1
102
RTVSPropertyOp12
 70
     1
102
RTVSPropertyOp13
 70
     1
102
RTVSPropertyOp14
 70
     1
102
RTVSPropertyOp15
 70
     1
102
RTVSPropertyOp16
 70
     1
102
RTVSPropertyOp17
 70
     1
102
RTVSPropertyOp18
 70
     1
102
RTVSPropertyOp19
 70
     1
102
RTVSPropertyOp20
 70
     1
102
RTVSPropertyOp21
 70
     1
102
RTVSPropertyOp22
 70
     1
102
RTVSPropertyOp23
 70
     1
102
RTVSPropertyOp24
 70
     1
102
RTVSPropertyOp25
 70
     1
102
RTVSPropertyOp26
 70
     1
102
RTVSPropertyOp27
 70
     1
  0
XRECORD
  5
79F9
102
{ACAD_REACTORS
330
79F8
102
}
330
79F8
100
AcDbXrecord
280
     1
102
RTVSPropertyOp0
 70
     1
102
RTVSPropertyOp1
 70
     1
102
RTVSPropertyOp2
 70
     1
102
RTVSPropertyOp3
 70
     1
102
RTVSPropertyOp4
 70
     1
102
RTVSPropertyOp5
 70
     1
102
RTVSPropertyOp6
 70
     1
102
RTVSPropertyOp7
 70
     1
102
RTVSPropertyOp8
 70
     1
102
RTVSPropertyOp9
 70
     1
102
RTVSPropertyOp10
 70
     1
102
RTVSPropertyOp11
 70
     1
102
RTVSPropertyOp12
 70
     1
102
RTVSPropertyOp13
 70
     1
102
RTVSPropertyOp14
 70
     1
102
RTVSPropertyOp15
 70
     1
102
RTVSPropertyOp16
 70
     1
102
RTVSPropertyOp17
 70
     1
102
RTVSPropertyOp18
 70
     1
102
RTVSPropertyOp19
 70
     1
102
RTVSPropertyOp20
 70
     1
102
RTVSPropertyOp21
 70
     1
102
RTVSPropertyOp22
 70
     1
102
RTVSPropertyOp23
 70
     1
102
RTVSPropertyOp24
 70
     1
102
RTVSPropertyOp25
 70
     1
102
RTVSPropertyOp26
 70
     1
102
RTVSPropertyOp27
 70
     1
  0
XRECORD
  5
79FB
102
{ACAD_REACTORS
330
79FA
102
}
330
79FA
100
AcDbXrecord
280
     1
102
RTVSPropertyOp0
 70
     1
102
RTVSPropertyOp1
 70
     1
102
RTVSPropertyOp2
 70
     1
102
RTVSPropertyOp3
 70
     1
102
RTVSPropertyOp4
 70
     1
102
RTVSPropertyOp5
 70
     1
102
RTVSPropertyOp6
 70
     1
102
RTVSPropertyOp7
 70
     1
102
RTVSPropertyOp8
 70
     1
102
RTVSPropertyOp9
 70
     1
102
RTVSPropertyOp10
 70
     1
102
RTVSPropertyOp11
 70
     1
102
RTVSPropertyOp12
 70
     1
102
RTVSPropertyOp13
 70
     1
102
RTVSPropertyOp14
 70
     1
102
RTVSPropertyOp15
 70
     1
102
RTVSPropertyOp16
 70
     1
102
RTVSPropertyOp17
 70
     1
102
RTVSPropertyOp18
 70
     1
102
RTVSPropertyOp19
 70
     1
102
RTVSPropertyOp20
 70
     1
102
RTVSPropertyOp21
 70
     1
102
RTVSPropertyOp22
 70
     1
102
RTVSPropertyOp23
 70
     1
102
RTVSPropertyOp24
 70
     1
102
RTVSPropertyOp25
 70
     1
102
RTVSPropertyOp26
 70
     1
102
RTVSPropertyOp27
 70
     1
  0
XRECORD
  5
79FD
102
{ACAD_REACTORS
330
79FC
102
}
330
79FC
100
AcDbXrecord
280
     1
102
RTVSPropertyOp0
 70
     1
102
RTVSPropertyOp1
 70
     1
102
RTVSPropertyOp2
 70
     1
102
RTVSPropertyOp3
 70
     1
102
RTVSPropertyOp4
 70
     1
102
RTVSPropertyOp5
 70
     1
102
RTVSPropertyOp6
 70
     1
102
RTVSPropertyOp7
 70
     1
102
RTVSPropertyOp8
 70
     1
102
RTVSPropertyOp9
 70
     1
102
RTVSPropertyOp10
 70
     1
102
RTVSPropertyOp11
 70
     1
102
RTVSPropertyOp12
 70
     1
102
RTVSPropertyOp13
 70
     1
102
RTVSPropertyOp14
 70
     1
102
RTVSPropertyOp15
 70
     1
102
RTVSPropertyOp16
 70
     1
102
RTVSPropertyOp17
 70
     1
102
RTVSPropertyOp18
 70
     1
102
RTVSPropertyOp19
 70
     1
102
RTVSPropertyOp20
 70
     1
102
RTVSPropertyOp21
 70
     1
102
RTVSPropertyOp22
 70
     1
102
RTVSPropertyOp23
 70
     1
102
RTVSPropertyOp24
 70
     1
102
RTVSPropertyOp25
 70
     1
102
RTVSPropertyOp26
 70
     1
102
RTVSPropertyOp27
 70
     1
  0
XRECORD
  5
79FF
102
{ACAD_REACTORS
330
79FE
102
}
330
79FE
100
AcDbXrecord
280
     1
102
RTVSPropertyOp0
 70
     1
102
RTVSPropertyOp1
 70
     1
102
RTVSPropertyOp2
 70
     1
102
RTVSPropertyOp3
 70
     1
102
RTVSPropertyOp4
 70
     1
102
RTVSPropertyOp5
 70
     1
102
RTVSPropertyOp6
 70
     1
102
RTVSPropertyOp7
 70
     1
102
RTVSPropertyOp8
 70
     1
102
RTVSPropertyOp9
 70
     1
102
RTVSPropertyOp10
 70
     1
102
RTVSPropertyOp11
 70
     1
102
RTVSPropertyOp12
 70
     1
102
RTVSPropertyOp13
 70
     1
102
RTVSPropertyOp14
 70
     1
102
RTVSPropertyOp15
 70
     1
102
RTVSPropertyOp16
 70
     1
102
RTVSPropertyOp17
 70
     1
102
RTVSPropertyOp18
 70
     1
102
RTVSPropertyOp19
 70
     1
102
RTVSPropertyOp20
 70
     1
102
RTVSPropertyOp21
 70
     1
102
RTVSPropertyOp22
 70
     1
102
RTVSPropertyOp23
 70
     1
102
RTVSPropertyOp24
 70
     1
102
RTVSPropertyOp25
 70
     1
102
RTVSPropertyOp26
 70
     1
102
RTVSPropertyOp27
 70
     1
  0
XRECORD
  5
7A19
102
{ACAD_REACTORS
330
7A18
102
}
330
7A18
100
AcDbXrecord
280
     1
102
RTVSPropertyOp0
 70
     0
102
RTVSPropertyOp1
 70
     0
102
RTVSPropertyOp2
 70
     0
102
RTVSPropertyOp3
 70
     0
102
RTVSPropertyOp4
 70
     0
102
RTVSPropertyOp5
 70
     0
102
RTVSPropertyOp6
 70
     0
102
RTVSPropertyOp7
 70
     0
102
RTVSPropertyOp8
 70
     0
102
RTVSPropertyOp9
 70
     0
102
RTVSPropertyOp10
 70
     0
102
RTVSPropertyOp11
 70
     0
102
RTVSPropertyOp12
 70
     0
102
RTVSPropertyOp13
 70
     0
102
RTVSPropertyOp14
 70
     2
102
RTVSPropertyOp15
 70
     0
102
RTVSPropertyOp16
 70
     0
102
RTVSPropertyOp17
 70
     0
102
RTVSPropertyOp18
 70
     0
102
RTVSPropertyOp19
 70
     0
102
RTVSPropertyOp20
 70
     0
102
RTVSPropertyOp21
 70
     0
102
RTVSPropertyOp22
 70
     0
102
RTVSPropertyOp23
 70
     0
102
RTVSPropertyOp24
 70
     0
102
RTVSPropertyOp25
 70
     0
102
RTVSPropertyOp26
 70
     0
102
RTVSPropertyOp27
 70
     0
  0
XRECORD
  5
7A13
102
{ACAD_REACTORS
330
7A12
102
}
330
7A12
100
AcDbXrecord
280
     1
102
RTVSPropertyOp0
 70
     1
102
RTVSPropertyOp1
 70
     1
102
RTVSPropertyOp2
 70
     1
102
RTVSPropertyOp3
 70
     1
102
RTVSPropertyOp4
 70
     1
102
RTVSPropertyOp5
 70
     1
102
RTVSPropertyOp6
 70
     1
102
RTVSPropertyOp7
 70
     1
102
RTVSPropertyOp8
 70
     1
102
RTVSPropertyOp9
 70
     1
102
RTVSPropertyOp10
 70
     1
102
RTVSPropertyOp11
 70
     1
102
RTVSPropertyOp12
 70
     1
102
RTVSPropertyOp13
 70
     1
102
RTVSPropertyOp14
 70
     1
102
RTVSPropertyOp15
 70
     1
102
RTVSPropertyOp16
 70
     1
102
RTVSPropertyOp17
 70
     1
102
RTVSPropertyOp18
 70
     1
102
RTVSPropertyOp19
 70
     1
102
RTVSPropertyOp20
 70
     1
102
RTVSPropertyOp21
 70
     1
102
RTVSPropertyOp22
 70
     1
102
RTVSPropertyOp23
 70
     1
102
RTVSPropertyOp24
 70
     1
102
RTVSPropertyOp25
 70
     1
102
RTVSPropertyOp26
 70
     1
102
RTVSPropertyOp27
 70
     1
  0
XRECORD
  5
7A1B
102
{ACAD_REACTORS
330
7A1A
102
}
330
7A1A
100
AcDbXrecord
280
     1
102
RTVSPropertyOp0
 70
     0
102
RTVSPropertyOp1
 70
     0
102
RTVSPropertyOp2
 70
     0
102
RTVSPropertyOp3
 70
     0
102
RTVSPropertyOp4
 70
     0
102
RTVSPropertyOp5
 70
     0
102
RTVSPropertyOp6
 70
     0
102
RTVSPropertyOp7
 70
     0
102
RTVSPropertyOp8
 70
     0
102
RTVSPropertyOp9
 70
     0
102
RTVSPropertyOp10
 70
     0
102
RTVSPropertyOp11
 70
     0
102
RTVSPropertyOp12
 70
     0
102
RTVSPropertyOp13
 70
     0
102
RTVSPropertyOp14
 70
     2
102
RTVSPropertyOp15
 70
     0
102
RTVSPropertyOp16
 70
     0
102
RTVSPropertyOp17
 70
     0
102
RTVSPropertyOp18
 70
     0
102
RTVSPropertyOp19
 70
     0
102
RTVSPropertyOp20
 70
     0
102
RTVSPropertyOp21
 70
     0
102
RTVSPropertyOp22
 70
     0
102
RTVSPropertyOp23
 70
     0
102
RTVSPropertyOp24
 70
     0
102
RTVSPropertyOp25
 70
     0
102
RTVSPropertyOp26
 70
     0
102
RTVSPropertyOp27
 70
     0
  0
XRECORD
  5
7A0B
102
{ACAD_REACTORS
330
7A0A
102
}
330
7A0A
100
AcDbXrecord
280
     1
102
RTVSPropertyOp0
 70
     1
102
RTVSPropertyOp1
 70
     1
102
RTVSPropertyOp2
 70
     1
102
RTVSPropertyOp3
 70
     1
102
RTVSPropertyOp4
 70
     1
102
RTVSPropertyOp5
 70
     1
102
RTVSPropertyOp6
 70
     1
102
RTVSPropertyOp7
 70
     1
102
RTVSPropertyOp8
 70
     1
102
RTVSPropertyOp9
 70
     1
102
RTVSPropertyOp10
 70
     1
102
RTVSPropertyOp11
 70
     1
102
RTVSPropertyOp12
 70
     1
102
RTVSPropertyOp13
 70
     1
102
RTVSPropertyOp14
 70
     1
102
RTVSPropertyOp15
 70
     1
102
RTVSPropertyOp16
 70
     1
102
RTVSPropertyOp17
 70
     1
102
RTVSPropertyOp18
 70
     1
102
RTVSPropertyOp19
 70
     1
102
RTVSPropertyOp20
 70
     1
102
RTVSPropertyOp21
 70
     1
102
RTVSPropertyOp22
 70
     1
102
RTVSPropertyOp23
 70
     1
102
RTVSPropertyOp24
 70
     1
102
RTVSPropertyOp25
 70
     1
102
RTVSPropertyOp26
 70
     1
102
RTVSPropertyOp27
 70
     1
  0
XRECORD
  5
7A11
102
{ACAD_REACTORS
330
7A10
102
}
330
7A10
100
AcDbXrecord
280
     1
102
RTVSPropertyOp0
 70
     1
102
RTVSPropertyOp1
 70
     1
102
RTVSPropertyOp2
 70
     1
102
RTVSPropertyOp3
 70
     1
102
RTVSPropertyOp4
 70
     1
102
RTVSPropertyOp5
 70
     1
102
RTVSPropertyOp6
 70
     1
102
RTVSPropertyOp7
 70
     1
102
RTVSPropertyOp8
 70
     1
102
RTVSPropertyOp9
 70
     1
102
RTVSPropertyOp10
 70
     1
102
RTVSPropertyOp11
 70
     1
102
RTVSPropertyOp12
 70
     1
102
RTVSPropertyOp13
 70
     1
102
RTVSPropertyOp14
 70
     1
102
RTVSPropertyOp15
 70
     1
102
RTVSPropertyOp16
 70
     1
102
RTVSPropertyOp17
 70
     1
102
RTVSPropertyOp18
 70
     1
102
RTVSPropertyOp19
 70
     1
102
RTVSPropertyOp20
 70
     1
102
RTVSPropertyOp21
 70
     1
102
RTVSPropertyOp22
 70
     1
102
RTVSPropertyOp23
 70
     1
102
RTVSPropertyOp24
 70
     1
102
RTVSPropertyOp25
 70
     1
102
RTVSPropertyOp26
 70
     1
102
RTVSPropertyOp27
 70
     1
  0
ENDSEC
  0
EOF
