  0
SECTION
  2
HEADER
  9
$ACADVER
  1
AC1018
  9
$ACADMAINTVER
 70
   104
  9
$DWGCODEPAGE
  3
ANSI_1252
  9
$LASTSAVEDBY
  1
admin
  9
$INSBASE
 10
0.0
 20
0.0
 30
0.0
  9
$EXTMIN
 10
188.0601428524223
 20
83.98533935297677
 30
-0.0015258207003583
  9
$EXTMAX
 10
586.5648215265864
 20
715.1889770012249
 30
0.0000000349246037
  9
$LIMMIN
 10
0.0
 20
0.0
  9
$LIMMAX
 10
420.0
 20
297.0
  9
$ORTHOMODE
 70
     0
  9
$REGENMODE
 70
     1
  9
$FILLMODE
 70
     1
  9
$QTEXTMODE
 70
     0
  9
$MIRRTEXT
 70
     0
  9
$LTSCALE
 40
1.0
  9
$ATTMODE
 70
     1
  9
$TEXTSIZE
 40
2.5
  9
$TRACEWID
 40
1.0
  9
$TEXTSTYLE
  7
Standard
  9
$CLAYER
  8
0
  9
$CELTYPE
  6
ByLayer
  9
$CECOLOR
 62
   256
  9
$CELTSCALE
 40
1.0
  9
$DISPSILH
 70
     0
  9
$DIMSCALE
 40
1.0
  9
$DIMASZ
 40
2.5
  9
$DIMEXO
 40
0.625
  9
$DIMDLI
 40
3.75
  9
$DIMRND
 40
0.0
  9
$DIMDLE
 40
0.0
  9
$DIMEXE
 40
1.25
  9
$DIMTP
 40
0.0
  9
$DIMTM
 40
0.0
  9
$DIMTXT
 40
2.5
  9
$DIMCEN
 40
2.5
  9
$DIMTSZ
 40
0.0
  9
$DIMTOL
 70
     0
  9
$DIMLIM
 70
     0
  9
$DIMTIH
 70
     0
  9
$DIMTOH
 70
     0
  9
$DIMSE1
 70
     0
  9
$DIMSE2
 70
     0
  9
$DIMTAD
 70
     1
  9
$DIMZIN
 70
     8
  9
$DIMBLK
  1

  9
$DIMASO
 70
     1
  9
$DIMSHO
 70
     1
  9
$DIMPOST
  1

  9
$DIMAPOST
  1

  9
$DIMALT
 70
     0
  9
$DIMALTD
 70
     3
  9
$DIMALTF
 40
0.03937007874016
  9
$DIMLFAC
 40
1.0
  9
$DIMTOFL
 70
     1
  9
$DIMTVP
 40
0.0
  9
$DIMTIX
 70
     0
  9
$DIMSOXD
 70
     0
  9
$DIMSAH
 70
     0
  9
$DIMBLK1
  1

  9
$DIMBLK2
  1

  9
$DIMSTYLE
  2
ISO-25
  9
$DIMCLRD
 70
     0
  9
$DIMCLRE
 70
     0
  9
$DIMCLRT
 70
     0
  9
$DIMTFAC
 40
1.0
  9
$DIMGAP
 40
0.625
  9
$DIMJUST
 70
     0
  9
$DIMSD1
 70
     0
  9
$DIMSD2
 70
     0
  9
$DIMTOLJ
 70
     0
  9
$DIMTZIN
 70
     8
  9
$DIMALTZ
 70
     0
  9
$DIMALTTZ
 70
     0
  9
$DIMUPT
 70
     0
  9
$DIMDEC
 70
     2
  9
$DIMTDEC
 70
     2
  9
$DIMALTU
 70
     2
  9
$DIMALTTD
 70
     3
  9
$DIMTXSTY
  7
Standard
  9
$DIMAUNIT
 70
     0
  9
$DIMADEC
 70
     0
  9
$DIMALTRND
 40
0.0
  9
$DIMAZIN
 70
     0
  9
$DIMDSEP
 70
    44
  9
$DIMATFIT
 70
     3
  9
$DIMFRAC
 70
     0
  9
$DIMLDRBLK
  1

  9
$DIMLUNIT
 70
     2
  9
$DIMLWD
 70
    -2
  9
$DIMLWE
 70
    -2
  9
$DIMTMOVE
 70
     0
  9
$LUNITS
 70
     2
  9
$LUPREC
 70
     4
  9
$SKETCHINC
 40
1.0
  9
$FILLETRAD
 40
0.0
  9
$AUNITS
 70
     0
  9
$AUPREC
 70
     0
  9
$MENU
  1
.
  9
$ELEVATION
 40
0.0
  9
$PELEVATION
 40
0.0
  9
$THICKNESS
 40
0.0
  9
$LIMCHECK
 70
     0
  9
$CHAMFERA
 40
0.0
  9
$CHAMFERB
 40
0.0
  9
$CHAMFERC
 40
0.0
  9
$CHAMFERD
 40
0.0
  9
$SKPOLY
 70
     0
  9
$TDCREATE
 40
2457869.280614120
  9
$TDUCREATE
 40
2457869.197280787
  9
$TDUPDATE
 40
2457869.363121111
  9
$TDUUPDATE
 40
2457869.279787778
  9
$TDINDWG
 40
0.0825073495
  9
$TDUSRTIMER
 40
0.0825071644
  9
$USRTIMER
 70
     1
  9
$ANGBASE
 50
0.0
  9
$ANGDIR
 70
     0
  9
$PDMODE
 70
     0
  9
$PDSIZE
 40
0.0
  9
$PLINEWID
 40
0.0
  9
$SPLFRAME
 70
     0
  9
$SPLINETYPE
 70
     6
  9
$SPLINESEGS
 70
     8
  9
$HANDSEED
  5
9467
  9
$SURFTAB1
 70
     6
  9
$SURFTAB2
 70
     6
  9
$SURFTYPE
 70
     6
  9
$SURFU
 70
     6
  9
$SURFV
 70
     6
  9
$UCSBASE
  2

  9
$UCSNAME
  2

  9
$UCSORG
 10
0.0
 20
0.0
 30
0.0
  9
$UCSXDIR
 10
1.0
 20
0.0
 30
0.0
  9
$UCSYDIR
 10
0.0
 20
1.0
 30
0.0
  9
$UCSORTHOREF
  2

  9
$UCSORTHOVIEW
 70
     0
  9
$UCSORGTOP
 10
0.0
 20
0.0
 30
0.0
  9
$UCSORGBOTTOM
 10
0.0
 20
0.0
 30
0.0
  9
$UCSORGLEFT
 10
0.0
 20
0.0
 30
0.0
  9
$UCSORGRIGHT
 10
0.0
 20
0.0
 30
0.0
  9
$UCSORGFRONT
 10
0.0
 20
0.0
 30
0.0
  9
$UCSORGBACK
 10
0.0
 20
0.0
 30
0.0
  9
$PUCSBASE
  2

  9
$PUCSNAME
  2

  9
$PUCSORG
 10
0.0
 20
0.0
 30
0.0
  9
$PUCSXDIR
 10
1.0
 20
0.0
 30
0.0
  9
$PUCSYDIR
 10
0.0
 20
1.0
 30
0.0
  9
$PUCSORTHOREF
  2

  9
$PUCSORTHOVIEW
 70
     0
  9
$PUCSORGTOP
 10
0.0
 20
0.0
 30
0.0
  9
$PUCSORGBOTTOM
 10
0.0
 20
0.0
 30
0.0
  9
$PUCSORGLEFT
 10
0.0
 20
0.0
 30
0.0
  9
$PUCSORGRIGHT
 10
0.0
 20
0.0
 30
0.0
  9
$PUCSORGFRONT
 10
0.0
 20
0.0
 30
0.0
  9
$PUCSORGBACK
 10
0.0
 20
0.0
 30
0.0
  9
$USERI1
 70
     0
  9
$USERI2
 70
     0
  9
$USERI3
 70
     0
  9
$USERI4
 70
     0
  9
$USERI5
 70
     0
  9
$USERR1
 40
0.0
  9
$USERR2
 40
0.0
  9
$USERR3
 40
0.0
  9
$USERR4
 40
0.0
  9
$USERR5
 40
0.0
  9
$WORLDVIEW
 70
     1
  9
$SHADEDGE
 70
     3
  9
$SHADEDIF
 70
    70
  9
$TILEMODE
 70
     1
  9
$MAXACTVP
 70
    64
  9
$PINSBASE
 10
0.0
 20
0.0
 30
0.0
  9
$PLIMCHECK
 70
     0
  9
$PEXTMIN
 10
1.000000000000000E+20
 20
1.000000000000000E+20
 30
1.000000000000000E+20
  9
$PEXTMAX
 10
-1.000000000000000E+20
 20
-1.000000000000000E+20
 30
-1.000000000000000E+20
  9
$PLIMMIN
 10
0.0
 20
0.0
  9
$PLIMMAX
 10
420.0
 20
297.0
  9
$UNITMODE
 70
     0
  9
$VISRETAIN
 70
     1
  9
$PLINEGEN
 70
     0
  9
$PSLTSCALE
 70
     1
  9
$TREEDEPTH
 70
  3020
  9
$CMLSTYLE
  2
Standard
  9
$CMLJUST
 70
     0
  9
$CMLSCALE
 40
20.0
  9
$PROXYGRAPHICS
 70
     1
  9
$MEASUREMENT
 70
     1
  9
$CELWEIGHT
370
    -1
  9
$ENDCAPS
280
     0
  9
$JOINSTYLE
280
     0
  9
$LWDISPLAY
290
     0
  9
$INSUNITS
 70
     4
  9
$HYPERLINKBASE
  1

  9
$STYLESHEET
  1

  9
$XEDIT
290
     1
  9
$CEPSNTYPE
380
     0
  9
$PSTYLEMODE
290
     1
  9
$FINGERPRINTGUID
  2
{9DFB5F12-FE38-410F-B4C1-738DA96BFA2A}
  9
$VERSIONGUID
  2
{820EE889-759E-4CAD-9274-97B48C0C939C}
  9
$EXTNAMES
290
     1
  9
$PSVPSCALE
 40
0.0
  9
$OLESTARTUP
290
     0
  9
$SORTENTS
280
   127
  9
$INDEXCTL
280
     0
  9
$HIDETEXT
280
     1
  9
$XCLIPFRAME
290
     0
  9
$HALOGAP
280
     0
  9
$OBSCOLOR
 70
   257
  9
$OBSLTYPE
280
     0
  9
$INTERSECTIONDISPLAY
280
     0
  9
$INTERSECTIONCOLOR
 70
   257
  9
$DIMASSOC
280
     2
  9
$PROJECTNAME
  1

  0
ENDSEC
  0
SECTION
  2
CLASSES
  0
CLASS
  1
ACDBDICTIONARYWDFLT
  2
AcDbDictionaryWithDefault
  3
ObjectDBX Classes
 90
        0
 91
        1
280
     0
281
     0
  0
CLASS
  1
MATERIAL
  2
AcDbMaterial
  3
ObjectDBX Classes
 90
     1153
 91
        3
280
     0
281
     0
  0
CLASS
  1
VISUALSTYLE
  2
AcDbVisualStyle
  3
ObjectDBX Classes
 90
     4095
 91
       19
280
     0
281
     0
  0
CLASS
  1
SCALE
  2
AcDbScale
  3
ObjectDBX Classes
 90
     1153
 91
       17
280
     0
281
     0
  0
CLASS
  1
TABLESTYLE
  2
AcDbTableStyle
  3
ObjectDBX Classes
 90
     4095
 91
        1
280
     0
281
     0
  0
CLASS
  1
MLEADERSTYLE
  2
AcDbMLeaderStyle
  3
ACDB_MLEADERSTYLE_CLASS
 90
     4095
 91
        1
280
     0
281
     0
  0
CLASS
  1
SORTENTSTABLE
  2
AcDbSortentsTable
  3
ObjectDBX Classes
 90
        0
 91
      157
280
     0
281
     0
  0
CLASS
  1
AEC_REFEDIT_STATUS_TRACKER
  2
AecDbRefEditStatusTracker
  3
AecArchBase60|Product Desc: Autodesk Architectural Desktop 2007 |Company: Autodesk,Inc. |WEB Address: www.autodesk.com
 90
      129
 91
        1
280
     0
281
     0
  0
CLASS
  1
NPOCOLLECTION
  2
AcDbImpNonPersistentObjectsCollection
  3
ObjectDBX Classes
 90
     1153
 91
        1
280
     0
281
     0
  0
CLASS
  1
DICTIONARYVAR
  2
AcDbDictionaryVar
  3
ObjectDBX Classes
 90
        0
 91
      299
280
     0
281
     0
  0
CLASS
  1
CELLSTYLEMAP
  2
AcDbCellStyleMap
  3
ObjectDBX Classes
 90
     1152
 91
       34
280
     0
281
     0
  0
CLASS
  1
DIMASSOC
  2
AcDbDimAssoc
  3
"AcDbDimAssoc|Product Desc:     AcDim ARX App For Dimension|Company:          Autodesk, Inc.|WEB Address:      www.autodesk.com"
 90
        0
 91
        2
280
     0
281
     0
  0
ENDSEC
  0
SECTION
  2
TABLES
  0
TABLE
  2
VPORT
  5
8
330
0
100
AcDbSymbolTable
 70
     1
  0
VPORT
  5
52
330
8
100
AcDbSymbolTableRecord
100
AcDbViewportTableRecord
  2
*Active
 70
     0
 10
0.0
 20
0.0
 11
1.0
 21
1.0
 12
387.3124821895046
 22
399.5871581771009
 13
0.0
 23
0.0
 14
10.0
 24
10.0
 15
10.0
 25
10.0
 16
0.0
 26
0.0
 36
1.0
 17
0.0
 27
0.0
 37
0.0
 40
635.3068032234264
 41
1.888286334056399
 42
50.0
 43
0.0
 44
0.0
 50
0.0
 51
0.0
 71
     0
 72
  1000
 73
     1
 74
     3
 75
     0
 76
     0
 77
     0
 78
     0
281
     0
 65
     1
110
0.0
120
0.0
130
0.0
111
1.0
121
0.0
131
0.0
112
0.0
122
1.0
132
0.0
 79
     0
146
0.0
  0
ENDTAB
  0
TABLE
  2
LTYPE
  5
5
330
0
100
AcDbSymbolTable
 70
     2
  0
LTYPE
  5
56
330
5
100
AcDbSymbolTableRecord
100
AcDbLinetypeTableRecord
  2
ByBlock
 70
     0
  3

 72
    65
 73
     0
 40
0.0
  0
LTYPE
  5
57
330
5
100
AcDbSymbolTableRecord
100
AcDbLinetypeTableRecord
  2
ByLayer
 70
     0
  3

 72
    65
 73
     0
 40
0.0
  0
LTYPE
  5
58
330
5
100
AcDbSymbolTableRecord
100
AcDbLinetypeTableRecord
  2
Continuous
 70
     0
  3
Solid line
 72
    65
 73
     0
 40
0.0
  0
LTYPE
  5
932A
330
5
100
AcDbSymbolTableRecord
100
AcDbLinetypeTableRecord
  2
JIS_02_0.7
 70
     0
  3
HIDDEN0.75 _ _ _ _ _ _ _ _ _ _ _ _ _ _ _ _ _
 72
    65
 73
     2
 40
1.35
 49
0.75
 74
     0
 49
-0.6
 74
     0
  0
ENDTAB
  0
TABLE
  2
LAYER
  5
2
102
{ACAD_XDICTIONARY
360
933C
102
}
330
0
100
AcDbSymbolTable
 70
     7
  0
LAYER
  5
4F
330
2
100
AcDbSymbolTableRecord
100
AcDbLayerTableRecord
  2
0
 70
     0
 62
     7
  6
Continuous
370
    -3
390
F
  0
LAYER
  5
932B
330
2
100
AcDbSymbolTableRecord
100
AcDbLayerTableRecord
  2
F_01 sichtbar
 70
     0
 62
     7
  6
Continuous
370
    -3
390
F
1001
AcAecLayerStandard
1000

1000

  0
LAYER
  5
932C
330
2
100
AcDbSymbolTableRecord
100
AcDbLayerTableRecord
  2
F_31 Ansichtsfenster
 70
     0
 62
    12
  6
Continuous
290
     0
370
    40
390
F
1001
AcAecLayerStandard
1000

1000

  0
LAYER
  5
932D
330
2
100
AcDbSymbolTableRecord
100
AcDbLayerTableRecord
  2
F_02 unsichtbar
 70
     0
 62
     8
  6
JIS_02_0.7
370
    -3
390
F
1001
AcAecLayerStandard
1000

1000

  0
LAYER
  5
932E
330
2
100
AcDbSymbolTableRecord
100
AcDbLayerTableRecord
  2
F_15 Schr-Mauer hell
 70
     0
 62
   254
  6
Continuous
370
    -3
390
F
1001
AcAecLayerStandard
1000

1000

  0
LAYER
  5
932F
330
2
100
AcDbSymbolTableRecord
100
AcDbLayerTableRecord
  2
F_18 Schr-Holz hell
 70
     0
 62
    41
  6
Continuous
370
    -3
390
F
1001
AcAecLayerStandard
1000

1000

  0
LAYER
  5
9330
102
{ACAD_XDICTIONARY
360
9331
102
}
330
2
100
AcDbSymbolTableRecord
100
AcDbLayerTableRecord
  2
F_11 Schraffur
 70
     0
 62
    11
  6
Continuous
370
    -3
390
F
1001
AcAecLayerStandard
1000

1000

  0
ENDTAB
  0
TABLE
  2
STYLE
  5
3
330
0
100
AcDbSymbolTable
 70
     3
  0
STYLE
  5
50
330
3
100
AcDbSymbolTableRecord
100
AcDbTextStyleTableRecord
  2
Standard
 70
     0
 40
0.0
 41
1.0
 50
0.0
 71
     0
 42
2.5
  3
txt
  4

  0
STYLE
  5
55
330
3
100
AcDbSymbolTableRecord
100
AcDbTextStyleTableRecord
  2
Annotative
 70
     0
 40
0.0
 41
1.0
 50
0.0
 71
     0
 42
0.2
  3
txt
  4

1001
AcadAnnotative
1000
AnnotativeData
1002
{
1070
     1
1070
     1
1002
}
  0
STYLE
  5
9332
330
3
100
AcDbSymbolTableRecord
100
AcDbTextStyleTableRecord
  2
Arial
 70
     0
 40
0.0
 41
1.0
 50
0.0
 71
     0
 42
3.0
  3
ARIALN.TTF
  4

1001
AcadAnnotative
1000
AnnotativeData
1002
{
1070
     1
1070
     1
1002
}
1001
ACAD
1000
Arial Narrow
1071
       34
  0
ENDTAB
  0
TABLE
  2
VIEW
  5
6
330
0
100
AcDbSymbolTable
 70
     0
  0
ENDTAB
  0
TABLE
  2
UCS
  5
7
330
0
100
AcDbSymbolTable
 70
     0
  0
ENDTAB
  0
TABLE
  2
APPID
  5
9
330
0
100
AcDbSymbolTable
 70
     8
  0
APPID
  5
51
330
9
100
AcDbSymbolTableRecord
100
AcDbRegAppTableRecord
  2
ACAD
 70
     0
  0
APPID
  5
59
330
9
100
AcDbSymbolTableRecord
100
AcDbRegAppTableRecord
  2
AcadAnnotative
 70
     0
  0
APPID
  5
9338
330
9
100
AcDbSymbolTableRecord
100
AcDbRegAppTableRecord
  2
AcAecLayerStandard
 70
     0
  0
APPID
  5
9339
330
9
100
AcDbSymbolTableRecord
100
AcDbRegAppTableRecord
  2
ACAD_PSEXT
 70
     0
  0
APPID
  5
933A
330
9
100
AcDbSymbolTableRecord
100
AcDbRegAppTableRecord
  2
ACAD_DSTYLE_DIMJAG
 70
     0
  0
APPID
  5
933B
330
9
100
AcDbSymbolTableRecord
100
AcDbRegAppTableRecord
  2
ACAD_DSTYLE_DIMTALN
 70
     0
  0
APPID
  5
9464
330
9
100
AcDbSymbolTableRecord
100
AcDbRegAppTableRecord
  2
ACAD_DSTYLE_DIMJOGGED_JOGANGLE_SYMBOL
 70
     0
  0
APPID
  5
9466
330
9
100
AcDbSymbolTableRecord
100
AcDbRegAppTableRecord
  2
ACAD_MLEADERVER
 70
     0
  0
ENDTAB
  0
TABLE
  2
DIMSTYLE
  5
A
330
0
100
AcDbSymbolTable
 70
     7
100
AcDbDimStyleTable
 71
     0
  0
DIMSTYLE
105
53
330
A
100
AcDbSymbolTableRecord
100
AcDbDimStyleTableRecord
  2
ISO-25
 70
     0
 41
2.5
 42
0.625
 43
3.75
 44
1.25
 73
     0
 74
     0
 77
     1
 78
     8
140
2.5
141
2.5
143
0.03937007874016
147
0.625
171
     3
172
     1
271
     2
272
     2
274
     3
278
    44
283
     0
284
     8
340
50
1001
ACAD_DSTYLE_DIMJOGGED_JOGANGLE_SYMBOL
1070
   384
1040
1.570796326794896
  0
DIMSTYLE
105
54
330
A
100
AcDbSymbolTableRecord
100
AcDbDimStyleTableRecord
  2
Annotative
 70
     0
340
50
1001
AcadAnnotative
1000
AnnotativeData
1002
{
1070
     1
1070
     1
1002
}
  0
DIMSTYLE
105
9333
330
A
100
AcDbSymbolTableRecord
100
AcDbDimStyleTableRecord
  2
MST 1-1
 70
     0
 41
2.0
 42
2.0
 43
2.0
 44
1.0
 46
2.0
 73
     0
 74
     0
 77
     3
 78
     8
 79
     2
140
3.0
141
2.5
143
0.03937007874016
147
1.0
171
     3
176
   256
177
   256
178
     3
179
     1
271
     1
272
     1
274
     3
279
     2
284
     8
340
9332
342
9324
1001
ACAD_DSTYLE_DIMJAG
1070
   388
1040
1.5
1001
ACAD_DSTYLE_DIMTALN
1070
   392
1070
     0
  0
DIMSTYLE
105
9334
330
A
100
AcDbSymbolTableRecord
100
AcDbDimStyleTableRecord
  2
MST 1-2
 70
     0
 40
2.0
 41
2.0
 42
2.0
 43
2.0
 44
1.0
 46
2.0
 73
     0
 74
     0
 77
     3
 78
     8
 79
     2
140
3.0
141
1.0
143
0.03937007874016
147
1.0
171
     3
176
   256
177
   256
178
     3
179
     1
271
     1
272
     1
274
     3
279
     2
284
     8
340
9332
342
9324
  0
DIMSTYLE
105
9335
330
A
100
AcDbSymbolTableRecord
100
AcDbDimStyleTableRecord
  2
MST 1-5
 70
     0
 40
5.0
 41
1.5
 42
2.0
 43
2.0
 44
1.0
 46
2.0
 73
     0
 74
     0
 77
     3
 78
     8
 79
     2
140
3.0
141
1.0
143
0.03937007874016
147
1.0
171
     3
176
   256
177
   256
178
     3
179
     1
271
     1
272
     1
274
     3
279
     2
284
     8
340
9332
342
9324
  0
DIMSTYLE
105
9336
330
A
100
AcDbSymbolTableRecord
100
AcDbDimStyleTableRecord
  2
MST 1-10
 70
     0
 40
10.0
 41
2.0
 42
2.0
 43
2.0
 44
2.0
 46
2.0
 73
     0
 74
     0
 77
     3
 78
     8
 79
     2
140
3.0
141
1.0
143
0.03937007874016
147
1.0
171
     3
176
   256
177
   256
178
     3
179
     1
271
     1
272
     1
274
     3
279
     2
284
     8
340
9332
342
9324
1001
ACAD_DSTYLE_DIMJAG
1070
   388
1040
1.5
1001
ACAD_DSTYLE_DIMTALN
1070
   392
1070
     0
  0
DIMSTYLE
105
9337
330
A
100
AcDbSymbolTableRecord
100
AcDbDimStyleTableRecord
  2
MST 1-20
 70
     0
 40
20.0
 41
2.0
 42
2.0
 43
2.0
 44
1.0
 46
2.0
 73
     0
 74
     0
 77
     3
 78
     8
 79
     2
140
3.0
141
1.0
143
0.03937007874016
147
1.0
171
     3
176
   256
177
   256
178
     3
179
     1
271
     1
272
     1
274
     3
279
     2
284
     8
340
9332
342
9324
  0
ENDTAB
  0
TABLE
  2
BLOCK_RECORD
  5
1
330
0
100
AcDbSymbolTable
 70
     3
  0
BLOCK_RECORD
  5
67
330
1
100
AcDbSymbolTableRecord
100
AcDbBlockTableRecord
  2
*Model_Space
340
6A
  0
BLOCK_RECORD
  5
63
330
1
100
AcDbSymbolTableRecord
100
AcDbBlockTableRecord
  2
*Paper_Space
340
66
  0
BLOCK_RECORD
  5
6B
330
1
100
AcDbSymbolTableRecord
100
AcDbBlockTableRecord
  2
*Paper_Space0
340
6E
  0
BLOCK_RECORD
  5
9324
102
{ACAD_XDICTIONARY
360
9325
102
}
330
1
100
AcDbSymbolTableRecord
100
AcDbBlockTableRecord
  2
_ArchTick
340
0
310
2800000020000000200000000100080000000000000400000000000000000000000000000000000000000000000080000080000000808000800000008000800080800000C0C0C000C0DCC000F0CAA6000020400000206000002080000020A0000020C0000020E00000400000004020000040400000406000004080000040A0
310
000040C0000040E00000600000006020000060400000606000006080000060A0000060C0000060E00000800000008020000080400000806000008080000080A0000080C0000080E00000A0000000A0200000A0400000A0600000A0800000A0A00000A0C00000A0E00000C0000000C0200000C0400000C0600000C0800000C0
310
A00000C0C00000C0E00000E0000000E0200000E0400000E0600000E0800000E0A00000E0C00000E0E00040000000400020004000400040006000400080004000A0004000C0004000E00040200000402020004020400040206000402080004020A0004020C0004020E000404000004040200040404000404060004040800040
310
40A0004040C0004040E00040600000406020004060400040606000406080004060A0004060C0004060E00040800000408020004080400040806000408080004080A0004080C0004080E00040A0000040A0200040A0400040A0600040A0800040A0A00040A0C00040A0E00040C0000040C0200040C0400040C0600040C08000
310
40C0A00040C0C00040C0E00040E0000040E0200040E0400040E0600040E0800040E0A00040E0C00040E0E00080000000800020008000400080006000800080008000A0008000C0008000E00080200000802020008020400080206000802080008020A0008020C0008020E00080400000804020008040400080406000804080
310
008040A0008040C0008040E00080600000806020008060400080606000806080008060A0008060C0008060E00080800000808020008080400080806000808080008080A0008080C0008080E00080A0000080A0200080A0400080A0600080A0800080A0A00080A0C00080A0E00080C0000080C0200080C0400080C0600080C0
310
800080C0A00080C0C00080C0E00080E0000080E0200080E0400080E0600080E0800080E0A00080E0C00080E0E000C0000000C0002000C0004000C0006000C0008000C000A000C000C000C000E000C0200000C0202000C0204000C0206000C0208000C020A000C020C000C020E000C0400000C0402000C0404000C0406000C0
310
408000C040A000C040C000C040E000C0600000C0602000C0604000C0606000C0608000C060A000C060C000C060E000C0800000C0802000C0804000C0806000C0808000C080A000C080C000C080E000C0A00000C0A02000C0A04000C0A06000C0A08000C0A0A000C0A0C000C0A0E000C0C00000C0C02000C0C04000C0C06000
310
C0C08000C0C0A000F0FBFF00A4A0A000808080000000FF0000FF000000FFFF00FF000000FF00FF00FFFF0000FFFFFF00FFFFFF00FFFFFFFFFFFFFFFFFFFFFFFFFFFFFFFFFFFFFFFFFFFFFFFFFFFFFFFFFFFF00FF00FFFFFFFFFFFFFFFFFFFFFFFFFFFFFFFFFFFFFFFFFFFFFFFFFFFFFFFF00FFFFFF00FFFFFFFFFFFFFFFFFF
310
FFFFFFFFFFFFFFFFFFFFFFFFFFFFFFFFFF00FFFFFFFFFF00FFFFFFFFFFFFFFFFFFFFFFFFFFFFFFFFFFFFFFFFFFFFFFFFFFFF00FFFFFFFFFF00FFFFFFFFFFFFFFFFFFFFFFFFFFFFFFFFFFFFFFFFFFFFFFFFFFFF00FFFFFFFFFF00FFFFFFFFFFFFFFFFFFFFFFFFFFFFFFFFFFFFFFFFFFFFFFFFFFFF00FFFFFFFFFF00FFFFFFFF
310
FFFFFFFFFFFFFFFFFFFFFFFFFFFFFFFFFFFFFFFFFFFF00FFFFFFFFFF00FFFFFFFFFFFFFFFFFFFFFFFFFFFFFFFFFFFFFFFFFFFFFFFFFFFF00FFFFFFFFFF00FFFFFFFFFFFFFFFFFFFFFFFFFFFFFFFFFFFFFFFFFFFFFFFFFFFF00FFFFFFFFFF00FFFFFFFFFFFFFFFFFFFFFFFFFFFFFFFFFFFFFFFFFFFFFFFFFFFF00FFFFFFFFFF
310
00FFFFFFFFFFFFFFFFFFFFFFFFFFFFFFFFFFFFFFFFFFFFFFFFFFFF00FFFFFFFFFF00FFFFFFFFFFFFFFFFFFFFFFFFFFFFFFFFFFFFFFFFFFFFFFFFFFFF00FFFFFFFFFF00FFFFFFFFFFFFFFFFFFFFFFFFFFFFFFFFFFFFFFFFFFFFFFFFFFFF00FFFFFFFFFF00FFFFFFFFFFFFFFFFFFFFFFFFFFFFFFFFFFFFFFFFFFFFFFFFFFFF00
310
FFFFFFFFFF00FFFFFFFFFFFFFFFFFFFFFFFFFFFFFFFFFFFFFFFFFFFFFFFFFFFF00FFFFFFFFFF00FFFFFFFFFFFFFFFFFFFFFFFFFFFFFFFFFFFFFFFFFFFFFFFFFFFF00FFFFFFFFFF00FFFFFFFFFFFFFFFFFFFFFFFFFFFFFFFFFFFFFFFFFFFFFFFFFFFF00FFFFFFFFFF00FFFFFFFFFFFFFFFFFFFFFFFFFFFFFFFFFFFFFFFFFFFF
310
FFFFFFFF00FFFFFFFFFF00FFFFFFFFFFFFFFFFFFFFFFFFFFFFFFFFFFFFFFFFFFFFFFFFFFFF00FFFFFFFFFF00FFFFFFFFFFFFFFFFFFFFFFFFFFFFFFFFFFFFFFFFFFFFFFFFFFFF00FFFFFFFFFF00FFFFFFFFFFFFFFFFFFFFFFFFFFFFFFFFFFFFFFFFFFFFFFFFFFFF00FFFFFFFFFF00FFFFFFFFFFFFFFFFFFFFFFFFFFFFFFFFFF
310
FFFFFFFFFFFFFFFFFF00FFFFFFFFFF00FFFFFFFFFFFFFFFFFFFFFFFFFFFFFFFFFFFFFFFFFFFFFFFFFFFF00FFFFFFFFFF00FFFFFFFFFFFFFFFFFFFFFFFFFFFFFFFFFFFFFFFFFFFFFFFFFFFF00FFFFFFFFFF00FFFFFFFFFFFFFFFFFFFFFFFFFFFFFFFFFFFFFFFFFFFFFFFFFFFF00FFFFFFFFFF00FFFFFFFFFFFFFFFFFFFFFFFF
310
FFFFFFFFFFFFFFFFFFFFFFFFFFFF00FFFFFFFFFF00FFFFFFFFFFFFFFFFFFFFFFFFFFFFFFFFFFFFFFFFFFFFFFFFFFFF00FFFFFFFFFF00FFFFFFFFFFFFFFFFFFFFFFFFFFFFFFFFFFFFFFFFFFFFFFFFFFFF00FFFFFFFFFF00FFFFFFFFFFFFFFFFFFFFFFFFFFFFFFFFFFFFFFFFFFFFFFFFFFFF00FFFFFF00FFFFFFFFFFFFFFFFFF
310
FFFFFFFFFFFFFFFFFFFFFFFFFFFFFFFFFFFFFF00FF00FFFFFFFFFFFFFFFFFFFFFFFFFFFFFFFFFFFFFFFFFFFFFFFFFFFFFFFFFFFF00FFFFFF
  0
ENDTAB
  0
ENDSEC
  0
SECTION
  2
BLOCKS
  0
BLOCK
  5
68
330
67
100
AcDbEntity
  8
0
100
AcDbBlockBegin
  2
*Model_Space
 70
     0
 10
0.0
 20
0.0
 30
0.0
  3
*Model_Space
  1

  0
ENDBLK
  5
69
330
67
100
AcDbEntity
  8
0
100
AcDbBlockEnd
  0
BLOCK
  5
64
330
63
100
AcDbEntity
 67
     1
  8
0
100
AcDbBlockBegin
  2
*Paper_Space
 70
     0
 10
0.0
 20
0.0
 30
0.0
  3
*Paper_Space
  1

  0
ENDBLK
  5
65
330
63
100
AcDbEntity
 67
     1
  8
0
100
AcDbBlockEnd
  0
BLOCK
  5
6C
330
6B
100
AcDbEntity
 67
     1
  8
0
100
AcDbBlockBegin
  2
*Paper_Space0
 70
     0
 10
0.0
 20
0.0
 30
0.0
  3
*Paper_Space0
  1

  0
ENDBLK
  5
6D
330
6B
100
AcDbEntity
 67
     1
  8
0
100
AcDbBlockEnd
  0
BLOCK
  5
9327
330
9324
100
AcDbEntity
  8
0
100
AcDbBlockBegin
  2
_ArchTick
 70
     0
 10
0.0
 20
0.0
 30
0.0
  3
_ArchTick
  1

  0
LWPOLYLINE
  5
9328
330
9324
100
AcDbEntity
  8
0
  6
ByBlock
 62
     7
100
AcDbPolyline
 90
        2
 70
     0
 43
0.15
 10
-0.5
 20
-0.5
 10
0.5
 20
0.5
  0
ENDBLK
  5
9329
330
9324
100
AcDbEntity
  8
0
100
AcDbBlockEnd
  0
ENDSEC
  0
SECTION
  2
ENTITIES
  0
HATCH
  5
93B7
330
67
100
AcDbEntity
  8
F_18 Schr-Holz hell
370
    13
100
AcDbHatch
 10
0.0
 20
0.0
 30
0.0
210
0.0
220
0.0
230
1.0
  2
SOLID
 70
     1
 71
     0
 91
        2
 92
        7
 72
     0
 73
     1
 93
        9
 10
409.6458474224073
 20
332.0889464718821
 10
383.6458474224073
 20
332.0889464718821
 10
382.6458474224073
 20
331.0889464718821
 10
382.6458474224073
 20
306.0889464718821
 10
370.6458474224073
 20
306.0889464718821
 10
369.6458474224073
 20
305.0889464718821
 10
369.6458474224073
 20
294.0889464718821
 10
370.6458474224073
 20
293.0889464718821
 10
409.6458474224073
 20
293.0889464718821
 97
        0
 92
        7
 72
     0
 73
     1
 93
        4
 10
586.4882184648977
 20
332.0889464718857
 10
409.6458474224073
 20
332.0889464718821
 10
409.6458474224073
 20
293.0889464718821
 10
586.4882184648977
 20
293.0889464718857
 97
        0
 75
     0
 76
     1
 47
0.3833587051838309
 98
        2
 10
399.5293253901782
 20
323.6723427257893
 10
422.9263567170291
 20
323.2890043491934
450
        0
451
        0
460
0.0
461
0.0
452
        1
462
1.0
453
        2
463
0.0
 63
     5
421
      255
463
1.0
 63
     7
421
 16777215
470
LINEAR
1001
ACAD
1010
0.0
1020
0.0
1030
0.0
  0
HATCH
  5
93B8
330
67
100
AcDbEntity
  8
F_18 Schr-Holz hell
370
    13
100
AcDbHatch
 10
0.0
 20
0.0
 30
0.0
210
0.0
220
0.0
230
1.0
  2
SOLID
 70
     1
 71
     0
 91
        1
 92
        1
 93
       21
 72
     1
 10
370.1458671548335
 20
606.0888653665533
 11
370.1458408384951
 21
434.088946471882
 72
     1
 10
370.1458408384951
 20
434.088946471882
 11
355.1458474224
 21
434.088946471882
 72
     1
 10
355.1458474224
 20
434.088946471882
 11
355.1458475505369
 21
293.0889468554342
 72
     1
 10
355.1458475505369
 20
293.0889468554342
 11
367.1458038230867
 21
293.0889464718839
 72
     1
 10
367.1458038230867
 20
293.0889464718857
 11
367.1458474224
 21
306.0889464718839
 72
     1
 10
367.1458474224
 20
306.0889464718821
 11
380.1458474224
 21
306.0889464718821
 72
     1
 10
380.1458474224
 20
306.0889464718821
 11
381.1458474224
 21
307.0889464718821
 72
     1
 10
381.1458474224
 20
307.0889464718821
 11
381.1458474224
 21
310.5889464718821
 72
     1
 10
381.1458474224
 20
310.5889464718821
 11
378.6458474224001
 21
310.5889464718821
 72
     1
 10
378.6458474224001
 20
310.5889464718821
 11
378.6458474224001
 21
319.7671869312508
 72
     1
 10
378.6458474224001
 20
319.7671869312508
 11
378.6458474224001
 21
335.5889464718821
 72
     1
 10
378.6458474224001
 20
335.5889464718821
 11
381.1458474224
 21
335.5889464718821
 72
     1
 10
381.1458474224
 20
335.5889464718821
 11
381.1458474224
 21
336.0889464718821
 72
     1
 10
381.1458474224
 20
336.0889464718821
 11
386.1458474224
 21
336.0889464718821
 72
     1
 10
386.1458474224
 20
336.0889464718821
 11
386.1718032118388
 21
344.0889464718821
 72
     1
 10
386.1718032118388
 20
344.0889464718821
 11
390.1458474224
 21
344.0889464718821
 72
     1
 10
390.1458474224
 20
344.0889464718821
 11
390.1458474224
 21
336.0889464718821
 72
     1
 10
390.1458474224
 20
336.0889464718821
 11
394.1458474224
 21
336.0889464718821
 72
     1
 10
394.1458474224
 20
336.0889464718821
 11
395.1458408384951
 21
337.0889530557906
 72
     1
 10
395.1458408384951
 20
337.0889530557906
 11
395.1458671548189
 21
606.0888475249721
 72
     1
 10
395.1458671548189
 20
606.088847524974
 11
370.1458671548335
 21
606.0888653665552
 97
        0
 75
     0
 76
     1
 98
        1
 10
-33489.33178855074
 20
-15523.9679106767
450
        0
451
        0
460
0.0
461
0.0
452
        1
462
1.0
453
        2
463
0.0
 63
     5
421
      255
463
1.0
 63
     7
421
 16777215
470
LINEAR
1001
ACAD
1010
0.0
1020
0.0
1030
0.0
  0
HATCH
  5
93B9
330
67
100
AcDbEntity
  8
F_15 Schr-Mauer hell
370
    13
100
AcDbHatch
 10
0.0
 20
0.0
 30
0.0
210
0.0
220
0.0
230
1.0
  2
SOLID
 70
     1
 71
     0
 91
        1
 92
        1
 93
        4
 72
     1
 10
188.2336974795853
 20
483.0888653665533
 11
188.2336974795926
 21
318.0888652088524
 72
     1
 10
188.2336974795926
 20
318.0888652088543
 11
350.1773500434156
 21
318.0888652088561
 72
     1
 10
350.1773500434156
 20
318.0888652088543
 11
350.1773500434156
 21
483.0888653665533
 72
     1
 10
350.1773500434156
 20
483.0888653665533
 11
188.2336974795853
 21
483.0888653665533
 97
        0
 75
     0
 76
     1
 98
        1
 10
139.0883556046628
 20
444.6773665266373
450
        0
451
        0
460
0.0
461
0.0
452
        1
462
1.0
453
        2
463
0.0
 63
     5
421
      255
463
1.0
 63
     7
421
 16777215
470
LINEAR
1001
ACAD
1010
0.0
1020
0.0
1030
0.0
  0
POLYLINE
  5
93BA
330
67
100
AcDbEntity
  8
F_01 sichtbar
370
    13
100
AcDb2dPolyline
 66
     1
 10
0.0
 20
0.0
 30
0.0
  0
VERTEX
  5
93BB
330
93BA
100
AcDbEntity
  8
F_01 sichtbar
370
    13
100
AcDbVertex
100
AcDb2dVertex
 10
188.2336974795926
 20
318.0888652088543
 30
0.0
  0
VERTEX
  5
93BC
330
93BA
100
AcDbEntity
  8
F_01 sichtbar
370
    13
100
AcDbVertex
100
AcDb2dVertex
 10
350.1773500434156
 20
318.0888652088543
 30
0.0
  0
VERTEX
  5
93BD
330
93BA
100
AcDbEntity
  8
F_01 sichtbar
370
    13
100
AcDbVertex
100
AcDb2dVertex
 10
350.1773500434156
 20
483.0888653665533
 30
0.0
  0
VERTEX
  5
93BE
330
93BA
100
AcDbEntity
  8
F_01 sichtbar
370
    13
100
AcDbVertex
100
AcDb2dVertex
 10
188.2336974795926
 20
483.0888653665533
 30
0.0
  0
SEQEND
  5
93BF
330
93BA
100
AcDbEntity
  8
F_01 sichtbar
370
    13
  0
POLYLINE
  5
93C0
330
67
100
AcDbEntity
  8
F_01 sichtbar
370
    13
100
AcDb2dPolyline
 66
     1
 10
0.0
 20
0.0
 30
0.0
  0
VERTEX
  5
93C1
330
93C0
100
AcDbEntity
  8
F_01 sichtbar
370
    13
100
AcDbVertex
100
AcDb2dVertex
 10
188.2336974795926
 20
486.0888653665533
 30
0.0
  0
VERTEX
  5
93C2
330
93C0
100
AcDbEntity
  8
F_01 sichtbar
370
    13
100
AcDbVertex
100
AcDb2dVertex
 10
350.1773500434229
 20
486.0888653665533
 30
0.0
  0
VERTEX
  5
93C3
330
93C0
100
AcDbEntity
  8
F_01 sichtbar
370
    13
100
AcDbVertex
100
AcDb2dVertex
 10
350.1773500434301
 20
606.0888653665533
 30
0.0
  0
VERTEX
  5
93C4
330
93C0
100
AcDbEntity
  8
F_01 sichtbar
370
    13
100
AcDbVertex
100
AcDb2dVertex
 10
188.2336974795926
 20
606.0888653665533
 30
0.0
  0
SEQEND
  5
93C5
330
93C0
100
AcDbEntity
  8
F_01 sichtbar
370
    13
  0
POLYLINE
  5
93C6
330
67
100
AcDbEntity
  8
F_01 sichtbar
370
    13
100
AcDb2dPolyline
 66
     1
 10
0.0
 20
0.0
 30
0.0
  0
VERTEX
  5
93C7
330
93C6
100
AcDbEntity
  8
F_01 sichtbar
370
    13
100
AcDbVertex
100
AcDb2dVertex
 10
350.1773500434229
 20
516.0888653665534
 30
0.0
  0
VERTEX
  5
93C8
330
93C6
100
AcDbEntity
  8
F_01 sichtbar
370
    13
100
AcDbVertex
100
AcDb2dVertex
 10
188.2336974795926
 20
516.0888653665534
 30
0.0
  0
SEQEND
  5
93C9
330
93C6
100
AcDbEntity
  8
F_01 sichtbar
370
    13
  0
LINE
  5
93CA
330
67
100
AcDbEntity
  8
F_02 unsichtbar
370
    13
100
AcDbLine
 10
350.1773500434301
 20
484.5888653665533
 30
0.0
 11
188.2336974795999
 21
484.5888653665533
 31
0.0
  0
LINE
  5
93CB
330
67
100
AcDbEntity
  8
F_02 unsichtbar
370
    13
100
AcDbLine
 10
350.1773500434301
 20
316.5888652088542
 30
0.0
 11
188.2336974795999
 21
316.5888652088542
 31
0.0
  0
POLYLINE
  5
93CC
330
67
100
AcDbEntity
  8
F_31 Ansichtsfenster
370
    13
100
AcDb2dPolyline
 66
     1
 10
0.0
 20
0.0
 30
0.0
  0
VERTEX
  5
93CD
330
93CC
100
AcDbEntity
  8
F_31 Ansichtsfenster
370
    13
100
AcDbVertex
100
AcDb2dVertex
 10
188.2336974795926
 20
278.0888652088506
 30
0.0
  0
VERTEX
  5
93CE
330
93CC
100
AcDbEntity
  8
F_31 Ansichtsfenster
370
    13
100
AcDbVertex
100
AcDb2dVertex
 10
188.2336974795926
 20
606.0888653665533
 30
0.0
  0
SEQEND
  5
93CF
330
93CC
100
AcDbEntity
  8
F_31 Ansichtsfenster
370
    13
  0
HATCH
  5
93D0
330
67
100
AcDbEntity
  8
F_01 sichtbar
370
    13
100
AcDbHatch
 10
0.0
 20
0.0
 30
0.0
210
0.0
220
0.0
230
1.0
  2
BATT_INSULATION
 70
     0
 71
     0
 91
        1
 92
        1
 93
        4
 72
     1
 10
350.1773500434229
 20
516.0888653665534
 11
350.1773500434229
 21
486.0888653665533
 72
     1
 10
350.1773500434229
 20
486.0888653665533
 11
188.2336974795926
 21
486.0888653665533
 72
     1
 10
188.2336974795926
 20
486.0888653665533
 11
188.2336974795926
 21
516.0888653665551
 72
     1
 10
188.2336974795926
 20
516.088865366557
 11
350.1773500434229
 21
516.0888653665551
 97
        0
 75
     0
 76
     2
 52
180.0
 41
32.77964320184142
 77
     0
 78
   528
 53
0.000000000000007
 43
12005.37188350325
 44
1773.91700539795
 45
10.95203936981043
 46
-36.87709860207159
 79
     2
 49
0.0
 49
-10.95203936981043
 53
345.9236
 43
11999.89584742852
 44
1769.819549997719
 45
10.95202660980681
 46
0.000004046117522
 79
     2
 49
2.663936043727233
 49
-1058.697838380723
 53
345.9236
 43
11999.89584742852
 44
1732.942451395643
 45
10.95202660980681
 46
0.000004046117522
 79
     2
 49
2.663936043727233
 49
-1058.697838380723
 53
345.9236
 43
11999.89584742852
 44
1696.065352793575
 45
10.95202660980681
 46
0.000004046117522
 79
     2
 49
2.663936043727233
 49
-1058.697838380723
 53
345.9236
 43
11999.89584742852
 44
1659.1882541915
 45
10.95202660980681
 46
0.000004046117522
 79
     2
 49
2.663936043727233
 49
-1058.697838380723
 53
345.9236
 43
11999.89584742852
 44
1622.311155589432
 45
10.95202660980681
 46
0.000004046117522
 79
     2
 49
2.663936043727233
 49
-1058.697838380723
 53
345.9236
 43
11999.89584742852
 44
1585.434056987364
 45
10.95202660980681
 46
0.000004046117522
 79
     2
 49
2.663936043727233
 49
-1058.697838380723
 53
345.9236
 43
11999.89584742852
 44
1548.556958385288
 45
10.95202660980681
 46
0.000004046117522
 79
     2
 49
2.663936043727233
 49
-1058.697838380723
 53
334.9544
 43
12001.171532803
 44
1739.002424034374
 45
10.9520365279484
 46
-0.0000117218229823
 79
     2
 49
4.636287175181988
 49
-2957.102061108972
 53
334.9544
 43
12001.171532803
 44
1702.125325432298
 45
10.9520365279484
 46
-0.0000117218229823
 79
     2
 49
4.636287175181988
 49
-2957.102061108972
 53
334.9544
 43
12001.171532803
 44
1665.24822683023
 45
10.9520365279484
 46
-0.0000117218229823
 79
     2
 49
4.636287175181988
 49
-2957.102061108972
 53
334.9544
 43
12001.171532803
 44
1628.371128228154
 45
10.9520365279484
 46
-0.0000117218229823
 79
     2
 49
4.636287175181988
 49
-2957.102061108972
 53
334.9544
 43
12001.171532803
 44
1591.494029626086
 45
10.9520365279484
 46
-0.0000117218229823
 79
     2
 49
4.636287175181988
 49
-2957.102061108972
 53
334.9544
 43
12001.171532803
 44
1554.616931024011
 45
10.9520365279484
 46
-0.0000117218229823
 79
     2
 49
4.636287175181988
 49
-2957.102061108972
 53
334.9544
 43
12001.171532803
 44
1517.739832421943
 45
10.9520365279484
 46
-0.0000117218229823
 79
     2
 49
4.636287175181988
 49
-2957.102061108972
 53
334.9544
 43
12001.171532803
 44
1480.862733819867
 45
10.9520365279484
 46
-0.0000117218229823
 79
     2
 49
4.636287175181988
 49
-2957.102061108972
 53
334.9544
 43
12001.171532803
 44
1443.986618607097
 45
10.9520365279484
 46
-0.0000117218229823
 79
     2
 49
4.636287175181988
 49
-2957.102061108972
 53
334.9544
 43
12001.171532803
 44
1407.109520005022
 45
10.9520365279484
 46
-0.0000117218229823
 79
     2
 49
4.636287175181988
 49
-2957.102061108972
 53
334.9544
 43
12001.171532803
 44
1370.232421402954
 45
10.9520365279484
 46
-0.0000117218229823
 79
     2
 49
4.636287175181988
 49
-2957.102061108972
 53
334.9544
 43
12001.171532803
 44
1333.355322800878
 45
10.9520365279484
 46
-0.0000117218229823
 79
     2
 49
4.636287175181988
 49
-2957.102061108972
 53
334.9544
 43
12001.171532803
 44
1296.47822419881
 45
10.9520365279484
 46
-0.0000117218229823
 79
     2
 49
4.636287175181988
 49
-2957.102061108972
 53
334.9544
 43
12001.171532803
 44
1259.601125596742
 45
10.9520365279484
 46
-0.0000117218229823
 79
     2
 49
4.636287175181988
 49
-2957.102061108972
 53
334.9544
 43
12001.171532803
 44
1222.724026994667
 45
10.9520365279484
 46
-0.0000117218229823
 79
     2
 49
4.636287175181988
 49
-2957.102061108972
 53
334.9544
 43
12001.171532803
 44
1185.846928392591
 45
10.9520365279484
 46
-0.0000117218229823
 79
     2
 49
4.636287175181988
 49
-2957.102061108972
 53
334.9544
 43
12001.171532803
 44
1148.969829790523
 45
10.9520365279484
 46
-0.0000117218229823
 79
     2
 49
4.636287175181988
 49
-2957.102061108972
 53
334.9544
 43
12001.171532803
 44
1112.092731188455
 45
10.9520365279484
 46
-0.0000117218229823
 79
     2
 49
4.636287175181988
 49
-2957.102061108972
 53
334.9544
 43
12001.171532803
 44
1075.215632586379
 45
10.9520365279484
 46
-0.0000117218229823
 79
     2
 49
4.636287175181988
 49
-2957.102061108972
 53
334.9544
 43
12001.171532803
 44
1038.338533984304
 45
10.9520365279484
 46
-0.0000117218229823
 79
     2
 49
4.636287175181988
 49
-2957.102061108972
 53
334.9544
 43
12001.171532803
 44
1001.461435382236
 45
10.9520365279484
 46
-0.0000117218229823
 79
     2
 49
4.636287175181988
 49
-2957.102061108972
 53
334.9544
 43
12001.171532803
 44
964.5843367801681
 45
10.9520365279484
 46
-0.0000117218229823
 79
     2
 49
4.636287175181988
 49
-2957.102061108972
 53
334.9544
 43
12001.171532803
 44
927.7072381780927
 45
10.9520365279484
 46
-0.0000117218229823
 79
     2
 49
4.636287175181988
 49
-2957.102061108972
 53
334.9544
 43
12001.171532803
 44
890.8301395760172
 45
10.9520365279484
 46
-0.0000117218229823
 79
     2
 49
4.636287175181988
 49
-2957.102061108972
 53
334.9544
 43
12001.171532803
 44
853.9530409739491
 45
10.9520365279484
 46
-0.0000117218229823
 79
     2
 49
4.636287175181988
 49
-2957.102061108972
 53
334.9544
 43
12001.171532803
 44
817.0759423718809
 45
10.9520365279484
 46
-0.0000117218229823
 79
     2
 49
4.636287175181988
 49
-2957.102061108972
 53
334.9544
 43
12001.171532803
 44
780.1988437698055
 45
10.9520365279484
 46
-0.0000117218229823
 79
     2
 49
4.636287175181988
 49
-2957.102061108972
 53
334.9544
 43
12001.171532803
 44
743.3217451677373
 45
10.9520365279484
 46
-0.0000117218229823
 79
     2
 49
4.636287175181988
 49
-2957.102061108972
 53
334.9544
 43
12001.171532803
 44
706.444646565662
 45
10.9520365279484
 46
-0.0000117218229823
 79
     2
 49
4.636287175181988
 49
-2957.102061108972
 53
334.9544
 43
12001.171532803
 44
669.5675479635865
 45
10.9520365279484
 46
-0.0000117218229823
 79
     2
 49
4.636287175181988
 49
-2957.102061108972
 53
334.9544
 43
12001.171532803
 44
632.6904493615184
 45
10.9520365279484
 46
-0.0000117218229823
 79
     2
 49
4.636287175181988
 49
-2957.102061108972
 53
334.9544
 43
12001.171532803
 44
595.8133507594502
 45
10.9520365279484
 46
-0.0000117218229823
 79
     2
 49
4.636287175181988
 49
-2957.102061108972
 53
334.9544
 43
12001.171532803
 44
558.9362521573748
 45
10.9520365279484
 46
-0.0000117218229823
 79
     2
 49
4.636287175181988
 49
-2957.102061108972
 53
334.9544
 43
12001.171532803
 44
522.0591535553031
 45
10.9520365279484
 46
-0.0000117218229823
 79
     2
 49
4.636287175181988
 49
-2957.102061108972
 53
307.5647
 43
12002.47980114283
 44
1769.171562010906
 45
10.95203172566192
 46
-0.0000024731155069
 79
     2
 49
4.503300162712156
 49
-1809.889024393901
 53
307.5647
 43
12002.47980114283
 44
1732.294397849549
 45
10.95203172566192
 46
-0.0000024731155069
 79
     2
 49
4.503300162712156
 49
-1809.889024393901
 53
307.5647
 43
12002.47980114283
 44
1695.417299247474
 45
10.95203172566192
 46
-0.0000024731155069
 79
     2
 49
4.503300162712156
 49
-1809.889024393901
 53
307.5647
 43
12002.47980114283
 44
1658.540200645406
 45
10.95203172566192
 46
-0.0000024731155069
 79
     2
 49
4.503300162712156
 49
-1809.889024393901
 53
307.5647
 43
12002.47980114283
 44
1621.66310204333
 45
10.95203172566192
 46
-0.0000024731155069
 79
     2
 49
4.503300162712156
 49
-1809.889024393901
 53
307.5647
 43
12002.47980114283
 44
1584.786003441255
 45
10.95203172566192
 46
-0.0000024731155069
 79
     2
 49
4.503300162712156
 49
-1809.889024393901
 53
307.5647
 43
12002.47980114283
 44
1547.908904839187
 45
10.95203172566192
 46
-0.0000024731155069
 79
     2
 49
4.503300162712156
 49
-1809.889024393901
 53
307.5647
 43
12002.47980114283
 44
1511.031806237119
 45
10.95203172566192
 46
-0.0000024731155069
 79
     2
 49
4.503300162712156
 49
-1809.889024393901
 53
307.5647
 43
12002.47980114283
 44
1474.154707635043
 45
10.95203172566192
 46
-0.0000024731155069
 79
     2
 49
4.503300162712156
 49
-1809.889024393901
 53
307.5647
 43
12002.47980114283
 44
1437.276625643677
 45
10.95203172566192
 46
-0.0000024731155069
 79
     2
 49
4.503300162712156
 49
-1809.889024393901
 53
307.5647
 43
12002.47980114283
 44
1400.399527041609
 45
10.95203172566192
 46
-0.0000024731155069
 79
     2
 49
4.503300162712156
 49
-1809.889024393901
 53
307.5647
 43
12002.47980114283
 44
1363.522428439533
 45
10.95203172566192
 46
-0.0000024731155069
 79
     2
 49
4.503300162712156
 49
-1809.889024393901
 53
307.5647
 43
12002.47980114283
 44
1326.645329837458
 45
10.95203172566192
 46
-0.0000024731155069
 79
     2
 49
4.503300162712156
 49
-1809.889024393901
 53
307.5647
 43
12002.47980114283
 44
1289.76823123539
 45
10.95203172566192
 46
-0.0000024731155069
 79
     2
 49
4.503300162712156
 49
-1809.889024393901
 53
307.5647
 43
12002.47980114283
 44
1252.891132633322
 45
10.95203172566192
 46
-0.0000024731155069
 79
     2
 49
4.503300162712156
 49
-1809.889024393901
 53
307.5647
 43
12002.47980114283
 44
1216.014034031246
 45
10.95203172566192
 46
-0.0000024731155069
 79
     2
 49
4.503300162712156
 49
-1809.889024393901
 53
307.5647
 43
12002.47980114283
 44
1179.136935429178
 45
10.95203172566192
 46
-0.0000024731155069
 79
     2
 49
4.503300162712156
 49
-1809.889024393901
 53
307.5647
 43
12002.47980114283
 44
1142.259836827103
 45
10.95203172566192
 46
-0.0000024731155069
 79
     2
 49
4.503300162712156
 49
-1809.889024393901
 53
307.5647
 43
12002.47980114283
 44
1105.382738225034
 45
10.95203172566192
 46
-0.0000024731155069
 79
     2
 49
4.503300162712156
 49
-1809.889024393901
 53
307.5647
 43
12002.47980114283
 44
1068.505639622959
 45
10.95203172566192
 46
-0.0000024731155069
 79
     2
 49
4.503300162712156
 49
-1809.889024393901
 53
307.5647
 43
12002.47980114283
 44
1031.628541020891
 45
10.95203172566192
 46
-0.0000024731155069
 79
     2
 49
4.503300162712156
 49
-1809.889024393901
 53
307.5647
 43
12002.47980114283
 44
994.7514424188156
 45
10.95203172566192
 46
-0.0000024731155069
 79
     2
 49
4.503300162712156
 49
-1809.889024393901
 53
307.5647
 43
12002.47980114283
 44
957.8743438167476
 45
10.95203172566192
 46
-0.0000024731155069
 79
     2
 49
4.503300162712156
 49
-1809.889024393901
 53
307.5647
 43
12002.47980114283
 44
920.9972452146795
 45
10.95203172566192
 46
-0.0000024731155069
 79
     2
 49
4.503300162712156
 49
-1809.889024393901
 53
307.5647
 43
12002.47980114283
 44
884.120146612604
 45
10.95203172566192
 46
-0.0000024731155069
 79
     2
 49
4.503300162712156
 49
-1809.889024393901
 53
307.5647
 43
12002.47980114283
 44
847.2430480105286
 45
10.95203172566192
 46
-0.0000024731155069
 79
     2
 49
4.503300162712156
 49
-1809.889024393901
 53
307.5647
 43
12002.47980114283
 44
810.3659494084604
 45
10.95203172566192
 46
-0.0000024731155069
 79
     2
 49
4.503300162712156
 49
-1809.889024393901
 53
307.5647
 43
12002.47980114283
 44
773.4888508063923
 45
10.95203172566192
 46
-0.0000024731155069
 79
     2
 49
4.503300162712156
 49
-1809.889024393901
 53
307.5647
 43
12002.47980114283
 44
736.6117522043168
 45
10.95203172566192
 46
-0.0000024731155069
 79
     2
 49
4.503300162712156
 49
-1809.889024393901
 53
307.5647
 43
12002.47980114283
 44
699.734653602245
 45
10.95203172566192
 46
-0.0000024731155069
 79
     2
 49
4.503300162712156
 49
-1809.889024393901
 53
307.5647
 43
12002.47980114283
 44
662.8575550001733
 45
10.95203172566192
 46
-0.0000024731155069
 79
     2
 49
4.503300162712156
 49
-1809.889024393901
 53
307.5647
 43
12002.47980114283
 44
625.9804563980979
 45
10.95203172566192
 46
-0.0000024731155069
 79
     2
 49
4.503300162712156
 49
-1809.889024393901
 53
307.5647
 43
12002.47980114283
 44
589.1033577960334
 45
10.95203172566192
 46
-0.0000024731155069
 79
     2
 49
4.503300162712156
 49
-1809.889024393901
 53
307.5647
 43
12002.47980114283
 44
552.2262591939615
 45
10.95203172566192
 46
-0.0000024731155069
 79
     2
 49
4.503300162712156
 49
-1809.889024393901
 53
307.5647
 43
12002.47980114283
 44
515.3491605918861
 45
10.95203172566192
 46
-0.0000024731155069
 79
     2
 49
4.503300162712156
 49
-1809.889024393901
 53
307.5647
 43
12002.47980114283
 44
478.4720619898179
 45
10.95203172566192
 46
-0.0000024731155069
 79
     2
 49
4.503300162712156
 49
-1809.889024393901
 53
307.5647
 43
12002.47980114283
 44
441.5949633877462
 45
10.95203172566192
 46
-0.0000024731155069
 79
     2
 49
4.503300162712156
 49
-1809.889024393901
 53
307.5647
 43
12002.47980114283
 44
404.7178647856744
 45
10.95203172566192
 46
-0.0000024731155069
 79
     2
 49
4.503300162712156
 49
-1809.889024393901
 53
307.5647
 43
12002.47980114283
 44
367.8407661836027
 45
10.95203172566192
 46
-0.0000024731155069
 79
     2
 49
4.503300162712156
 49
-1809.889024393901
 53
292.9384
 43
11995.4288835003
 44
1757.587727798022
 45
10.95204222721493
 46
-0.0000045639384487
 79
     2
 49
8.386475035331912
 49
-1593.356600854789
 53
292.9384
 43
11995.4288835003
 44
1720.710727534879
 45
10.95204222721493
 46
-0.0000045639384487
 79
     2
 49
8.386475035331912
 49
-1593.356600854789
 53
292.9384
 43
11995.4288835003
 44
1683.833628932803
 45
10.95204222721493
 46
-0.0000045639384487
 79
     2
 49
8.386475035331912
 49
-1593.356600854789
 53
292.9384
 43
11995.4288835003
 44
1646.956530330735
 45
10.95204222721493
 46
-0.0000045639384487
 79
     2
 49
8.386475035331912
 49
-1593.356600854789
 53
292.9384
 43
11995.4288835003
 44
1610.079431728667
 45
10.95204222721493
 46
-0.0000045639384487
 79
     2
 49
8.386475035331912
 49
-1593.356600854789
 53
292.9384
 43
11995.4288835003
 44
1573.202333126592
 45
10.95204222721493
 46
-0.0000045639384487
 79
     2
 49
8.386475035331912
 49
-1593.356600854789
 53
292.9384
 43
11995.4288835003
 44
1536.325234524524
 45
10.95204222721493
 46
-0.0000045639384487
 79
     2
 49
8.386475035331912
 49
-1593.356600854789
 53
292.9384
 43
11995.4288835003
 44
1499.448135922448
 45
10.95204222721493
 46
-0.0000045639384487
 79
     2
 49
8.386475035331912
 49
-1593.356600854789
 53
292.9384
 43
11995.4288835003
 44
1462.57103732038
 45
10.95204222721493
 46
-0.0000045639384487
 79
     2
 49
8.386475035331912
 49
-1593.356600854789
 53
292.9384
 43
11995.4288835003
 44
1425.692299736151
 45
10.95204222721493
 46
-0.0000045639384487
 79
     2
 49
8.386475035331912
 49
-1593.356600854789
 53
292.9384
 43
11995.4288835003
 44
1388.815201134075
 45
10.95204222721493
 46
-0.0000045639384487
 79
     2
 49
8.386475035331912
 49
-1593.356600854789
 53
292.9384
 43
11995.4288835003
 44
1351.938102532
 45
10.95204222721493
 46
-0.0000045639384487
 79
     2
 49
8.386475035331912
 49
-1593.356600854789
 53
292.9384
 43
11995.4288835003
 44
1315.061003929932
 45
10.95204222721493
 46
-0.0000045639384487
 79
     2
 49
8.386475035331912
 49
-1593.356600854789
 53
292.9384
 43
11995.4288835003
 44
1278.183905327863
 45
10.95204222721493
 46
-0.0000045639384487
 79
     2
 49
8.386475035331912
 49
-1593.356600854789
 53
292.9384
 43
11995.4288835003
 44
1241.306806725788
 45
10.95204222721493
 46
-0.0000045639384487
 79
     2
 49
8.386475035331912
 49
-1593.356600854789
 53
292.9384
 43
11995.4288835003
 44
1204.42970812372
 45
10.95204222721493
 46
-0.0000045639384487
 79
     2
 49
8.386475035331912
 49
-1593.356600854789
 53
292.9384
 43
11995.4288835003
 44
1167.552609521644
 45
10.95204222721493
 46
-0.0000045639384487
 79
     2
 49
8.386475035331912
 49
-1593.356600854789
 53
292.9384
 43
11995.4288835003
 44
1130.675510919576
 45
10.95204222721493
 46
-0.0000045639384487
 79
     2
 49
8.386475035331912
 49
-1593.356600854789
 53
292.9384
 43
11995.4288835003
 44
1093.798412317508
 45
10.95204222721493
 46
-0.0000045639384487
 79
     2
 49
8.386475035331912
 49
-1593.356600854789
 53
292.9384
 43
11995.4288835003
 44
1056.921313715433
 45
10.95204222721493
 46
-0.0000045639384487
 79
     2
 49
8.386475035331912
 49
-1593.356600854789
 53
292.9384
 43
11995.4288835003
 44
1020.044215113357
 45
10.95204222721493
 46
-0.0000045639384487
 79
     2
 49
8.386475035331912
 49
-1593.356600854789
 53
292.9384
 43
11995.4288835003
 44
983.1671165112894
 45
10.95204222721493
 46
-0.0000045639384487
 79
     2
 49
8.386475035331912
 49
-1593.356600854789
 53
292.9384
 43
11995.4288835003
 44
946.2900179092212
 45
10.95204222721493
 46
-0.0000045639384487
 79
     2
 49
8.386475035331912
 49
-1593.356600854789
 53
292.9384
 43
11995.4288835003
 44
909.4129193071458
 45
10.95204222721493
 46
-0.0000045639384487
 79
     2
 49
8.386475035331912
 49
-1593.356600854789
 53
292.9384
 43
11995.4288835003
 44
872.5358207050703
 45
10.95204222721493
 46
-0.0000045639384487
 79
     2
 49
8.386475035331912
 49
-1593.356600854789
 53
292.9384
 43
11995.4288835003
 44
835.6587221030022
 45
10.95204222721493
 46
-0.0000045639384487
 79
     2
 49
8.386475035331912
 49
-1593.356600854789
 53
292.9384
 43
11995.4288835003
 44
798.7816235009268
 45
10.95204222721493
 46
-0.0000045639384487
 79
     2
 49
8.386475035331912
 49
-1593.356600854789
 53
292.9384
 43
11995.4288835003
 44
761.9045248988586
 45
10.95204222721493
 46
-0.0000045639384487
 79
     2
 49
8.386475035331912
 49
-1593.356600854789
 53
292.9384
 43
11995.4288835003
 44
725.0274262967832
 45
10.95204222721493
 46
-0.0000045639384487
 79
     2
 49
8.386475035331912
 49
-1593.356600854789
 53
292.9384
 43
11995.4288835003
 44
688.150327694715
 45
10.95204222721493
 46
-0.0000045639384487
 79
     2
 49
8.386475035331912
 49
-1593.356600854789
 53
292.9384
 43
11995.4288835003
 44
651.2732290926469
 45
10.95204222721493
 46
-0.0000045639384487
 79
     2
 49
8.386475035331912
 49
-1593.356600854789
 53
292.9384
 43
11995.4288835003
 44
614.3961304905715
 45
10.95204222721493
 46
-0.0000045639384487
 79
     2
 49
8.386475035331912
 49
-1593.356600854789
 53
292.9384
 43
11995.4288835003
 44
577.5190318884997
 45
10.95204222721493
 46
-0.0000045639384487
 79
     2
 49
8.386475035331912
 49
-1593.356600854789
 53
292.9384
 43
11995.4288835003
 44
540.6419332864279
 45
10.95204222721493
 46
-0.0000045639384487
 79
     2
 49
8.386475035331912
 49
-1593.356600854789
 53
292.9384
 43
11995.4288835003
 44
503.7648346843561
 45
10.95204222721493
 46
-0.0000045639384487
 79
     2
 49
8.386475035331912
 49
-1593.356600854789
 53
292.9384
 43
11995.4288835003
 44
466.8877360822843
 45
10.95204222721493
 46
-0.0000045639384487
 79
     2
 49
8.386475035331912
 49
-1593.356600854789
 53
292.9384
 43
11995.4288835003
 44
430.0106374802162
 45
10.95204222721493
 46
-0.0000045639384487
 79
     2
 49
8.386475035331912
 49
-1593.356600854789
 53
292.9384
 43
11995.4288835003
 44
393.1335388781445
 45
10.95204222721493
 46
-0.0000045639384487
 79
     2
 49
8.386475035331912
 49
-1593.356600854789
 53
292.9384
 43
11995.4288835003
 44
356.2564402760691
 45
10.95204222721493
 46
-0.0000045639384487
 79
     2
 49
8.386475035331912
 49
-1593.356600854789
 53
292.9384
 43
11995.4288835003
 44
319.3793416740009
 45
10.95204222721493
 46
-0.0000045639384487
 79
     2
 49
8.386475035331912
 49
-1593.356600854789
 53
285.109
 43
12000.22364386054
 44
1742.515910090962
 45
0.0000000992044029
 46
-36.87707611878427
 79
     2
 49
3.638966530766021
 49
-416.5337124354709
 53
285.109
 43
12011.17568323035
 44
1742.515910090962
 45
0.0000000992044029
 46
-36.87707611878427
 79
     2
 49
3.638966530766021
 49
-416.5337124354709
 53
285.109
 43
12022.12772260016
 44
1742.515910090962
 45
0.0000000992044029
 46
-36.87707611878427
 79
     2
 49
3.638966530766021
 49
-416.5337124354709
 53
285.109
 43
12033.07982752925
 44
1742.515910090962
 45
0.0000000992044029
 46
-36.87707611878427
 79
     2
 49
3.638966530766021
 49
-416.5337124354709
 53
285.109
 43
12044.03183411942
 44
1742.515910090962
 45
0.0000000992044029
 46
-36.87707611878427
 79
     2
 49
3.638966530766021
 49
-416.5337124354709
 53
285.109
 43
12054.98384070959
 44
1742.515910090962
 45
0.0000000992044029
 46
-36.87707611878427
 79
     2
 49
3.638966530766021
 49
-416.5337124354709
 53
285.109
 43
12065.93584729976
 44
1742.515910090962
 45
0.0000000992044029
 46
-36.87707611878427
 79
     2
 49
3.638966530766021
 49
-416.5337124354709
 53
285.109
 43
12076.88785388992
 44
1742.515910090962
 45
0.0000000992044029
 46
-36.87707611878427
 79
     2
 49
3.638966530766021
 49
-416.5337124354709
 53
285.109
 43
12087.83986048009
 44
1742.515910090962
 45
0.0000000992044029
 46
-36.87707611878427
 79
     2
 49
3.638966530766021
 49
-416.5337124354709
 53
285.109
 43
12098.79186707026
 44
1742.515910090962
 45
0.0000000992044029
 46
-36.87707611878427
 79
     2
 49
3.638966530766021
 49
-416.5337124354709
 53
276.7473999999999
 43
11998.69703031734
 44
1749.864253826086
 45
0.0000035818718473
 46
-36.87716375543
 79
     2
 49
7.399774995313284
 49
-4560.119085052519
 53
276.7473999999999
 43
12009.64906968715
 44
1749.864253826086
 45
0.0000035818718473
 46
-36.87716375543
 79
     2
 49
7.399774995313284
 49
-4560.119085052519
 53
276.7473999999999
 43
12020.60110905696
 44
1749.864253826086
 45
0.0000035818718473
 46
-36.87716375543
 79
     2
 49
7.399774995313284
 49
-4560.119085052519
 53
276.7473999999999
 43
12031.55327954535
 44
1749.864253826086
 45
0.0000035818718473
 46
-36.87716375543
 79
     2
 49
7.399774995313284
 49
-4560.119085052519
 53
276.7473999999999
 43
12042.50528613551
 44
1749.864253826086
 45
0.0000035818718473
 46
-36.87716375543
 79
     2
 49
7.399774995313284
 49
-4560.119085052519
 53
276.7473999999999
 43
12053.45729272568
 44
1749.864253826086
 45
0.0000035818718473
 46
-36.87716375543
 79
     2
 49
7.399774995313284
 49
-4560.119085052519
 53
276.7473999999999
 43
12064.40929931585
 44
1749.864253826086
 45
0.0000035818718473
 46
-36.87716375543
 79
     2
 49
7.399774995313284
 49
-4560.119085052519
 53
276.7473999999999
 43
12075.36130590602
 44
1749.864253826086
 45
0.0000035818718473
 46
-36.87716375543
 79
     2
 49
7.399774995313284
 49
-4560.119085052519
 53
276.7473999999999
 43
12086.31331249618
 44
1749.864253826086
 45
0.0000035818718473
 46
-36.87716375543
 79
     2
 49
7.399774995313284
 49
-4560.119085052519
 53
276.7473999999999
 43
12097.26531908635
 44
1749.864253826086
 45
0.0000035818718473
 46
-36.87716375543
 79
     2
 49
7.399774995313284
 49
-4560.119085052519
 53
276.7473999999999
 43
12108.21732567652
 44
1749.864253826086
 45
0.0000035818718473
 46
-36.87716375543
 79
     2
 49
7.399774995313284
 49
-4560.119085052519
 53
276.7473999999999
 43
12119.16933226668
 44
1749.864253826086
 45
0.0000035818718473
 46
-36.87716375543
 79
     2
 49
7.399774995313284
 49
-4560.119085052519
 53
276.7473999999999
 43
12130.12133885685
 44
1749.864253826086
 45
0.0000035818718473
 46
-36.87716375543
 79
     2
 49
7.399774995313284
 49
-4560.119085052519
 53
276.7473999999999
 43
12141.07334544702
 44
1749.864253826086
 45
0.0000035818718473
 46
-36.87716375543
 79
     2
 49
7.399774995313284
 49
-4560.119085052519
 53
276.7473999999999
 43
12152.02567983362
 44
1749.864253826086
 45
0.0000035818718473
 46
-36.87716375543
 79
     2
 49
7.399774995313284
 49
-4560.119085052519
 53
276.7473999999999
 43
12162.97768642379
 44
1749.864253826086
 45
0.0000035818718473
 46
-36.87716375543
 79
     2
 49
7.399774995313284
 49
-4560.119085052519
 53
276.7473999999999
 43
12173.92969301395
 44
1749.864253826086
 45
0.0000035818718473
 46
-36.87716375543
 79
     2
 49
7.399774995313284
 49
-4560.119085052519
 53
276.7473999999999
 43
12184.88169960412
 44
1749.864253826086
 45
0.0000035818718473
 46
-36.87716375543
 79
     2
 49
7.399774995313284
 49
-4560.119085052519
 53
276.7473999999999
 43
12195.83370619428
 44
1749.864253826086
 45
0.0000035818718473
 46
-36.87716375543
 79
     2
 49
7.399774995313284
 49
-4560.119085052519
 53
276.7473999999999
 43
12206.78571278445
 44
1749.864253826086
 45
0.0000035818718473
 46
-36.87716375543
 79
     2
 49
7.399774995313284
 49
-4560.119085052519
 53
276.7473999999999
 43
12217.73771937462
 44
1749.864253826086
 45
0.0000035818718473
 46
-36.87716375543
 79
     2
 49
7.399774995313284
 49
-4560.119085052519
 53
276.7473999999999
 43
12228.68972596479
 44
1749.864253826086
 45
0.0000035818718473
 46
-36.87716375543
 79
     2
 49
7.399774995313284
 49
-4560.119085052519
 53
276.7473999999999
 43
12239.64173255496
 44
1749.864253826086
 45
0.0000035818718473
 46
-36.87716375543
 79
     2
 49
7.399774995313284
 49
-4560.119085052519
 53
276.7473999999999
 43
12250.59373914512
 44
1749.864253826086
 45
0.0000035818718473
 46
-36.87716375543
 79
     2
 49
7.399774995313284
 49
-4560.119085052519
 53
276.7473999999999
 43
12261.54607353172
 44
1749.864253826086
 45
0.0000035818718473
 46
-36.87716375543
 79
     2
 49
7.399774995313284
 49
-4560.119085052519
 53
276.7473999999999
 43
12272.49808012188
 44
1749.864253826086
 45
0.0000035818718473
 46
-36.87716375543
 79
     2
 49
7.399774995313284
 49
-4560.119085052519
 53
276.7473999999999
 43
12283.45008671206
 44
1749.864253826086
 45
0.0000035818718473
 46
-36.87716375543
 79
     2
 49
7.399774995313284
 49
-4560.119085052519
 53
276.7473999999999
 43
12294.40209330223
 44
1749.864253826086
 45
0.0000035818718473
 46
-36.87716375543
 79
     2
 49
7.399774995313284
 49
-4560.119085052519
 53
276.7473999999999
 43
12305.35409989239
 44
1749.864253826086
 45
0.0000035818718473
 46
-36.87716375543
 79
     2
 49
7.399774995313284
 49
-4560.119085052519
 53
276.7473999999999
 43
12316.30610648256
 44
1749.864253826086
 45
0.0000035818718473
 46
-36.87716375543
 79
     2
 49
7.399774995313284
 49
-4560.119085052519
 53
276.7473999999999
 43
12327.25778527629
 44
1749.864253826086
 45
0.0000035818718473
 46
-36.87716375543
 79
     2
 49
7.399774995313284
 49
-4560.119085052519
 53
276.7473999999999
 43
12338.20946407003
 44
1749.864253826086
 45
0.0000035818718473
 46
-36.87716375543
 79
     2
 49
7.399774995313284
 49
-4560.119085052519
 53
276.7473999999999
 43
12349.16114286376
 44
1749.864253826086
 45
0.0000035818718473
 46
-36.87716375543
 79
     2
 49
7.399774995313284
 49
-4560.119085052519
 53
276.7473999999999
 43
12360.11282165749
 44
1749.864253826086
 45
0.0000035818718473
 46
-36.87716375543
 79
     2
 49
7.399774995313284
 49
-4560.119085052519
 53
276.7473999999999
 43
12371.06777841556
 44
1749.864253826086
 45
0.0000035818718473
 46
-36.87716375543
 79
     2
 49
7.399774995313284
 49
-4560.119085052519
 53
276.7473999999999
 43
12382.01945720929
 44
1749.864253826086
 45
0.0000035818718473
 46
-36.87716375543
 79
     2
 49
7.399774995313284
 49
-4560.119085052519
 53
276.7473999999999
 43
12392.97113600302
 44
1749.864253826086
 45
0.0000035818718473
 46
-36.87716375543
 79
     2
 49
7.399774995313284
 49
-4560.119085052519
 53
276.7473999999999
 43
12403.92281479676
 44
1749.864253826086
 45
0.0000035818718473
 46
-36.87716375543
 79
     2
 49
7.399774995313284
 49
-4560.119085052519
 53
276.7473999999999
 43
12414.87449359049
 44
1749.864253826086
 45
0.0000035818718473
 46
-36.87716375543
 79
     2
 49
7.399774995313284
 49
-4560.119085052519
 53
276.7473999999999
 43
12425.82617238423
 44
1749.864253826086
 45
0.0000035818718473
 46
-36.87716375543
 79
     2
 49
7.399774995313284
 49
-4560.119085052519
 53
276.7473999999999
 43
12436.77785117796
 44
1749.864253826086
 45
0.0000035818718473
 46
-36.87716375543
 79
     2
 49
7.399774995313284
 49
-4560.119085052519
 53
276.7473999999999
 43
12447.7295299717
 44
1749.864253826086
 45
0.0000035818718473
 46
-36.87716375543
 79
     2
 49
7.399774995313284
 49
-4560.119085052519
 53
276.7473999999999
 43
12458.68120876543
 44
1749.864253826086
 45
0.0000035818718473
 46
-36.87716375543
 79
     2
 49
7.399774995313284
 49
-4560.119085052519
 53
276.7473999999999
 43
12469.63616552349
 44
1749.864253826086
 45
0.0000035818718473
 46
-36.87716375543
 79
     2
 49
7.399774995313284
 49
-4560.119085052519
 53
276.7473999999999
 43
12480.58784431723
 44
1749.864253826086
 45
0.0000035818718473
 46
-36.87716375543
 79
     2
 49
7.399774995313284
 49
-4560.119085052519
 53
276.7473999999999
 43
12491.53952311096
 44
1749.864253826086
 45
0.0000035818718473
 46
-36.87716375543
 79
     2
 49
7.399774995313284
 49
-4560.119085052519
 53
276.7473999999999
 43
12502.4912019047
 44
1749.864253826086
 45
0.0000035818718473
 46
-36.87716375543
 79
     2
 49
7.399774995313284
 49
-4560.119085052519
 53
276.7473999999999
 43
12513.44288069843
 44
1749.864253826086
 45
0.0000035818718473
 46
-36.87716375543
 79
     2
 49
7.399774995313284
 49
-4560.119085052519
 53
276.7473999999999
 43
12524.39455949217
 44
1749.864253826086
 45
0.0000035818718473
 46
-36.87716375543
 79
     2
 49
7.399774995313284
 49
-4560.119085052519
 53
276.1416
 43
11994.56641339106
 44
1765.6019899848
 45
-0.0000356891682921
 46
-36.87700042616381
 79
     2
 49
8.060547042976009
 49
-2551.147945737283
 53
276.1416
 43
12005.51844128801
 44
1765.6019899848
 45
-0.0000356891682921
 46
-36.87700042616381
 79
     2
 49
8.060547042976009
 49
-2551.147945737283
 53
276.1416
 43
12016.47048065781
 44
1765.6019899848
 45
-0.0000356891682921
 46
-36.87700042616381
 79
     2
 49
8.060547042976009
 49
-2551.147945737283
 53
276.1416
 43
12027.42238890905
 44
1765.6019899848
 45
-0.0000356891682921
 46
-36.87700042616381
 79
     2
 49
8.060547042976009
 49
-2551.147945737283
 53
276.1416
 43
12038.37472329565
 44
1765.6019899848
 45
-0.0000356891682921
 46
-36.87700042616381
 79
     2
 49
8.060547042976009
 49
-2551.147945737283
 53
276.1416
 43
12049.32672988581
 44
1765.6019899848
 45
-0.0000356891682921
 46
-36.87700042616381
 79
     2
 49
8.060547042976009
 49
-2551.147945737283
 53
276.1416
 43
12060.27873647598
 44
1765.6019899848
 45
-0.0000356891682921
 46
-36.87700042616381
 79
     2
 49
8.060547042976009
 49
-2551.147945737283
 53
276.1416
 43
12071.23074306615
 44
1765.6019899848
 45
-0.0000356891682921
 46
-36.87700042616381
 79
     2
 49
8.060547042976009
 49
-2551.147945737283
 53
276.1416
 43
12082.18274965631
 44
1765.6019899848
 45
-0.0000356891682921
 46
-36.87700042616381
 79
     2
 49
8.060547042976009
 49
-2551.147945737283
 53
276.1416
 43
12093.13475624649
 44
1765.6019899848
 45
-0.0000356891682921
 46
-36.87700042616381
 79
     2
 49
8.060547042976009
 49
-2551.147945737283
 53
276.1416
 43
12104.08676283665
 44
1765.6019899848
 45
-0.0000356891682921
 46
-36.87700042616381
 79
     2
 49
8.060547042976009
 49
-2551.147945737283
 53
276.1416
 43
12115.03876942682
 44
1765.6019899848
 45
-0.0000356891682921
 46
-36.87700042616381
 79
     2
 49
8.060547042976009
 49
-2551.147945737283
 53
276.1416
 43
12125.99077601699
 44
1765.6019899848
 45
-0.0000356891682921
 46
-36.87700042616381
 79
     2
 49
8.060547042976009
 49
-2551.147945737283
 53
276.1416
 43
12136.94278260715
 44
1765.6019899848
 45
-0.0000356891682921
 46
-36.87700042616381
 79
     2
 49
8.060547042976009
 49
-2551.147945737283
 53
276.1416
 43
12147.89478919732
 44
1765.6019899848
 45
-0.0000356891682921
 46
-36.87700042616381
 79
     2
 49
8.060547042976009
 49
-2551.147945737283
 53
276.1416
 43
12158.84712358392
 44
1765.6019899848
 45
-0.0000356891682921
 46
-36.87700042616381
 79
     2
 49
8.060547042976009
 49
-2551.147945737283
 53
276.1416
 43
12169.79913017409
 44
1765.6019899848
 45
-0.0000356891682921
 46
-36.87700042616381
 79
     2
 49
8.060547042976009
 49
-2551.147945737283
 53
276.1416
 43
12180.75113676425
 44
1765.6019899848
 45
-0.0000356891682921
 46
-36.87700042616381
 79
     2
 49
8.060547042976009
 49
-2551.147945737283
 53
276.1416
 43
12191.70314335442
 44
1765.6019899848
 45
-0.0000356891682921
 46
-36.87700042616381
 79
     2
 49
8.060547042976009
 49
-2551.147945737283
 53
276.1416
 43
12202.65514994459
 44
1765.6019899848
 45
-0.0000356891682921
 46
-36.87700042616381
 79
     2
 49
8.060547042976009
 49
-2551.147945737283
 53
276.1416
 43
12213.60715653475
 44
1765.6019899848
 45
-0.0000356891682921
 46
-36.87700042616381
 79
     2
 49
8.060547042976009
 49
-2551.147945737283
 53
276.1416
 43
12224.55916312492
 44
1765.6019899848
 45
-0.0000356891682921
 46
-36.87700042616381
 79
     2
 49
8.060547042976009
 49
-2551.147945737283
 53
276.1416
 43
12235.51116971508
 44
1765.6019899848
 45
-0.0000356891682921
 46
-36.87700042616381
 79
     2
 49
8.060547042976009
 49
-2551.147945737283
 53
276.1416
 43
12246.46317630526
 44
1765.6019899848
 45
-0.0000356891682921
 46
-36.87700042616381
 79
     2
 49
8.060547042976009
 49
-2551.147945737283
 53
276.1416
 43
12257.41518289543
 44
1765.6019899848
 45
-0.0000356891682921
 46
-36.87700042616381
 79
     2
 49
8.060547042976009
 49
-2551.147945737283
 53
83.85800000000008
 43
12004.36282774656
 44
1757.587727798022
 45
10.9520277214346
 46
-0.0000684758235829
 79
     2
 49
8.060547042975885
 49
-2551.147945737251
 53
83.85800000000008
 43
12004.36282774656
 44
1720.710727534879
 45
10.9520277214346
 46
-0.0000684758235829
 79
     2
 49
8.060547042975885
 49
-2551.147945737251
 53
83.85800000000008
 43
12004.36282774656
 44
1683.833628932803
 45
10.9520277214346
 46
-0.0000684758235829
 79
     2
 49
8.060547042975885
 49
-2551.147945737251
 53
83.85800000000008
 43
12004.36282774656
 44
1646.956530330735
 45
10.9520277214346
 46
-0.0000684758235829
 79
     2
 49
8.060547042975885
 49
-2551.147945737251
 53
83.85800000000008
 43
12004.36282774656
 44
1610.079431728667
 45
10.9520277214346
 46
-0.0000684758235829
 79
     2
 49
8.060547042975885
 49
-2551.147945737251
 53
83.85800000000008
 43
12004.36282774656
 44
1573.202333126592
 45
10.9520277214346
 46
-0.0000684758235829
 79
     2
 49
8.060547042975885
 49
-2551.147945737251
 53
83.85800000000008
 43
12004.36282774656
 44
1536.325234524524
 45
10.9520277214346
 46
-0.0000684758235829
 79
     2
 49
8.060547042975885
 49
-2551.147945737251
 53
83.85800000000008
 43
12004.36282774656
 44
1499.448135922448
 45
10.9520277214346
 46
-0.0000684758235829
 79
     2
 49
8.060547042975885
 49
-2551.147945737251
 53
83.85800000000008
 43
12004.36282774656
 44
1462.57103732038
 45
10.9520277214346
 46
-0.0000684758235829
 79
     2
 49
8.060547042975885
 49
-2551.147945737251
 53
83.85800000000008
 43
12004.36282774656
 44
1425.692299736151
 45
10.9520277214346
 46
-0.0000684758235829
 79
     2
 49
8.060547042975885
 49
-2551.147945737251
 53
83.85800000000008
 43
12004.36282774656
 44
1388.815201134075
 45
10.9520277214346
 46
-0.0000684758235829
 79
     2
 49
8.060547042975885
 49
-2551.147945737251
 53
83.85800000000008
 43
12004.36282774656
 44
1351.938102532
 45
10.9520277214346
 46
-0.0000684758235829
 79
     2
 49
8.060547042975885
 49
-2551.147945737251
 53
83.85800000000008
 43
12004.36282774656
 44
1315.061003929932
 45
10.9520277214346
 46
-0.0000684758235829
 79
     2
 49
8.060547042975885
 49
-2551.147945737251
 53
83.85800000000008
 43
12004.36282774656
 44
1278.183905327863
 45
10.9520277214346
 46
-0.0000684758235829
 79
     2
 49
8.060547042975885
 49
-2551.147945737251
 53
83.85800000000008
 43
12004.36282774656
 44
1241.306806725788
 45
10.9520277214346
 46
-0.0000684758235829
 79
     2
 49
8.060547042975885
 49
-2551.147945737251
 53
83.85800000000008
 43
12004.36282774656
 44
1204.42970812372
 45
10.9520277214346
 46
-0.0000684758235829
 79
     2
 49
8.060547042975885
 49
-2551.147945737251
 53
83.85800000000008
 43
12004.36282774656
 44
1167.552609521644
 45
10.9520277214346
 46
-0.0000684758235829
 79
     2
 49
8.060547042975885
 49
-2551.147945737251
 53
83.85800000000008
 43
12004.36282774656
 44
1130.675510919576
 45
10.9520277214346
 46
-0.0000684758235829
 79
     2
 49
8.060547042975885
 49
-2551.147945737251
 53
83.85800000000008
 43
12004.36282774656
 44
1093.798412317508
 45
10.9520277214346
 46
-0.0000684758235829
 79
     2
 49
8.060547042975885
 49
-2551.147945737251
 53
83.85800000000008
 43
12004.36282774656
 44
1056.921313715433
 45
10.9520277214346
 46
-0.0000684758235829
 79
     2
 49
8.060547042975885
 49
-2551.147945737251
 53
83.85800000000008
 43
12004.36282774656
 44
1020.044215113357
 45
10.9520277214346
 46
-0.0000684758235829
 79
     2
 49
8.060547042975885
 49
-2551.147945737251
 53
83.85800000000008
 43
12004.36282774656
 44
983.1671165112894
 45
10.9520277214346
 46
-0.0000684758235829
 79
     2
 49
8.060547042975885
 49
-2551.147945737251
 53
83.85800000000008
 43
12004.36282774656
 44
946.2900179092212
 45
10.9520277214346
 46
-0.0000684758235829
 79
     2
 49
8.060547042975885
 49
-2551.147945737251
 53
83.85800000000008
 43
12004.36282774656
 44
909.4129193071458
 45
10.9520277214346
 46
-0.0000684758235829
 79
     2
 49
8.060547042975885
 49
-2551.147945737251
 53
83.85800000000008
 43
12004.36282774656
 44
872.5358207050703
 45
10.9520277214346
 46
-0.0000684758235829
 79
     2
 49
8.060547042975885
 49
-2551.147945737251
 53
83.85800000000008
 43
12004.36282774656
 44
835.6587221030022
 45
10.9520277214346
 46
-0.0000684758235829
 79
     2
 49
8.060547042975885
 49
-2551.147945737251
 53
83.85800000000008
 43
12004.36282774656
 44
798.7816235009268
 45
10.9520277214346
 46
-0.0000684758235829
 79
     2
 49
8.060547042975885
 49
-2551.147945737251
 53
83.85800000000008
 43
12004.36282774656
 44
761.9045248988586
 45
10.9520277214346
 46
-0.0000684758235829
 79
     2
 49
8.060547042975885
 49
-2551.147945737251
 53
83.85800000000008
 43
12004.36282774656
 44
725.0274262967832
 45
10.9520277214346
 46
-0.0000684758235829
 79
     2
 49
8.060547042975885
 49
-2551.147945737251
 53
83.85800000000008
 43
12004.36282774656
 44
688.150327694715
 45
10.9520277214346
 46
-0.0000684758235829
 79
     2
 49
8.060547042975885
 49
-2551.147945737251
 53
83.85800000000008
 43
12004.36282774656
 44
651.2732290926469
 45
10.9520277214346
 46
-0.0000684758235829
 79
     2
 49
8.060547042975885
 49
-2551.147945737251
 53
83.85800000000008
 43
12004.36282774656
 44
614.3961304905715
 45
10.9520277214346
 46
-0.0000684758235829
 79
     2
 49
8.060547042975885
 49
-2551.147945737251
 53
83.85800000000008
 43
12004.36282774656
 44
577.5190318884997
 45
10.9520277214346
 46
-0.0000684758235829
 79
     2
 49
8.060547042975885
 49
-2551.147945737251
 53
83.85800000000008
 43
12004.36282774656
 44
540.6419332864279
 45
10.9520277214346
 46
-0.0000684758235829
 79
     2
 49
8.060547042975885
 49
-2551.147945737251
 53
83.85800000000008
 43
12004.36282774656
 44
503.7648346843561
 45
10.9520277214346
 46
-0.0000684758235829
 79
     2
 49
8.060547042975885
 49
-2551.147945737251
 53
83.85800000000008
 43
12004.36282774656
 44
466.8877360822843
 45
10.9520277214346
 46
-0.0000684758235829
 79
     2
 49
8.060547042975885
 49
-2551.147945737251
 53
83.85800000000008
 43
12004.36282774656
 44
430.0106374802162
 45
10.9520277214346
 46
-0.0000684758235829
 79
     2
 49
8.060547042975885
 49
-2551.147945737251
 53
83.85800000000008
 43
12004.36282774656
 44
393.1335388781445
 45
10.9520277214346
 46
-0.0000684758235829
 79
     2
 49
8.060547042975885
 49
-2551.147945737251
 53
83.85800000000008
 43
12004.36282774656
 44
356.2564402760691
 45
10.9520277214346
 46
-0.0000684758235829
 79
     2
 49
8.060547042975885
 49
-2551.147945737251
 53
83.85800000000008
 43
12004.36282774656
 44
319.3793416740009
 45
10.9520277214346
 46
-0.0000684758235829
 79
     2
 49
8.060547042975885
 49
-2551.147945737251
 53
83.85800000000008
 43
12004.36282774656
 44
282.5022430719291
 45
10.9520277214346
 46
-0.0000684758235829
 79
     2
 49
8.060547042975885
 49
-2551.147945737251
 53
83.85800000000008
 43
12004.36282774656
 44
245.6251444698573
 45
10.9520277214346
 46
-0.0000684758235829
 79
     2
 49
8.060547042975885
 49
-2551.147945737251
 53
83.85800000000008
 43
12004.36282774656
 44
208.7480458677855
 45
10.9520277214346
 46
-0.0000684758235829
 79
     2
 49
8.060547042975885
 49
-2551.147945737251
 53
83.85800000000008
 43
12004.36282774656
 44
171.8709472657137
 45
10.9520277214346
 46
-0.0000684758235829
 79
     2
 49
8.060547042975885
 49
-2551.147945737251
 53
83.85800000000008
 43
12004.36282774656
 44
134.993848663642
 45
10.9520277214346
 46
-0.0000684758235829
 79
     2
 49
8.060547042975885
 49
-2551.147945737251
 53
83.85800000000008
 43
12004.36282774656
 44
98.1167500615702
 45
10.9520277214346
 46
-0.0000684758235829
 79
     2
 49
8.060547042975885
 49
-2551.147945737251
 53
83.85800000000008
 43
12004.36282774656
 44
61.23965145949842
 45
10.9520277214346
 46
-0.0000684758235829
 79
     2
 49
8.060547042975885
 49
-2551.147945737251
 53
83.85800000000008
 43
12004.36282774656
 44
24.362552857423
 45
10.9520277214346
 46
-0.0000684758235829
 79
     2
 49
8.060547042975885
 49
-2551.147945737251
 53
83.85800000000008
 43
12004.36282774656
 44
-12.51454574464151
 45
10.9520277214346
 46
-0.0000684758235829
 79
     2
 49
8.060547042975885
 49
-2551.147945737251
 53
83.85800000000008
 43
12004.36282774656
 44
-49.39164434671329
 45
10.9520277214346
 46
-0.0000684758235829
 79
     2
 49
8.060547042975885
 49
-2551.147945737251
 53
83.85800000000008
 43
12004.36282774656
 44
-86.26874294878872
 45
10.9520277214346
 46
-0.0000684758235829
 79
     2
 49
8.060547042975885
 49
-2551.147945737251
 53
83.85800000000008
 43
12004.36282774656
 44
-123.1458415508605
 45
10.9520277214346
 46
-0.0000684758235829
 79
     2
 49
8.060547042975885
 49
-2551.147945737251
 53
83.85800000000008
 43
12004.36282774656
 44
-160.0229401529323
 45
10.9520277214346
 46
-0.0000684758235829
 79
     2
 49
8.060547042975885
 49
-2551.147945737251
 53
83.85800000000008
 43
12004.36282774656
 44
-196.900038755004
 45
10.9520277214346
 46
-0.0000684758235829
 79
     2
 49
8.060547042975885
 49
-2551.147945737251
 53
83.85800000000008
 43
12004.36282774656
 44
-233.7771373570722
 45
10.9520277214346
 46
-0.0000684758235829
 79
     2
 49
8.060547042975885
 49
-2551.147945737251
 53
83.85800000000008
 43
12004.36282774656
 44
-270.654235959144
 45
10.9520277214346
 46
-0.0000684758235829
 79
     2
 49
8.060547042975885
 49
-2551.147945737251
 53
83.85800000000008
 43
12004.36282774656
 44
-307.5313345612194
 45
10.9520277214346
 46
-0.0000684758235829
 79
     2
 49
8.060547042975885
 49
-2551.147945737251
 53
83.85800000000008
 43
12004.36282774656
 44
-344.4084331632875
 45
10.9520277214346
 46
-0.0000684758235829
 79
     2
 49
8.060547042975885
 49
-2551.147945737251
 53
83.85800000000008
 43
12004.36282774656
 44
-381.2855317653593
 45
10.9520277214346
 46
-0.0000684758235829
 79
     2
 49
8.060547042975885
 49
-2551.147945737251
 53
83.85800000000008
 43
12004.36282774656
 44
-418.1626303674311
 45
10.9520277214346
 46
-0.0000684758235829
 79
     2
 49
8.060547042975885
 49
-2551.147945737251
 53
83.85800000000008
 43
12004.36282774656
 44
-455.0397289695029
 45
10.9520277214346
 46
-0.0000684758235829
 79
     2
 49
8.060547042975885
 49
-2551.147945737251
 53
83.85800000000008
 43
12004.36282774656
 44
-491.9168275715747
 45
10.9520277214346
 46
-0.0000684758235829
 79
     2
 49
8.060547042975885
 49
-2551.147945737251
 53
83.85800000000008
 43
12004.36282774656
 44
-528.7939261736465
 45
10.9520277214346
 46
-0.0000684758235829
 79
     2
 49
8.060547042975885
 49
-2551.147945737251
 53
83.85800000000008
 43
12004.36282774656
 44
-565.6710247757182
 45
10.9520277214346
 46
-0.0000684758235829
 79
     2
 49
8.060547042975885
 49
-2551.147945737251
 53
83.85800000000008
 43
12004.36282774656
 44
-602.54812337779
 45
10.9520277214346
 46
-0.0000684758235829
 79
     2
 49
8.060547042975885
 49
-2551.147945737251
 53
83.85800000000008
 43
12004.36282774656
 44
-639.4252219798654
 45
10.9520277214346
 46
-0.0000684758235829
 79
     2
 49
8.060547042975885
 49
-2551.147945737251
 53
83.85800000000008
 43
12004.36282774656
 44
-676.3023205819336
 45
10.9520277214346
 46
-0.0000684758235829
 79
     2
 49
8.060547042975885
 49
-2551.147945737251
 53
83.85800000000008
 43
12004.36282774656
 44
-713.1794191840017
 45
10.9520277214346
 46
-0.0000684758235829
 79
     2
 49
8.060547042975885
 49
-2551.147945737251
 53
83.85800000000008
 43
12004.36282774656
 44
-750.0565177860771
 45
10.9520277214346
 46
-0.0000684758235829
 79
     2
 49
8.060547042975885
 49
-2551.147945737251
 53
83.25300000000003
 43
12000.22364386054
 44
1742.515910090962
 45
10.95204383447483
 46
0.0000798601498432
 79
     2
 49
7.399774995313283
 49
-4560.119085052519
 53
83.25300000000003
 43
12000.22364386054
 44
1705.638975387108
 45
10.95204383447483
 46
0.0000798601498432
 79
     2
 49
7.399774995313283
 49
-4560.119085052519
 53
83.25300000000003
 43
12000.22364386054
 44
1668.761876785033
 45
10.95204383447483
 46
0.0000798601498432
 79
     2
 49
7.399774995313283
 49
-4560.119085052519
 53
83.25300000000003
 43
12000.22364386054
 44
1631.884778182964
 45
10.95204383447483
 46
0.0000798601498432
 79
     2
 49
7.399774995313283
 49
-4560.119085052519
 53
83.25300000000003
 43
12000.22364386054
 44
1595.007679580896
 45
10.95204383447483
 46
0.0000798601498432
 79
     2
 49
7.399774995313283
 49
-4560.119085052519
 53
83.25300000000003
 43
12000.22364386054
 44
1558.130580978821
 45
10.95204383447483
 46
0.0000798601498432
 79
     2
 49
7.399774995313283
 49
-4560.119085052519
 53
83.25300000000003
 43
12000.22364386054
 44
1521.253482376745
 45
10.95204383447483
 46
0.0000798601498432
 79
     2
 49
7.399774995313283
 49
-4560.119085052519
 53
83.25300000000003
 43
12000.22364386054
 44
1484.376383774677
 45
10.95204383447483
 46
0.0000798601498432
 79
     2
 49
7.399774995313283
 49
-4560.119085052519
 53
83.25300000000003
 43
12000.22364386054
 44
1447.499285172602
 45
10.95204383447483
 46
0.0000798601498432
 79
     2
 49
7.399774995313283
 49
-4560.119085052519
 53
83.25300000000003
 43
12000.22364386054
 44
1410.62349775626
 45
10.95204383447483
 46
0.0000798601498432
 79
     2
 49
7.399774995313283
 49
-4560.119085052519
 53
83.25300000000003
 43
12000.22364386054
 44
1373.746399154192
 45
10.95204383447483
 46
0.0000798601498432
 79
     2
 49
7.399774995313283
 49
-4560.119085052519
 53
83.25300000000003
 43
12000.22364386054
 44
1336.869300552116
 45
10.95204383447483
 46
0.0000798601498432
 79
     2
 49
7.399774995313283
 49
-4560.119085052519
 53
83.25300000000003
 43
12000.22364386054
 44
1299.992201950048
 45
10.95204383447483
 46
0.0000798601498432
 79
     2
 49
7.399774995313283
 49
-4560.119085052519
 53
83.25300000000003
 43
12000.22364386054
 44
1263.115103347973
 45
10.95204383447483
 46
0.0000798601498432
 79
     2
 49
7.399774995313283
 49
-4560.119085052519
 53
83.25300000000003
 43
12000.22364386054
 44
1226.238004745897
 45
10.95204383447483
 46
0.0000798601498432
 79
     2
 49
7.399774995313283
 49
-4560.119085052519
 53
83.25300000000003
 43
12000.22364386054
 44
1189.360906143829
 45
10.95204383447483
 46
0.0000798601498432
 79
     2
 49
7.399774995313283
 49
-4560.119085052519
 53
83.25300000000003
 43
12000.22364386054
 44
1152.483807541761
 45
10.95204383447483
 46
0.0000798601498432
 79
     2
 49
7.399774995313283
 49
-4560.119085052519
 53
83.25300000000003
 43
12000.22364386054
 44
1115.606708939685
 45
10.95204383447483
 46
0.0000798601498432
 79
     2
 49
7.399774995313283
 49
-4560.119085052519
 53
83.25300000000003
 43
12000.22364386054
 44
1078.729610337617
 45
10.95204383447483
 46
0.0000798601498432
 79
     2
 49
7.399774995313283
 49
-4560.119085052519
 53
83.25300000000003
 43
12000.22364386054
 44
1041.852511735542
 45
10.95204383447483
 46
0.0000798601498432
 79
     2
 49
7.399774995313283
 49
-4560.119085052519
 53
83.25300000000003
 43
12000.22364386054
 44
1004.975413133474
 45
10.95204383447483
 46
0.0000798601498432
 79
     2
 49
7.399774995313283
 49
-4560.119085052519
 53
83.25300000000003
 43
12000.22364386054
 44
968.0983145314057
 45
10.95204383447483
 46
0.0000798601498432
 79
     2
 49
7.399774995313283
 49
-4560.119085052519
 53
83.25300000000003
 43
12000.22364386054
 44
931.2212159293304
 45
10.95204383447483
 46
0.0000798601498432
 79
     2
 49
7.399774995313283
 49
-4560.119085052519
 53
83.25300000000003
 43
12000.22364386054
 44
894.344117327255
 45
10.95204383447483
 46
0.0000798601498432
 79
     2
 49
7.399774995313283
 49
-4560.119085052519
 53
83.25300000000003
 43
12000.22364386054
 44
857.4670187251868
 45
10.95204383447483
 46
0.0000798601498432
 79
     2
 49
7.399774995313283
 49
-4560.119085052519
 53
83.25300000000003
 43
12000.22364386054
 44
820.5899201231149
 45
10.95204383447483
 46
0.0000798601498432
 79
     2
 49
7.399774995313283
 49
-4560.119085052519
 53
83.25300000000003
 43
12000.22364386054
 44
783.7128215210432
 45
10.95204383447483
 46
0.0000798601498432
 79
     2
 49
7.399774995313283
 49
-4560.119085052519
 53
83.25300000000003
 43
12000.22364386054
 44
746.8357229189714
 45
10.95204383447483
 46
0.0000798601498432
 79
     2
 49
7.399774995313283
 49
-4560.119085052519
 53
83.25300000000003
 43
12000.22364386054
 44
709.9586243168996
 45
10.95204383447483
 46
0.0000798601498432
 79
     2
 49
7.399774995313283
 49
-4560.119085052519
 53
83.25300000000003
 43
12000.22364386054
 44
673.0815257148279
 45
10.95204383447483
 46
0.0000798601498432
 79
     2
 49
7.399774995313283
 49
-4560.119085052519
 53
83.25300000000003
 43
12000.22364386054
 44
636.2044271127561
 45
10.95204383447483
 46
0.0000798601498432
 79
     2
 49
7.399774995313283
 49
-4560.119085052519
 53
83.25300000000003
 43
12000.22364386054
 44
599.3273285106843
 45
10.95204383447483
 46
0.0000798601498432
 79
     2
 49
7.399774995313283
 49
-4560.119085052519
 53
83.25300000000003
 43
12000.22364386054
 44
562.4502299086125
 45
10.95204383447483
 46
0.0000798601498432
 79
     2
 49
7.399774995313283
 49
-4560.119085052519
 53
83.25300000000003
 43
12000.22364386054
 44
525.5731313065443
 45
10.95204383447483
 46
0.0000798601498432
 79
     2
 49
7.399774995313283
 49
-4560.119085052519
 53
83.25300000000003
 43
12000.22364386054
 44
488.6960327044725
 45
10.95204383447483
 46
0.0000798601498432
 79
     2
 49
7.399774995313283
 49
-4560.119085052519
 53
83.25300000000003
 43
12000.22364386054
 44
451.8189341024008
 45
10.95204383447483
 46
0.0000798601498432
 79
     2
 49
7.399774995313283
 49
-4560.119085052519
 53
83.25300000000003
 43
12000.22364386054
 44
414.9418355003254
 45
10.95204383447483
 46
0.0000798601498432
 79
     2
 49
7.399774995313283
 49
-4560.119085052519
 53
83.25300000000003
 43
12000.22364386054
 44
378.0647368982573
 45
10.95204383447483
 46
0.0000798601498432
 79
     2
 49
7.399774995313283
 49
-4560.119085052519
 53
83.25300000000003
 43
12000.22364386054
 44
341.1876382961818
 45
10.95204383447483
 46
0.0000798601498432
 79
     2
 49
7.399774995313283
 49
-4560.119085052519
 53
83.25300000000003
 43
12000.22364386054
 44
304.3105396941137
 45
10.95204383447483
 46
0.0000798601498432
 79
     2
 49
7.399774995313283
 49
-4560.119085052519
 53
83.25300000000003
 43
12000.22364386054
 44
267.4334410920419
 45
10.95204383447483
 46
0.0000798601498432
 79
     2
 49
7.399774995313283
 49
-4560.119085052519
 53
83.25300000000003
 43
12000.22364386054
 44
230.5563424899701
 45
10.95204383447483
 46
0.0000798601498432
 79
     2
 49
7.399774995313283
 49
-4560.119085052519
 53
83.25300000000003
 43
12000.22364386054
 44
193.6792438878983
 45
10.95204383447483
 46
0.0000798601498432
 79
     2
 49
7.399774995313283
 49
-4560.119085052519
 53
83.25300000000003
 43
12000.22364386054
 44
156.8021452858265
 45
10.95204383447483
 46
0.0000798601498432
 79
     2
 49
7.399774995313283
 49
-4560.119085052519
 53
83.25300000000003
 43
12000.22364386054
 44
119.9250466837547
 45
10.95204383447483
 46
0.0000798601498432
 79
     2
 49
7.399774995313283
 49
-4560.119085052519
 53
83.25300000000003
 43
12000.22364386054
 44
83.04794808168299
 45
10.95204383447483
 46
0.0000798601498432
 79
     2
 49
7.399774995313283
 49
-4560.119085052519
 53
83.25300000000003
 43
12000.22364386054
 44
46.17084947961484
 45
10.95204383447483
 46
0.0000798601498432
 79
     2
 49
7.399774995313283
 49
-4560.119085052519
 53
83.25300000000003
 43
12000.22364386054
 44
9.293750877539423
 45
10.95204383447483
 46
0.0000798601498432
 79
     2
 49
7.399774995313283
 49
-4560.119085052519
 53
83.25300000000003
 43
12000.22364386054
 44
-27.58334772453236
 45
10.95204383447483
 46
0.0000798601498432
 79
     2
 49
7.399774995313283
 49
-4560.119085052519
 53
83.25300000000003
 43
12000.22364386054
 44
-64.46044632660414
 45
10.95204383447483
 46
0.0000798601498432
 79
     2
 49
7.399774995313283
 49
-4560.119085052519
 53
83.25300000000003
 43
12000.22364386054
 44
-101.3375449286759
 45
10.95204383447483
 46
0.0000798601498432
 79
     2
 49
7.399774995313283
 49
-4560.119085052519
 53
83.25300000000003
 43
12000.22364386054
 44
-138.214643530744
 45
10.95204383447483
 46
0.0000798601498432
 79
     2
 49
7.399774995313283
 49
-4560.119085052519
 53
83.25300000000003
 43
12000.22364386054
 44
-175.0917421328158
 45
10.95204383447483
 46
0.0000798601498432
 79
     2
 49
7.399774995313283
 49
-4560.119085052519
 53
83.25300000000003
 43
12000.22364386054
 44
-211.9688407348876
 45
10.95204383447483
 46
0.0000798601498432
 79
     2
 49
7.399774995313283
 49
-4560.119085052519
 53
83.25300000000003
 43
12000.22364386054
 44
-248.845939336963
 45
10.95204383447483
 46
0.0000798601498432
 79
     2
 49
7.399774995313283
 49
-4560.119085052519
 53
83.25300000000003
 43
12000.22364386054
 44
-285.7230379390312
 45
10.95204383447483
 46
0.0000798601498432
 79
     2
 49
7.399774995313283
 49
-4560.119085052519
 53
83.25300000000003
 43
12000.22364386054
 44
-322.6001365411066
 45
10.95204383447483
 46
0.0000798601498432
 79
     2
 49
7.399774995313283
 49
-4560.119085052519
 53
83.25300000000003
 43
12000.22364386054
 44
-359.4772351431748
 45
10.95204383447483
 46
0.0000798601498432
 79
     2
 49
7.399774995313283
 49
-4560.119085052519
 53
83.25300000000003
 43
12000.22364386054
 44
-396.3543337452465
 45
10.95204383447483
 46
0.0000798601498432
 79
     2
 49
7.399774995313283
 49
-4560.119085052519
 53
83.25300000000003
 43
12000.22364386054
 44
-433.2314323473183
 45
10.95204383447483
 46
0.0000798601498432
 79
     2
 49
7.399774995313283
 49
-4560.119085052519
 53
83.25300000000003
 43
12000.22364386054
 44
-470.1085309493901
 45
10.95204383447483
 46
0.0000798601498432
 79
     2
 49
7.399774995313283
 49
-4560.119085052519
 53
83.25300000000003
 43
12000.22364386054
 44
-506.9856295514618
 45
10.95204383447483
 46
0.0000798601498432
 79
     2
 49
7.399774995313283
 49
-4560.119085052519
 53
83.25300000000003
 43
12000.22364386054
 44
-543.8627281535336
 45
10.95204383447483
 46
0.0000798601498432
 79
     2
 49
7.399774995313283
 49
-4560.119085052519
 53
83.25300000000003
 43
12000.22364386054
 44
-580.7398267556054
 45
10.95204383447483
 46
0.0000798601498432
 79
     2
 49
7.399774995313283
 49
-4560.119085052519
 53
83.25300000000003
 43
12000.22364386054
 44
-617.6169253576772
 45
10.95204383447483
 46
0.0000798601498432
 79
     2
 49
7.399774995313283
 49
-4560.119085052519
 53
83.25300000000003
 43
12000.22364386054
 44
-654.4940239597454
 45
10.95204383447483
 46
0.0000798601498432
 79
     2
 49
7.399774995313283
 49
-4560.119085052519
 53
83.25300000000003
 43
12000.22364386054
 44
-691.3711225618207
 45
10.95204383447483
 46
0.0000798601498432
 79
     2
 49
7.399774995313283
 49
-4560.119085052519
 53
83.25300000000003
 43
12000.22364386054
 44
-728.2482211638925
 45
10.95204383447483
 46
0.0000798601498432
 79
     2
 49
7.399774995313283
 49
-4560.119085052519
 53
83.25300000000003
 43
12000.22364386054
 44
-765.1253197659643
 45
10.95204383447483
 46
0.0000798601498432
 79
     2
 49
7.399774995313283
 49
-4560.119085052519
 53
83.25300000000003
 43
12000.22364386054
 44
-802.0024183680325
 45
10.95204383447483
 46
0.0000798601498432
 79
     2
 49
7.399774995313283
 49
-4560.119085052519
 53
83.25300000000003
 43
12000.22364386054
 44
-838.8795169701042
 45
10.95204383447483
 46
0.0000798601498432
 79
     2
 49
7.399774995313283
 49
-4560.119085052519
 53
83.25300000000003
 43
12000.22364386054
 44
-875.7566155721761
 45
10.95204383447483
 46
0.0000798601498432
 79
     2
 49
7.399774995313283
 49
-4560.119085052519
 53
83.25300000000003
 43
12000.22364386054
 44
-912.6337141742515
 45
10.95204383447483
 46
0.0000798601498432
 79
     2
 49
7.399774995313283
 49
-4560.119085052519
 53
83.25300000000003
 43
12000.22364386054
 44
-949.5108127763197
 45
10.95204383447483
 46
0.0000798601498432
 79
     2
 49
7.399774995313283
 49
-4560.119085052519
 53
83.25300000000003
 43
12000.22364386054
 44
-986.3879113783879
 45
10.95204383447483
 46
0.0000798601498432
 79
     2
 49
7.399774995313283
 49
-4560.119085052519
 53
83.25300000000003
 43
12000.22364386054
 44
-1023.265009980463
 45
10.95204383447483
 46
0.0000798601498432
 79
     2
 49
7.399774995313283
 49
-4560.119085052519
 53
83.25300000000003
 43
12000.22364386054
 44
-1060.142108582535
 45
10.95204383447483
 46
0.0000798601498432
 79
     2
 49
7.399774995313283
 49
-4560.119085052519
 53
83.25300000000003
 43
12000.22364386054
 44
-1097.019207184606
 45
10.95204383447483
 46
0.0000798601498432
 79
     2
 49
7.399774995313283
 49
-4560.119085052519
 53
83.25300000000003
 43
12000.22364386054
 44
-1133.896305786678
 45
10.95204383447483
 46
0.0000798601498432
 79
     2
 49
7.399774995313283
 49
-4560.119085052519
 53
83.25300000000003
 43
12000.22364386054
 44
-1170.77340438875
 45
10.95204383447483
 46
0.0000798601498432
 79
     2
 49
7.399774995313283
 49
-4560.119085052519
 53
83.25300000000003
 43
12000.22364386054
 44
-1207.650502990823
 45
10.95204383447483
 46
0.0000798601498432
 79
     2
 49
7.399774995313283
 49
-4560.119085052519
 53
83.25300000000003
 43
12000.22364386054
 44
-1244.527601592895
 45
10.95204383447483
 46
0.0000798601498432
 79
     2
 49
7.399774995313283
 49
-4560.119085052519
 53
83.25300000000003
 43
12000.22364386054
 44
-1281.404700194966
 45
10.95204383447483
 46
0.0000798601498432
 79
     2
 49
7.399774995313283
 49
-4560.119085052519
 53
83.25300000000003
 43
12000.22364386054
 44
-1318.281798797034
 45
10.95204383447483
 46
0.0000798601498432
 79
     2
 49
7.399774995313283
 49
-4560.119085052519
 53
83.25300000000003
 43
12000.22364386054
 44
-1355.15889739911
 45
10.95204383447483
 46
0.0000798601498432
 79
     2
 49
7.399774995313283
 49
-4560.119085052519
 53
83.25300000000003
 43
12000.22364386054
 44
-1392.035996001182
 45
10.95204383447483
 46
0.0000798601498432
 79
     2
 49
7.399774995313283
 49
-4560.119085052519
 53
83.25300000000003
 43
12000.22364386054
 44
-1428.91309460325
 45
10.95204383447483
 46
0.0000798601498432
 79
     2
 49
7.399774995313283
 49
-4560.119085052519
 53
83.25300000000003
 43
12000.22364386054
 44
-1465.790193205322
 45
10.95204383447483
 46
0.0000798601498432
 79
     2
 49
7.399774995313283
 49
-4560.119085052519
 53
83.25300000000003
 43
12000.22364386054
 44
-1502.667291807394
 45
10.95204383447483
 46
0.0000798601498432
 79
     2
 49
7.399774995313283
 49
-4560.119085052519
 53
83.25300000000003
 43
12000.22364386054
 44
-1539.547668373788
 45
10.95204383447483
 46
0.0000798601498432
 79
     2
 49
7.399774995313283
 49
-4560.119085052519
 53
83.25300000000003
 43
12000.22364386054
 44
-1576.42476697586
 45
10.95204383447483
 46
0.0000798601498432
 79
     2
 49
7.399774995313283
 49
-4560.119085052519
 53
83.25300000000003
 43
12000.22364386054
 44
-1613.301865577932
 45
10.95204383447483
 46
0.0000798601498432
 79
     2
 49
7.399774995313283
 49
-4560.119085052519
 53
83.25300000000003
 43
12000.22364386054
 44
-1650.178964179999
 45
10.95204383447483
 46
0.0000798601498432
 79
     2
 49
7.399774995313283
 49
-4560.119085052519
 53
83.25300000000003
 43
12000.22364386054
 44
-1687.056062782071
 45
10.95204383447483
 46
0.0000798601498432
 79
     2
 49
7.399774995313283
 49
-4560.119085052519
 53
83.25300000000003
 43
12000.22364386054
 44
-1723.933161384147
 45
10.95204383447483
 46
0.0000798601498432
 79
     2
 49
7.399774995313283
 49
-4560.119085052519
 53
83.25300000000003
 43
12000.22364386054
 44
-1760.810259986218
 45
10.95204383447483
 46
0.0000798601498432
 79
     2
 49
7.399774995313283
 49
-4560.119085052519
 53
83.25300000000003
 43
12000.22364386054
 44
-1797.68735858829
 45
10.95204383447483
 46
0.0000798601498432
 79
     2
 49
7.399774995313283
 49
-4560.119085052519
 53
83.25300000000003
 43
12000.22364386054
 44
-1834.564457190362
 45
10.95204383447483
 46
0.0000798601498432
 79
     2
 49
7.399774995313283
 49
-4560.119085052519
 53
83.25300000000003
 43
12000.22364386054
 44
-1871.44155579243
 45
10.95204383447483
 46
0.0000798601498432
 79
     2
 49
7.399774995313283
 49
-4560.119085052519
 53
83.25300000000003
 43
12000.22364386054
 44
-1908.318654394502
 45
10.95204383447483
 46
0.0000798601498432
 79
     2
 49
7.399774995313283
 49
-4560.119085052519
 53
83.25300000000003
 43
12000.22364386054
 44
-1945.195752996577
 45
10.95204383447483
 46
0.0000798601498432
 79
     2
 49
7.399774995313283
 49
-4560.119085052519
 53
83.25300000000003
 43
12000.22364386054
 44
-1982.072851598645
 45
10.95204383447483
 46
0.0000798601498432
 79
     2
 49
7.399774995313283
 49
-4560.119085052519
 53
83.25300000000003
 43
12000.22364386054
 44
-2018.949950200718
 45
10.95204383447483
 46
0.0000798601498432
 79
     2
 49
7.399774995313283
 49
-4560.119085052519
 53
83.25300000000003
 43
12000.22364386054
 44
-2055.82704880279
 45
10.95204383447483
 46
0.0000798601498432
 79
     2
 49
7.399774995313283
 49
-4560.119085052519
 53
83.25300000000003
 43
12000.22364386054
 44
-2092.704147404861
 45
10.95204383447483
 46
0.0000798601498432
 79
     2
 49
7.399774995313283
 49
-4560.119085052519
 53
83.25300000000003
 43
12000.22364386054
 44
-2129.581246006933
 45
10.95204383447483
 46
0.0000798601498432
 79
     2
 49
7.399774995313283
 49
-4560.119085052519
 53
83.25300000000003
 43
12000.22364386054
 44
-2166.458344609004
 45
10.95204383447483
 46
0.0000798601498432
 79
     2
 49
7.399774995313283
 49
-4560.119085052519
 53
83.25300000000003
 43
12000.22364386054
 44
-2203.335443211077
 45
10.95204383447483
 46
0.0000798601498432
 79
     2
 49
7.399774995313283
 49
-4560.119085052519
 53
83.25300000000003
 43
12000.22364386054
 44
-2240.212541813148
 45
10.95204383447483
 46
0.0000798601498432
 79
     2
 49
7.399774995313283
 49
-4560.119085052519
 53
83.25300000000003
 43
12000.22364386054
 44
-2277.089640415224
 45
10.95204383447483
 46
0.0000798601498432
 79
     2
 49
7.399774995313283
 49
-4560.119085052519
 53
83.25300000000003
 43
12000.22364386054
 44
-2313.966739017292
 45
10.95204383447483
 46
0.0000798601498432
 79
     2
 49
7.399774995313283
 49
-4560.119085052519
 53
83.25300000000003
 43
12000.22364386054
 44
-2350.843837619363
 45
10.95204383447483
 46
0.0000798601498432
 79
     2
 49
7.399774995313283
 49
-4560.119085052519
 53
83.25300000000003
 43
12000.22364386054
 44
-2387.720936221436
 45
10.95204383447483
 46
0.0000798601498432
 79
     2
 49
7.399774995313283
 49
-4560.119085052519
 53
83.25300000000003
 43
12000.22364386054
 44
-2424.598034823507
 45
10.95204383447483
 46
0.0000798601498432
 79
     2
 49
7.399774995313283
 49
-4560.119085052519
 53
83.25300000000003
 43
12000.22364386054
 44
-2461.475133425579
 45
10.95204383447483
 46
0.0000798601498432
 79
     2
 49
7.399774995313283
 49
-4560.119085052519
 53
83.25300000000003
 43
12000.22364386054
 44
-2498.352232027651
 45
10.95204383447483
 46
0.0000798601498432
 79
     2
 49
7.399774995313283
 49
-4560.119085052519
 53
83.25300000000003
 43
12000.22364386054
 44
-2535.229330629719
 45
10.95204383447483
 46
0.0000798601498432
 79
     2
 49
7.399774995313283
 49
-4560.119085052519
 53
83.25300000000003
 43
12000.22364386054
 44
-2572.106429231791
 45
10.95204383447483
 46
0.0000798601498432
 79
     2
 49
7.399774995313283
 49
-4560.119085052519
 53
83.25300000000003
 43
12000.22364386054
 44
-2608.983527833866
 45
10.95204383447483
 46
0.0000798601498432
 79
     2
 49
7.399774995313283
 49
-4560.119085052519
 53
83.25300000000003
 43
12000.22364386054
 44
-2645.860626435935
 45
10.95204383447483
 46
0.0000798601498432
 79
     2
 49
7.399774995313283
 49
-4560.119085052519
 53
83.25300000000003
 43
12000.22364386054
 44
-2682.737725038006
 45
10.95204383447483
 46
0.0000798601498432
 79
     2
 49
7.399774995313283
 49
-4560.119085052519
 53
83.25300000000003
 43
12000.22364386054
 44
-2719.614823640078
 45
10.95204383447483
 46
0.0000798601498432
 79
     2
 49
7.399774995313283
 49
-4560.119085052519
 53
83.25300000000003
 43
12000.22364386054
 44
-2756.49192224215
 45
10.95204383447483
 46
0.0000798601498432
 79
     2
 49
7.399774995313283
 49
-4560.119085052519
 53
74.89100000000004
 43
11998.62019483368
 44
1739.002424034374
 45
10.95202665113163
 46
-0.000003043705463
 79
     2
 49
3.63896653076602
 49
-416.5337124354707
 53
74.89100000000004
 43
11998.62019483368
 44
1702.125325432298
 45
10.95202665113163
 46
-0.000003043705463
 79
     2
 49
3.63896653076602
 49
-416.5337124354707
 53
74.89100000000004
 43
11998.62019483368
 44
1665.24822683023
 45
10.95202665113163
 46
-0.000003043705463
 79
     2
 49
3.63896653076602
 49
-416.5337124354707
 53
74.89100000000004
 43
11998.62019483368
 44
1628.371128228154
 45
10.95202665113163
 46
-0.000003043705463
 79
     2
 49
3.63896653076602
 49
-416.5337124354707
 53
74.89100000000004
 43
11998.62019483368
 44
1591.494029626086
 45
10.95202665113163
 46
-0.000003043705463
 79
     2
 49
3.63896653076602
 49
-416.5337124354707
 53
74.89100000000004
 43
11998.62019483368
 44
1554.616931024011
 45
10.95202665113163
 46
-0.000003043705463
 79
     2
 49
3.63896653076602
 49
-416.5337124354707
 53
74.89100000000004
 43
11998.62019483368
 44
1517.739832421943
 45
10.95202665113163
 46
-0.000003043705463
 79
     2
 49
3.63896653076602
 49
-416.5337124354707
 53
74.89100000000004
 43
11998.62019483368
 44
1480.862733819867
 45
10.95202665113163
 46
-0.000003043705463
 79
     2
 49
3.63896653076602
 49
-416.5337124354707
 53
74.89100000000004
 43
11998.62019483368
 44
1443.986618607097
 45
10.95202665113163
 46
-0.000003043705463
 79
     2
 49
3.63896653076602
 49
-416.5337124354707
 53
74.89100000000004
 43
11998.62019483368
 44
1407.109520005022
 45
10.95202665113163
 46
-0.000003043705463
 79
     2
 49
3.63896653076602
 49
-416.5337124354707
 53
74.89100000000004
 43
11998.62019483368
 44
1370.232421402954
 45
10.95202665113163
 46
-0.000003043705463
 79
     2
 49
3.63896653076602
 49
-416.5337124354707
 53
67.06200000000002
 43
12001.09469731934
 44
1749.864253826086
 45
10.95204222691618
 46
0.0000810236171289
 79
     2
 49
8.386475035331908
 49
-1593.356600854788
 53
67.06200000000002
 43
12001.09469731934
 44
1712.987188003663
 45
10.95204222691618
 46
0.0000810236171289
 79
     2
 49
8.386475035331908
 49
-1593.356600854788
 53
67.06200000000002
 43
12001.09469731934
 44
1676.110089401595
 45
10.95204222691618
 46
0.0000810236171289
 79
     2
 49
8.386475035331908
 49
-1593.356600854788
 53
67.06200000000002
 43
12001.09469731934
 44
1639.232990799519
 45
10.95204222691618
 46
0.0000810236171289
 79
     2
 49
8.386475035331908
 49
-1593.356600854788
 53
67.06200000000002
 43
12001.09469731934
 44
1602.355892197444
 45
10.95204222691618
 46
0.0000810236171289
 79
     2
 49
8.386475035331908
 49
-1593.356600854788
 53
67.06200000000002
 43
12001.09469731934
 44
1565.478793595375
 45
10.95204222691618
 46
0.0000810236171289
 79
     2
 49
8.386475035331908
 49
-1593.356600854788
 53
67.06200000000002
 43
12001.09469731934
 44
1528.601694993307
 45
10.95204222691618
 46
0.0000810236171289
 79
     2
 49
8.386475035331908
 49
-1593.356600854788
 53
67.06200000000002
 43
12001.09469731934
 44
1491.724596391232
 45
10.95204222691618
 46
0.0000810236171289
 79
     2
 49
8.386475035331908
 49
-1593.356600854788
 53
67.06200000000002
 43
12001.09469731934
 44
1454.847497789164
 45
10.95204222691618
 46
0.0000810236171289
 79
     2
 49
8.386475035331908
 49
-1593.356600854788
 53
67.06200000000002
 43
12001.09469731934
 44
1417.96941579779
 45
10.95204222691618
 46
0.0000810236171289
 79
     2
 49
8.386475035331908
 49
-1593.356600854788
 53
67.06200000000002
 43
12001.09469731934
 44
1381.092317195722
 45
10.95204222691618
 46
0.0000810236171289
 79
     2
 49
8.386475035331908
 49
-1593.356600854788
 53
67.06200000000002
 43
12001.09469731934
 44
1344.215218593646
 45
10.95204222691618
 46
0.0000810236171289
 79
     2
 49
8.386475035331908
 49
-1593.356600854788
 53
67.06200000000002
 43
12001.09469731934
 44
1307.338119991578
 45
10.95204222691618
 46
0.0000810236171289
 79
     2
 49
8.386475035331908
 49
-1593.356600854788
 53
67.06200000000002
 43
12001.09469731934
 44
1270.46102138951
 45
10.95204222691618
 46
0.0000810236171289
 79
     2
 49
8.386475035331908
 49
-1593.356600854788
 53
67.06200000000002
 43
12001.09469731934
 44
1233.583922787435
 45
10.95204222691618
 46
0.0000810236171289
 79
     2
 49
8.386475035331908
 49
-1593.356600854788
 53
67.06200000000002
 43
12001.09469731934
 44
1196.706824185366
 45
10.95204222691618
 46
0.0000810236171289
 79
     2
 49
8.386475035331908
 49
-1593.356600854788
 53
67.06200000000002
 43
12001.09469731934
 44
1159.829725583291
 45
10.95204222691618
 46
0.0000810236171289
 79
     2
 49
8.386475035331908
 49
-1593.356600854788
 53
67.06200000000002
 43
12001.09469731934
 44
1122.952626981216
 45
10.95204222691618
 46
0.0000810236171289
 79
     2
 49
8.386475035331908
 49
-1593.356600854788
 53
67.06200000000002
 43
12001.09469731934
 44
1086.075528379147
 45
10.95204222691618
 46
0.0000810236171289
 79
     2
 49
8.386475035331908
 49
-1593.356600854788
 53
67.06200000000002
 43
12001.09469731934
 44
1049.198429777079
 45
10.95204222691618
 46
0.0000810236171289
 79
     2
 49
8.386475035331908
 49
-1593.356600854788
 53
67.06200000000002
 43
12001.09469731934
 44
1012.321331175004
 45
10.95204222691618
 46
0.0000810236171289
 79
     2
 49
8.386475035331908
 49
-1593.356600854788
 53
67.06200000000002
 43
12001.09469731934
 44
975.444232572936
 45
10.95204222691618
 46
0.0000810236171289
 79
     2
 49
8.386475035331908
 49
-1593.356600854788
 53
67.06200000000002
 43
12001.09469731934
 44
938.5671339708606
 45
10.95204222691618
 46
0.0000810236171289
 79
     2
 49
8.386475035331908
 49
-1593.356600854788
 53
67.06200000000002
 43
12001.09469731934
 44
901.6900353687924
 45
10.95204222691618
 46
0.0000810236171289
 79
     2
 49
8.386475035331908
 49
-1593.356600854788
 53
67.06200000000002
 43
12001.09469731934
 44
864.8129367667243
 45
10.95204222691618
 46
0.0000810236171289
 79
     2
 49
8.386475035331908
 49
-1593.356600854788
 53
67.06200000000002
 43
12001.09469731934
 44
827.9358381646488
 45
10.95204222691618
 46
0.0000810236171289
 79
     2
 49
8.386475035331908
 49
-1593.356600854788
 53
67.06200000000002
 43
12001.09469731934
 44
791.0587395625734
 45
10.95204222691618
 46
0.0000810236171289
 79
     2
 49
8.386475035331908
 49
-1593.356600854788
 53
67.06200000000002
 43
12001.09469731934
 44
754.1816409605053
 45
10.95204222691618
 46
0.0000810236171289
 79
     2
 49
8.386475035331908
 49
-1593.356600854788
 53
67.06200000000002
 43
12001.09469731934
 44
717.3045423584335
 45
10.95204222691618
 46
0.0000810236171289
 79
     2
 49
8.386475035331908
 49
-1593.356600854788
 53
67.06200000000002
 43
12001.09469731934
 44
680.4274437563617
 45
10.95204222691618
 46
0.0000810236171289
 79
     2
 49
8.386475035331908
 49
-1593.356600854788
 53
67.06200000000002
 43
12001.09469731934
 44
643.5503451542863
 45
10.95204222691618
 46
0.0000810236171289
 79
     2
 49
8.386475035331908
 49
-1593.356600854788
 53
67.06200000000002
 43
12001.09469731934
 44
606.6732465522181
 45
10.95204222691618
 46
0.0000810236171289
 79
     2
 49
8.386475035331908
 49
-1593.356600854788
 53
67.06200000000002
 43
12001.09469731934
 44
569.7961479501464
 45
10.95204222691618
 46
0.0000810236171289
 79
     2
 49
8.386475035331908
 49
-1593.356600854788
 53
67.06200000000002
 43
12001.09469731934
 44
532.9190493480746
 45
10.95204222691618
 46
0.0000810236171289
 79
     2
 49
8.386475035331908
 49
-1593.356600854788
 53
67.06200000000002
 43
12001.09469731934
 44
496.0419507460028
 45
10.95204222691618
 46
0.0000810236171289
 79
     2
 49
8.386475035331908
 49
-1593.356600854788
 53
67.06200000000002
 43
12001.09469731934
 44
459.164852143931
 45
10.95204222691618
 46
0.0000810236171289
 79
     2
 49
8.386475035331908
 49
-1593.356600854788
 53
67.06200000000002
 43
12001.09469731934
 44
422.2877535418592
 45
10.95204222691618
 46
0.0000810236171289
 79
     2
 49
8.386475035331908
 49
-1593.356600854788
 53
67.06200000000002
 43
12001.09469731934
 44
385.4106549397911
 45
10.95204222691618
 46
0.0000810236171289
 79
     2
 49
8.386475035331908
 49
-1593.356600854788
 53
67.06200000000002
 43
12001.09469731934
 44
348.5335563377193
 45
10.95204222691618
 46
0.0000810236171289
 79
     2
 49
8.386475035331908
 49
-1593.356600854788
 53
67.06200000000002
 43
12001.09469731934
 44
311.6564577356439
 45
10.95204222691618
 46
0.0000810236171289
 79
     2
 49
8.386475035331908
 49
-1593.356600854788
 53
52.43499999999998
 43
11994.56641339106
 44
1765.6019899848
 45
10.95203172552474
 46
-0.000054871588512
 79
     2
 49
4.503300162712174
 49
-1809.889024393906
 53
52.43499999999998
 43
11994.56641339106
 44
1728.725022501301
 45
10.95203172552474
 46
-0.000054871588512
 79
     2
 49
4.503300162712174
 49
-1809.889024393906
 53
52.43499999999998
 43
11994.56641339106
 44
1691.847923899226
 45
10.95203172552474
 46
-0.000054871588512
 79
     2
 49
4.503300162712174
 49
-1809.889024393906
 53
52.43499999999998
 43
11994.56641339106
 44
1654.97082529715
 45
10.95203172552474
 46
-0.000054871588512
 79
     2
 49
4.503300162712174
 49
-1809.889024393906
 53
52.43499999999998
 43
11994.56641339106
 44
1618.093726695082
 45
10.95203172552474
 46
-0.000054871588512
 79
     2
 49
4.503300162712174
 49
-1809.889024393906
 53
52.43499999999998
 43
11994.56641339106
 44
1581.216628093014
 45
10.95203172552474
 46
-0.000054871588512
 79
     2
 49
4.503300162712174
 49
-1809.889024393906
 53
52.43499999999998
 43
11994.56641339106
 44
1544.339529490946
 45
10.95203172552474
 46
-0.000054871588512
 79
     2
 49
4.503300162712174
 49
-1809.889024393906
 53
52.43499999999998
 43
11994.56641339106
 44
1507.46243088887
 45
10.95203172552474
 46
-0.000054871588512
 79
     2
 49
4.503300162712174
 49
-1809.889024393906
 53
52.43499999999998
 43
11994.56641339106
 44
1470.585332286795
 45
10.95203172552474
 46
-0.000054871588512
 79
     2
 49
4.503300162712174
 49
-1809.889024393906
 53
52.43499999999998
 43
11994.56641339106
 44
1433.706922498994
 45
10.95203172552474
 46
-0.000054871588512
 79
     2
 49
4.503300162712174
 49
-1809.889024393906
 53
52.43499999999998
 43
11994.56641339106
 44
1396.829823896925
 45
10.95203172552474
 46
-0.000054871588512
 79
     2
 49
4.503300162712174
 49
-1809.889024393906
 53
52.43499999999998
 43
11994.56641339106
 44
1359.952725294857
 45
10.95203172552474
 46
-0.000054871588512
 79
     2
 49
4.503300162712174
 49
-1809.889024393906
 53
52.43499999999998
 43
11994.56641339106
 44
1323.075626692782
 45
10.95203172552474
 46
-0.000054871588512
 79
     2
 49
4.503300162712174
 49
-1809.889024393906
 53
52.43499999999998
 43
11994.56641339106
 44
1286.198528090706
 45
10.95203172552474
 46
-0.000054871588512
 79
     2
 49
4.503300162712174
 49
-1809.889024393906
 53
52.43499999999998
 43
11994.56641339106
 44
1249.321429488638
 45
10.95203172552474
 46
-0.000054871588512
 79
     2
 49
4.503300162712174
 49
-1809.889024393906
 53
52.43499999999998
 43
11994.56641339106
 44
1212.44433088657
 45
10.95203172552474
 46
-0.000054871588512
 79
     2
 49
4.503300162712174
 49
-1809.889024393906
 53
52.43499999999998
 43
11994.56641339106
 44
1175.567232284495
 45
10.95203172552474
 46
-0.000054871588512
 79
     2
 49
4.503300162712174
 49
-1809.889024393906
 53
52.43499999999998
 43
11994.56641339106
 44
1138.690133682426
 45
10.95203172552474
 46
-0.000054871588512
 79
     2
 49
4.503300162712174
 49
-1809.889024393906
 53
52.43499999999998
 43
11994.56641339106
 44
1101.813035080351
 45
10.95203172552474
 46
-0.000054871588512
 79
     2
 49
4.503300162712174
 49
-1809.889024393906
 53
52.43499999999998
 43
11994.56641339106
 44
1064.935936478283
 45
10.95203172552474
 46
-0.000054871588512
 79
     2
 49
4.503300162712174
 49
-1809.889024393906
 53
52.43499999999998
 43
11994.56641339106
 44
1028.058837876215
 45
10.95203172552474
 46
-0.000054871588512
 79
     2
 49
4.503300162712174
 49
-1809.889024393906
 53
52.43499999999998
 43
11994.56641339106
 44
991.1817392741395
 45
10.95203172552474
 46
-0.000054871588512
 79
     2
 49
4.503300162712174
 49
-1809.889024393906
 53
52.43499999999998
 43
11994.56641339106
 44
954.3046406720641
 45
10.95203172552474
 46
-0.000054871588512
 79
     2
 49
4.503300162712174
 49
-1809.889024393906
 53
52.43499999999998
 43
11994.56641339106
 44
917.4275420699959
 45
10.95203172552474
 46
-0.000054871588512
 79
     2
 49
4.503300162712174
 49
-1809.889024393906
 53
52.43499999999998
 43
11994.56641339106
 44
880.5504434679205
 45
10.95203172552474
 46
-0.000054871588512
 79
     2
 49
4.503300162712174
 49
-1809.889024393906
 53
52.43499999999998
 43
11994.56641339106
 44
843.6733448658523
 45
10.95203172552474
 46
-0.000054871588512
 79
     2
 49
4.503300162712174
 49
-1809.889024393906
 53
52.43499999999998
 43
11994.56641339106
 44
806.7962462637769
 45
10.95203172552474
 46
-0.000054871588512
 79
     2
 49
4.503300162712174
 49
-1809.889024393906
 53
52.43499999999998
 43
11994.56641339106
 44
769.9191476617088
 45
10.95203172552474
 46
-0.000054871588512
 79
     2
 49
4.503300162712174
 49
-1809.889024393906
 53
52.43499999999998
 43
11994.56641339106
 44
733.042049059637
 45
10.95203172552474
 46
-0.000054871588512
 79
     2
 49
4.503300162712174
 49
-1809.889024393906
 53
52.43499999999998
 43
11994.56641339106
 44
696.1649504575652
 45
10.95203172552474
 46
-0.000054871588512
 79
     2
 49
4.503300162712174
 49
-1809.889024393906
 53
52.43499999999998
 43
11994.56641339106
 44
659.2878518554934
 45
10.95203172552474
 46
-0.000054871588512
 79
     2
 49
4.503300162712174
 49
-1809.889024393906
 53
52.43499999999998
 43
11994.56641339106
 44
622.4107532534217
 45
10.95203172552474
 46
-0.000054871588512
 79
     2
 49
4.503300162712174
 49
-1809.889024393906
 53
52.43499999999998
 43
11994.56641339106
 44
585.5336546513536
 45
10.95203172552474
 46
-0.000054871588512
 79
     2
 49
4.503300162712174
 49
-1809.889024393906
 53
52.43499999999998
 43
11994.56641339106
 44
548.6565560492781
 45
10.95203172552474
 46
-0.000054871588512
 79
     2
 49
4.503300162712174
 49
-1809.889024393906
 53
52.43499999999998
 43
11994.56641339106
 44
511.77945744721
 45
10.95203172552474
 46
-0.000054871588512
 79
     2
 49
4.503300162712174
 49
-1809.889024393906
 53
52.43499999999998
 43
11994.56641339106
 44
474.9023588451345
 45
10.95203172552474
 46
-0.000054871588512
 79
     2
 49
4.503300162712174
 49
-1809.889024393906
 53
52.43499999999998
 43
11994.56641339106
 44
438.0252602430628
 45
10.95203172552474
 46
-0.000054871588512
 79
     2
 49
4.503300162712174
 49
-1809.889024393906
 53
52.43499999999998
 43
11994.56641339106
 44
401.148161640991
 45
10.95203172552474
 46
-0.000054871588512
 79
     2
 49
4.503300162712174
 49
-1809.889024393906
 53
52.43499999999998
 43
11994.56641339106
 44
364.2710630389229
 45
10.95203172552474
 46
-0.000054871588512
 79
     2
 49
4.503300162712174
 49
-1809.889024393906
 53
25.04599999999999
 43
11994.41984413344
 44
1737.039906795882
 45
10.95203652759968
 46
0.0000881814618674
 79
     2
 49
4.636287175181982
 49
-2957.102061108968
 53
25.04599999999999
 43
11994.41984413344
 44
1700.162808193807
 45
10.95203652759968
 46
0.0000881814618674
 79
     2
 49
4.636287175181982
 49
-2957.102061108968
 53
25.04599999999999
 43
11994.41984413344
 44
1663.285709591731
 45
10.95203652759968
 46
0.0000881814618674
 79
     2
 49
4.636287175181982
 49
-2957.102061108968
 53
25.04599999999999
 43
11994.41984413344
 44
1626.408610989663
 45
10.95203652759968
 46
0.0000881814618674
 79
     2
 49
4.636287175181982
 49
-2957.102061108968
 53
25.04599999999999
 43
11994.41984413344
 44
1589.531512387588
 45
10.95203652759968
 46
0.0000881814618674
 79
     2
 49
4.636287175181982
 49
-2957.102061108968
 53
25.04599999999999
 43
11994.41984413344
 44
1552.65441378552
 45
10.95203652759968
 46
0.0000881814618674
 79
     2
 49
4.636287175181982
 49
-2957.102061108968
 53
25.04599999999999
 43
11994.41984413344
 44
1515.777315183451
 45
10.95203652759968
 46
0.0000881814618674
 79
     2
 49
4.636287175181982
 49
-2957.102061108968
 53
25.04599999999999
 43
11994.41984413344
 44
1478.900216581376
 45
10.95203652759968
 46
0.0000881814618674
 79
     2
 49
4.636287175181982
 49
-2957.102061108968
 53
25.04599999999999
 43
11994.41984413344
 44
1442.023117979301
 45
10.95203652759968
 46
0.0000881814618674
 79
     2
 49
4.636287175181982
 49
-2957.102061108968
 53
25.04599999999999
 43
11994.41984413344
 44
1405.146019377233
 45
10.95203652759968
 46
0.0000881814618674
 79
     2
 49
4.636287175181982
 49
-2957.102061108968
 53
25.04599999999999
 43
11994.41984413344
 44
1368.268920775157
 45
10.95203652759968
 46
0.0000881814618674
 79
     2
 49
4.636287175181982
 49
-2957.102061108968
 53
25.04599999999999
 43
11994.41984413344
 44
1331.391822173089
 45
10.95203652759968
 46
0.0000881814618674
 79
     2
 49
4.636287175181982
 49
-2957.102061108968
 53
25.04599999999999
 43
11994.41984413344
 44
1294.514723571021
 45
10.95203652759968
 46
0.0000881814618674
 79
     2
 49
4.636287175181982
 49
-2957.102061108968
 53
25.04599999999999
 43
11994.41984413344
 44
1257.637624968946
 45
10.95203652759968
 46
0.0000881814618674
 79
     2
 49
4.636287175181982
 49
-2957.102061108968
 53
25.04599999999999
 43
11994.41984413344
 44
1220.760526366877
 45
10.95203652759968
 46
0.0000881814618674
 79
     2
 49
4.636287175181982
 49
-2957.102061108968
 53
25.04599999999999
 43
11994.41984413344
 44
1183.883427764802
 45
10.95203652759968
 46
0.0000881814618674
 79
     2
 49
4.636287175181982
 49
-2957.102061108968
 53
25.04599999999999
 43
11994.41984413344
 44
1147.006329162726
 45
10.95203652759968
 46
0.0000881814618674
 79
     2
 49
4.636287175181982
 49
-2957.102061108968
 53
25.04599999999999
 43
11994.41984413344
 44
1110.129230560658
 45
10.95203652759968
 46
0.0000881814618674
 79
     2
 49
4.636287175181982
 49
-2957.102061108968
 53
25.04599999999999
 43
11994.41984413344
 44
1073.25213195859
 45
10.95203652759968
 46
0.0000881814618674
 79
     2
 49
4.636287175181982
 49
-2957.102061108968
 53
25.04599999999999
 43
11994.41984413344
 44
1036.375033356515
 45
10.95203652759968
 46
0.0000881814618674
 79
     2
 49
4.636287175181982
 49
-2957.102061108968
 53
25.04599999999999
 43
11994.41984413344
 44
999.4979347544468
 45
10.95203652759968
 46
0.0000881814618674
 79
     2
 49
4.636287175181982
 49
-2957.102061108968
 53
25.04599999999999
 43
11994.41984413344
 44
962.6208361523714
 45
10.95203652759968
 46
0.0000881814618674
 79
     2
 49
4.636287175181982
 49
-2957.102061108968
 53
25.04599999999999
 43
11994.41984413344
 44
925.7437375503032
 45
10.95203652759968
 46
0.0000881814618674
 79
     2
 49
4.636287175181982
 49
-2957.102061108968
 53
25.04599999999999
 43
11994.41984413344
 44
888.866638948235
 45
10.95203652759968
 46
0.0000881814618674
 79
     2
 49
4.636287175181982
 49
-2957.102061108968
 53
25.04599999999999
 43
11994.41984413344
 44
851.9895403461596
 45
10.95203652759968
 46
0.0000881814618674
 79
     2
 49
4.636287175181982
 49
-2957.102061108968
 53
25.04599999999999
 43
11994.41984413344
 44
815.1124417440842
 45
10.95203652759968
 46
0.0000881814618674
 79
     2
 49
4.636287175181982
 49
-2957.102061108968
 53
25.04599999999999
 43
11994.41984413344
 44
778.235343142016
 45
10.95203652759968
 46
0.0000881814618674
 79
     2
 49
4.636287175181982
 49
-2957.102061108968
 53
25.04599999999999
 43
11994.41984413344
 44
741.3582445399442
 45
10.95203652759968
 46
0.0000881814618674
 79
     2
 49
4.636287175181982
 49
-2957.102061108968
 53
25.04599999999999
 43
11994.41984413344
 44
704.4811459378725
 45
10.95203652759968
 46
0.0000881814618674
 79
     2
 49
4.636287175181982
 49
-2957.102061108968
 53
25.04599999999999
 43
11994.41984413344
 44
667.6040473357971
 45
10.95203652759968
 46
0.0000881814618674
 79
     2
 49
4.636287175181982
 49
-2957.102061108968
 53
25.04599999999999
 43
11994.41984413344
 44
630.7269487337289
 45
10.95203652759968
 46
0.0000881814618674
 79
     2
 49
4.636287175181982
 49
-2957.102061108968
 53
25.04599999999999
 43
11994.41984413344
 44
593.8498501316571
 45
10.95203652759968
 46
0.0000881814618674
 79
     2
 49
4.636287175181982
 49
-2957.102061108968
 53
25.04599999999999
 43
11994.41984413344
 44
556.9727515295853
 45
10.95203652759968
 46
0.0000881814618674
 79
     2
 49
4.636287175181982
 49
-2957.102061108968
 53
25.04599999999999
 43
11994.41984413344
 44
520.0956529275136
 45
10.95203652759968
 46
0.0000881814618674
 79
     2
 49
4.636287175181982
 49
-2957.102061108968
 53
14.07599999999998
 43
11997.31191993791
 44
1769.171562010906
 45
10.95202660951167
 46
-0.0000805056871684
 79
     2
 49
2.663936043727242
 49
-1058.697838380728
 53
14.07599999999998
 43
11997.31191993791
 44
1732.294397849549
 45
10.95202660951167
 46
-0.0000805056871684
 79
     2
 49
2.663936043727242
 49
-1058.697838380728
 53
14.07599999999998
 43
11997.31191993791
 44
1695.417299247474
 45
10.95202660951167
 46
-0.0000805056871684
 79
     2
 49
2.663936043727242
 49
-1058.697838380728
 53
14.07599999999998
 43
11997.31191993791
 44
1658.540200645406
 45
10.95202660951167
 46
-0.0000805056871684
 79
     2
 49
2.663936043727242
 49
-1058.697838380728
 53
14.07599999999998
 43
11997.31191993791
 44
1621.66310204333
 45
10.95202660951167
 46
-0.0000805056871684
 79
     2
 49
2.663936043727242
 49
-1058.697838380728
 53
14.07599999999998
 43
11997.31191993791
 44
1584.786003441255
 45
10.95202660951167
 46
-0.0000805056871684
 79
     2
 49
2.663936043727242
 49
-1058.697838380728
 53
14.07599999999998
 43
11997.31191993791
 44
1547.908904839187
 45
10.95202660951167
 46
-0.0000805056871684
 79
     2
 49
2.663936043727242
 49
-1058.697838380728
 98
        1
 10
1519.154374152576
 20
606.3069436081969
  0
POLYLINE
  5
93D1
330
67
100
AcDbEntity
  8
F_31 Ansichtsfenster
370
    13
100
AcDb2dPolyline
 66
     1
 10
0.0
 20
0.0
 30
0.0
  0
VERTEX
  5
93D2
330
93D1
100
AcDbEntity
  8
F_31 Ansichtsfenster
370
    13
100
AcDbVertex
100
AcDb2dVertex
 10
586.519694686025
 20
278.0888652088543
 30
0.0
  0
VERTEX
  5
93D3
330
93D1
100
AcDbEntity
  8
F_31 Ansichtsfenster
370
    13
100
AcDbVertex
100
AcDb2dVertex
 10
586.519694686025
 20
626.0888653665497
 30
0.0
  0
SEQEND
  5
93D4
330
93D1
100
AcDbEntity
  8
F_31 Ansichtsfenster
370
    13
  0
LINE
  5
93D5
330
67
100
AcDbEntity
  8
F_01 sichtbar
370
    13
100
AcDbLine
 10
465.8098030811834
 20
263.0888652088543
 30
0.0
 11
465.8098030811834
 21
229.7659700270015
 31
0.0
  0
SOLID
  5
93D6
330
67
100
AcDbEntity
  8
F_01 sichtbar
370
    13
100
AcDbTrace
 10
463.3098030811834
 20
263.0888652088543
 30
0.0
 11
468.3098030811834
 21
263.0888652088543
 31
0.0
 12
465.8098030811834
 22
278.0888652088543
 32
0.0
 13
465.8098030811834
 23
278.0888652088543
 33
0.0
  0
TEXT
  5
93D7
330
67
100
AcDbEntity
  8
F_01 sichtbar
370
    13
100
AcDbText
 10
460.8098030811834
 20
241.540986686643
 30
0.0
 40
15.0
  1
Z
 50
90.0
  7
Arial
100
AcDbText
  0
LINE
  5
93D8
330
67
100
AcDbEntity
  8
F_01 sichtbar
370
    13
100
AcDbLine
 10
299.9487514939919
 20
598.5888653665533
 30
0.0
 11
299.9487514939919
 21
285.5888652088506
 31
0.0
  0
SOLID
  5
93D9
330
67
100
AcDbEntity
  8
F_01 sichtbar
370
    13
100
AcDbTrace
 10
297.4487514939919
 20
293.0888652088506
 30
0.0
 11
302.448751493992
 21
293.0888652088506
 31
0.0
 12
299.9487514939919
 22
278.0888652088506
 32
0.0
 13
299.9487514939919
 23
278.0888652088506
 33
0.0
  0
SOLID
  5
93DA
330
67
100
AcDbEntity
  8
F_01 sichtbar
370
    13
100
AcDbTrace
 10
297.4487514939919
 20
591.0888653665534
 30
0.0
 11
302.448751493992
 21
591.0888653665534
 31
0.0
 12
299.9487514939919
 22
606.0888653665533
 32
0.0
 13
299.9487514939919
 23
606.0888653665533
 33
0.0
  0
TEXT
  5
93DB
330
67
100
AcDbEntity
  8
F_01 sichtbar
370
    13
100
AcDbText
 10
294.9487514939919
 20
202.8218523117248
 30
0.0
 40
15.0
  1
RH
 50
90.0
  7
Arial
100
AcDbText
  0
LINE
  5
93DC
330
67
100
AcDbEntity
  8
F_01 sichtbar
370
    13
100
AcDbLine
 10
250.8602692266813
 20
598.5888653665533
 30
0.0
 11
250.8602692266813
 21
84.0008489430329
 31
0.0
  0
SOLID
  5
93DD
330
67
100
AcDbEntity
  8
F_01 sichtbar
370
    13
100
AcDbTrace
 10
248.3602692266813
 20
591.0888653665534
 30
0.0
 11
253.3602692266813
 21
591.0888653665534
 31
0.0
 12
250.8602692266813
 22
606.0888653665533
 32
0.0
 13
250.8602692266813
 23
606.0888653665533
 33
0.0
  0
LINE
  5
93DE
330
67
100
AcDbEntity
  8
F_01 sichtbar
370
    13
100
AcDbLine
 10
299.9487514939919
 20
270.5888652088506
 30
0.0
 11
299.9487514939919
 21
84.0008489430329
 31
0.0
  0
TEXT
  5
93DF
330
67
100
AcDbEntity
  8
F_01 sichtbar
370
    13
100
AcDbText
 10
245.4765720916203
 20
208.8045446785909
 30
0.0
 40
15.0
  1
C
 50
90.0
  7
Arial
100
AcDbText
  0
SOLID
  5
93E0
330
67
100
AcDbEntity
  8
F_01 sichtbar
370
    13
100
AcDbTrace
 10
297.4487514939919
 20
263.0888652088506
 30
0.0
 11
302.448751493992
 21
263.0888652088506
 31
0.0
 12
299.9487514939919
 22
278.0888652088506
 32
0.0
 13
299.9487514939919
 23
278.0888652088506
 33
0.0
  0
TEXT
  5
93E1
330
67
100
AcDbEntity
  8
F_01 sichtbar
370
    13
100
AcDbText
 10
294.9487514939919
 20
439.2716755772053
 30
0.0
 40
15.0
  1
D
 50
90.0
  7
Arial
100
AcDbText
  0
HATCH
  5
93E2
330
67
100
AcDbEntity
  8
F_01 sichtbar
370
    13
100
AcDbHatch
 10
0.0
 20
0.0
 30
0.0
210
0.0
220
0.0
230
1.0
  2
HEX
 70
     0
 71
     0
 91
        1
 92
        7
 72
     0
 73
     1
 93
        4
 10
350.1773500434301
 20
606.0888653664441
 10
188.2336974795926
 20
606.0888653664441
 10
188.2336974795926
 20
516.0888653664442
 10
350.1773500434229
 20
516.0888653664442
 97
        0
 75
     0
 76
     1
 52
0.0
 41
2.0
 77
     0
 78
     3
 53
0.0
 43
-35285.87230674249
 44
-14117.95952886839
 45
0.0
 46
10.99852
 79
     2
 49
6.349999999999999
 49
-12.7
 53
120.0
 43
-35285.87230674249
 44
-14117.95952886839
 45
-9.524997724031223
 46
-5.499259999999996
 79
     2
 49
6.349999999999992
 49
-12.69999999999998
 53
60.0
 43
-35279.52230674249
 44
-14117.95952886839
 45
-9.524997724031223
 46
5.49926
 79
     2
 49
6.349999999999999
 49
-12.7
 47
0.536036505142345
 98
        1
 10
272.4294306980318
 20
560.5078898943975
1001
ACAD
1010
0.0
1020
0.0
1030
0.0
  0
POLYLINE
  5
93E3
330
67
100
AcDbEntity
  8
F_01 sichtbar
370
    13
100
AcDb2dPolyline
 66
     1
 10
0.0
 20
0.0
 30
0.0
 70
     1
  0
VERTEX
  5
93E4
330
93E3
100
AcDbEntity
  8
F_01 sichtbar
370
    13
100
AcDbVertex
100
AcDb2dVertex
 10
370.1458671548189
 20
606.0888653665315
 30
0.0
  0
VERTEX
  5
93E5
330
93E3
100
AcDbEntity
  8
F_01 sichtbar
370
    13
100
AcDbVertex
100
AcDb2dVertex
 10
370.1458408384878
 20
414.0889464718821
 30
0.0
  0
VERTEX
  5
93E6
330
93E3
100
AcDbEntity
  8
F_01 sichtbar
370
    13
100
AcDbVertex
100
AcDb2dVertex
 10
380.1458408384879
 20
414.0889464718821
 30
0.0
  0
VERTEX
  5
93E7
330
93E3
100
AcDbEntity
  8
F_01 sichtbar
370
    13
100
AcDbVertex
100
AcDb2dVertex
 10
380.1458408384879
 20
425.088946471882
 30
0.0
  0
VERTEX
  5
93E8
330
93E3
100
AcDbEntity
  8
F_01 sichtbar
370
    13
100
AcDbVertex
100
AcDb2dVertex
 10
384.1458408384879
 20
425.088946471882
 30
0.0
  0
VERTEX
  5
93E9
330
93E3
100
AcDbEntity
  8
F_01 sichtbar
370
    13
100
AcDbVertex
100
AcDb2dVertex
 10
384.1458408384879
 20
414.0889464718821
 30
0.0
  0
VERTEX
  5
93EA
330
93E3
100
AcDbEntity
  8
F_01 sichtbar
370
    13
100
AcDbVertex
100
AcDb2dVertex
 10
395.1458408384878
 20
414.0889464718821
 30
0.0
  0
VERTEX
  5
93EB
330
93E3
100
AcDbEntity
  8
F_01 sichtbar
370
    13
100
AcDbVertex
100
AcDb2dVertex
 10
395.1458671548189
 20
606.0888653665315
 30
0.0
  0
SEQEND
  5
93EC
330
93E3
100
AcDbEntity
  8
F_01 sichtbar
370
    13
  0
LINE
  5
93ED
330
67
100
AcDbEntity
  8
F_01 sichtbar
370
    13
100
AcDbLine
 10
393.6458218812713
 20
606.0888653665279
 30
0.0
 11
393.6457955649403
 21
414.0889464718821
 31
0.0
  0
LINE
  5
93EE
330
67
100
AcDbEntity
  8
F_01 sichtbar
370
    13
100
AcDbLine
 10
371.6457955649403
 20
414.0889464718821
 30
0.0
 11
371.6458218812713
 21
606.0888653665315
 31
0.0
  0
HATCH
  5
93EF
330
67
100
AcDbEntity
  8
F_01 sichtbar
370
    13
100
AcDbHatch
 10
0.0
 20
0.0
 30
0.0
210
0.0
220
0.0
230
1.0
  2
JIS_WOOD
 70
     0
 71
     0
 91
        1
 92
        1
 93
        8
 72
     1
 10
371.6457983870368
 20
414.0889464718821
 11
380.1458408384879
 21
414.0889464718821
 72
     1
 10
380.1458408384879
 20
414.0889464718821
 11
380.1458408384879
 21
425.088946471882
 72
     1
 10
380.1458408384879
 20
425.088946471882
 11
384.1458408384879
 21
425.088946471882
 72
     1
 10
384.1458408384879
 20
425.088946471882
 11
384.1458408384879
 21
414.0889464718821
 72
     1
 10
384.1458408384879
 20
414.0889464718821
 11
393.6457820816959
 21
414.0889464718821
 72
     1
 10
393.6457820816959
 20
414.0889464718821
 11
393.645821881264
 21
606.0888653665297
 72
     1
 10
393.645821881264
 20
606.0888653665315
 11
371.6458218812713
 21
606.0888653665406
 72
     1
 10
371.6458218812713
 20
606.0888653665387
 11
371.6457983870368
 21
414.0889464718821
 97
        0
 75
     0
 76
     1
 52
315.0
 41
30.0
 77
     0
 78
     1
 53
0.0
 43
-23338.67512358171
 44
-14057.92740660674
 45
0.0000000000000071
 46
21.2132034
 79
     0
 98
        1
 10
-23338.67512358171
 20
-14057.92740660674
1001
ACAD
1010
0.0
1020
0.0
1030
0.0
  0
HATCH
  5
93F0
330
67
100
AcDbEntity
  8
F_01 sichtbar
370
    13
100
AcDbHatch
 10
0.0
 20
0.0
 30
0.0
210
0.0
220
0.0
230
1.0
  2
BATT_INSULATION
 70
     0
 71
     0
 91
        1
 92
        1
 93
        4
 72
     1
 10
350.1458475059644
 20
606.0888653665533
 11
370.1458671548262
 21
606.0888653665279
 72
     1
 10
370.1458671548262
 20
606.0888653665279
 11
370.1458433448079
 21
434.088946471882
 72
     1
 10
370.1458433448079
 20
434.088946471882
 11
350.1549376179264
 21
434.088946471882
 72
     1
 10
350.1549376179264
 20
434.088946471882
 11
350.1458475059644
 21
606.0888653665533
 97
        0
 75
     0
 76
     2
 52
270.0
 41
19.93002306671958
 77
     0
 78
   528
 53
90.0
 43
-414.604571521164
 44
7618.663221987907
 45
22.42127595005953
 46
6.658839936844743
 79
     2
 49
0.0
 49
-6.658839936844742
 53
75.92359999999998
 43
-412.1133186378192
 44
7615.333792054468
 45
-0.000002460039453
 46
6.658832178762542
 79
     2
 49
1.619673114586158
 49
-643.68828573548
 53
75.92359999999998
 43
-389.6920426877605
 44
7615.333792054468
 45
-0.000002460039453
 46
6.658832178762542
 79
     2
 49
1.619673114586158
 49
-643.68828573548
 53
75.92359999999998
 43
-367.2707667377017
 44
7615.333792054468
 45
-0.000002460039453
 46
6.658832178762542
 79
     2
 49
1.619673114586158
 49
-643.68828573548
 53
75.92359999999998
 43
-344.8494907876502
 44
7615.333792054468
 45
-0.000002460039453
 46
6.658832178762542
 79
     2
 49
1.619673114586158
 49
-643.68828573548
 53
75.92359999999998
 43
-322.4282148375842
 44
7615.333792054468
 45
-0.000002460039453
 46
6.658832178762542
 79
     2
 49
1.619673114586158
 49
-643.68828573548
 53
75.92359999999998
 43
-300.0069388875327
 44
7615.333792054468
 45
-0.000002460039453
 46
6.658832178762542
 79
     2
 49
1.619673114586158
 49
-643.68828573548
 53
75.92359999999998
 43
-277.5856629374593
 44
7615.333792054468
 45
-0.000002460039453
 46
6.658832178762542
 79
     2
 49
1.619673114586158
 49
-643.68828573548
 53
64.95440000000001
 43
-393.3765060521164
 44
7616.109408762156
 45
0.0000071268683736
 46
6.65883820899263
 79
     2
 49
2.818862602510644
 49
-1797.918053154252
 53
64.95440000000001
 43
-370.9552301020504
 44
7616.109408762156
 45
0.0000071268683736
 46
6.65883820899263
 79
     2
 49
2.818862602510644
 49
-1797.918053154252
 53
64.95440000000001
 43
-348.5339541519916
 44
7616.109408762156
 45
0.0000071268683736
 46
6.65883820899263
 79
     2
 49
2.818862602510644
 49
-1797.918053154252
 53
64.95440000000001
 43
-326.1126782019255
 44
7616.109408762156
 45
0.0000071268683736
 46
6.65883820899263
 79
     2
 49
2.818862602510644
 49
-1797.918053154252
 53
64.95440000000001
 43
-303.6914022518668
 44
7616.109408762156
 45
0.0000071268683736
 46
6.65883820899263
 79
     2
 49
2.818862602510644
 49
-1797.918053154252
 53
64.95440000000001
 43
-281.2701263018153
 44
7616.109408762156
 45
0.0000071268683736
 46
6.65883820899263
 79
     2
 49
2.818862602510644
 49
-1797.918053154252
 53
64.95440000000001
 43
-258.8488503517492
 44
7616.109408762156
 45
0.0000071268683736
 46
6.65883820899263
 79
     2
 49
2.818862602510644
 49
-1797.918053154252
 53
64.95440000000001
 43
-236.4275744016904
 44
7616.109408762156
 45
0.0000071268683736
 46
6.65883820899263
 79
     2
 49
2.818862602510644
 49
-1797.918053154252
 53
64.95440000000001
 43
-214.0068963523281
 44
7616.109408762156
 45
0.0000071268683736
 46
6.65883820899263
 79
     2
 49
2.818862602510644
 49
-1797.918053154252
 53
64.95440000000001
 43
-191.585620402262
 44
7616.109408762156
 45
0.0000071268683736
 46
6.65883820899263
 79
     2
 49
2.818862602510644
 49
-1797.918053154252
 53
64.95440000000001
 43
-169.1643444522106
 44
7616.109408762156
 45
0.0000071268683736
 46
6.65883820899263
 79
     2
 49
2.818862602510644
 49
-1797.918053154252
 53
64.95440000000001
 43
-146.7430685021445
 44
7616.109408762156
 45
0.0000071268683736
 46
6.65883820899263
 79
     2
 49
2.818862602510644
 49
-1797.918053154252
 53
64.95440000000001
 43
-124.3217925520857
 44
7616.109408762156
 45
0.0000071268683736
 46
6.65883820899263
 79
     2
 49
2.818862602510644
 49
-1797.918053154252
 53
64.95440000000001
 43
-101.900516602027
 44
7616.109408762156
 45
0.0000071268683736
 46
6.65883820899263
 79
     2
 49
2.818862602510644
 49
-1797.918053154252
 53
64.95440000000001
 43
-79.47924065196821
 44
7616.109408762156
 45
0.0000071268683736
 46
6.65883820899263
 79
     2
 49
2.818862602510644
 49
-1797.918053154252
 53
64.95440000000001
 43
-57.05796470190216
 44
7616.109408762156
 45
0.0000071268683736
 46
6.65883820899263
 79
     2
 49
2.818862602510644
 49
-1797.918053154252
 53
64.95440000000001
 43
-34.63668875184339
 44
7616.109408762156
 45
0.0000071268683736
 46
6.65883820899263
 79
     2
 49
2.818862602510644
 49
-1797.918053154252
 53
64.95440000000001
 43
-12.2154128017919
 44
7616.109408762156
 45
0.0000071268683736
 46
6.65883820899263
 79
     2
 49
2.818862602510644
 49
-1797.918053154252
 53
64.95440000000001
 43
10.20586314827415
 44
7616.109408762156
 45
0.0000071268683736
 46
6.65883820899263
 79
     2
 49
2.818862602510644
 49
-1797.918053154252
 53
64.95440000000001
 43
32.62713909833292
 44
7616.109408762156
 45
0.0000071268683736
 46
6.65883820899263
 79
     2
 49
2.818862602510644
 49
-1797.918053154252
 53
64.95440000000001
 43
55.04841504839896
 44
7616.109408762156
 45
0.0000071268683736
 46
6.65883820899263
 79
     2
 49
2.818862602510644
 49
-1797.918053154252
 53
64.95440000000001
 43
77.46969099845046
 44
7616.109408762156
 45
0.0000071268683736
 46
6.65883820899263
 79
     2
 49
2.818862602510644
 49
-1797.918053154252
 53
64.95440000000001
 43
99.89096694850923
 44
7616.109408762156
 45
0.0000071268683736
 46
6.65883820899263
 79
     2
 49
2.818862602510644
 49
-1797.918053154252
 53
64.95440000000001
 43
122.312242898568
 44
7616.109408762156
 45
0.0000071268683736
 46
6.65883820899263
 79
     2
 49
2.818862602510644
 49
-1797.918053154252
 53
64.95440000000001
 43
144.733518848634
 44
7616.109408762156
 45
0.0000071268683736
 46
6.65883820899263
 79
     2
 49
2.818862602510644
 49
-1797.918053154252
 53
64.95440000000001
 43
167.1547947986782
 44
7616.109408762156
 45
0.0000071268683736
 46
6.65883820899263
 79
     2
 49
2.818862602510644
 49
-1797.918053154252
 53
64.95440000000001
 43
189.5760707487443
 44
7616.109408762156
 45
0.0000071268683736
 46
6.65883820899263
 79
     2
 49
2.818862602510644
 49
-1797.918053154252
 53
64.95440000000001
 43
211.9973466988031
 44
7616.109408762156
 45
0.0000071268683736
 46
6.65883820899263
 79
     2
 49
2.818862602510644
 49
-1797.918053154252
 53
64.95440000000001
 43
234.4186226488691
 44
7616.109408762156
 45
0.0000071268683736
 46
6.65883820899263
 79
     2
 49
2.818862602510644
 49
-1797.918053154252
 53
64.95440000000001
 43
256.8398985989279
 44
7616.109408762156
 45
0.0000071268683736
 46
6.65883820899263
 79
     2
 49
2.818862602510644
 49
-1797.918053154252
 53
64.95440000000001
 43
279.2611745489794
 44
7616.109408762156
 45
0.0000071268683736
 46
6.65883820899263
 79
     2
 49
2.818862602510644
 49
-1797.918053154252
 53
64.95440000000001
 43
301.6824504990382
 44
7616.109408762156
 45
0.0000071268683736
 46
6.65883820899263
 79
     2
 49
2.818862602510644
 49
-1797.918053154252
 53
64.95440000000001
 43
324.1037264491042
 44
7616.109408762156
 45
0.0000071268683736
 46
6.65883820899263
 79
     2
 49
2.818862602510644
 49
-1797.918053154252
 53
64.95440000000001
 43
346.525002399163
 44
7616.109408762156
 45
0.0000071268683736
 46
6.65883820899263
 79
     2
 49
2.818862602510644
 49
-1797.918053154252
 53
37.5647
 43
-411.7193419418454
 44
7616.904835912774
 45
0.0000015036542286
 46
6.658835289202447
 79
     2
 49
2.738006498928991
 49
-1100.412526831492
 53
37.5647
 43
-389.2980261317334
 44
7616.904835912774
 45
0.0000015036542286
 46
6.658835289202447
 79
     2
 49
2.738006498928991
 49
-1100.412526831492
 53
37.5647
 43
-366.8767501816747
 44
7616.904835912774
 45
0.0000015036542286
 46
6.658835289202447
 79
     2
 49
2.738006498928991
 49
-1100.412526831492
 53
37.5647
 43
-344.4554742316086
 44
7616.904835912774
 45
0.0000015036542286
 46
6.658835289202447
 79
     2
 49
2.738006498928991
 49
-1100.412526831492
 53
37.5647
 43
-322.0341982815644
 44
7616.904835912774
 45
0.0000015036542286
 46
6.658835289202447
 79
     2
 49
2.738006498928991
 49
-1100.412526831492
 53
37.5647
 43
-299.6129223314838
 44
7616.904835912774
 45
0.0000015036542286
 46
6.658835289202447
 79
     2
 49
2.738006498928991
 49
-1100.412526831492
 53
37.5647
 43
-277.1916463814396
 44
7616.904835912774
 45
0.0000015036542286
 46
6.658835289202447
 79
     2
 49
2.738006498928991
 49
-1100.412526831492
 53
37.5647
 43
-254.7703704313735
 44
7616.904835912774
 45
0.0000015036542286
 46
6.658835289202447
 79
     2
 49
2.738006498928991
 49
-1100.412526831492
 53
37.5647
 43
-232.349094481322
 44
7616.904835912774
 45
0.0000015036542286
 46
6.658835289202447
 79
     2
 49
2.738006498928991
 49
-1100.412526831492
 53
37.5647
 43
-209.9272206305668
 44
7616.904835912774
 45
0.0000015036542286
 46
6.658835289202447
 79
     2
 49
2.738006498928991
 49
-1100.412526831492
 53
37.5647
 43
-187.5059446805153
 44
7616.904835912774
 45
0.0000015036542286
 46
6.658835289202447
 79
     2
 49
2.738006498928991
 49
-1100.412526831492
 53
37.5647
 43
-165.084668730442
 44
7616.904835912774
 45
0.0000015036542286
 46
6.658835289202447
 79
     2
 49
2.738006498928991
 49
-1100.412526831492
 53
37.5647
 43
-142.6633927803905
 44
7616.904835912774
 45
0.0000015036542286
 46
6.658835289202447
 79
     2
 49
2.738006498928991
 49
-1100.412526831492
 53
37.5647
 43
-120.2421168303317
 44
7616.904835912774
 45
0.0000015036542286
 46
6.658835289202447
 79
     2
 49
2.738006498928991
 49
-1100.412526831492
 53
37.5647
 43
-97.82084088027296
 44
7616.904835912774
 45
0.0000015036542286
 46
6.658835289202447
 79
     2
 49
2.738006498928991
 49
-1100.412526831492
 53
37.5647
 43
-75.39956493020691
 44
7616.904835912774
 45
0.0000015036542286
 46
6.658835289202447
 79
     2
 49
2.738006498928991
 49
-1100.412526831492
 53
37.5647
 43
-52.97828898014813
 44
7616.904835912774
 45
0.0000015036542286
 46
6.658835289202447
 79
     2
 49
2.738006498928991
 49
-1100.412526831492
 53
37.5647
 43
-30.55701303009664
 44
7616.904835912774
 45
0.0000015036542286
 46
6.658835289202447
 79
     2
 49
2.738006498928991
 49
-1100.412526831492
 53
37.5647
 43
-8.135737080030594
 44
7616.904835912774
 45
0.0000015036542286
 46
6.658835289202447
 79
     2
 49
2.738006498928991
 49
-1100.412526831492
 53
37.5647
 43
14.28553887002818
 44
7616.904835912774
 45
0.0000015036542286
 46
6.658835289202447
 79
     2
 49
2.738006498928991
 49
-1100.412526831492
 53
37.5647
 43
36.70681482009423
 44
7616.904835912774
 45
0.0000015036542286
 46
6.658835289202447
 79
     2
 49
2.738006498928991
 49
-1100.412526831492
 53
37.5647
 43
59.12809077014571
 44
7616.904835912774
 45
0.0000015036542286
 46
6.658835289202447
 79
     2
 49
2.738006498928991
 49
-1100.412526831492
 53
37.5647
 43
81.54936672020449
 44
7616.904835912774
 45
0.0000015036542286
 46
6.658835289202447
 79
     2
 49
2.738006498928991
 49
-1100.412526831492
 53
37.5647
 43
103.9706426702632
 44
7616.904835912774
 45
0.0000015036542286
 46
6.658835289202447
 79
     2
 49
2.738006498928991
 49
-1100.412526831492
 53
37.5647
 43
126.3919186203293
 44
7616.904835912774
 45
0.0000015036542286
 46
6.658835289202447
 79
     2
 49
2.738006498928991
 49
-1100.412526831492
 53
37.5647
 43
148.8131945703881
 44
7616.904835912774
 45
0.0000015036542286
 46
6.658835289202447
 79
     2
 49
2.738006498928991
 49
-1100.412526831492
 53
37.5647
 43
171.2344705204396
 44
7616.904835912774
 45
0.0000015036542286
 46
6.658835289202447
 79
     2
 49
2.738006498928991
 49
-1100.412526831492
 53
37.5647
 43
193.6557464705056
 44
7616.904835912774
 45
0.0000015036542286
 46
6.658835289202447
 79
     2
 49
2.738006498928991
 49
-1100.412526831492
 53
37.5647
 43
216.0770224205644
 44
7616.904835912774
 45
0.0000015036542286
 46
6.658835289202447
 79
     2
 49
2.738006498928991
 49
-1100.412526831492
 53
37.5647
 43
238.4982983706304
 44
7616.904835912774
 45
0.0000015036542286
 46
6.658835289202447
 79
     2
 49
2.738006498928991
 49
-1100.412526831492
 53
37.5647
 43
260.9195743206746
 44
7616.904835912774
 45
0.0000015036542286
 46
6.658835289202447
 79
     2
 49
2.738006498928991
 49
-1100.412526831492
 53
37.5647
 43
283.340850270748
 44
7616.904835912774
 45
0.0000015036542286
 46
6.658835289202447
 79
     2
 49
2.738006498928991
 49
-1100.412526831492
 53
37.5647
 43
305.7621262207995
 44
7616.904835912774
 45
0.0000015036542286
 46
6.658835289202447
 79
     2
 49
2.738006498928991
 49
-1100.412526831492
 53
37.5647
 43
328.1834021708655
 44
7616.904835912774
 45
0.0000015036542286
 46
6.658835289202447
 79
     2
 49
2.738006498928991
 49
-1100.412526831492
 53
37.5647
 43
350.604678120917
 44
7616.904835912774
 45
0.0000015036542286
 46
6.658835289202447
 79
     2
 49
2.738006498928991
 49
-1100.412526831492
 53
37.5647
 43
373.0259540709758
 44
7616.904835912774
 45
0.0000015036542286
 46
6.658835289202447
 79
     2
 49
2.738006498928991
 49
-1100.412526831492
 53
37.5647
 43
395.4472300210345
 44
7616.904835912774
 45
0.0000015036542286
 46
6.658835289202447
 79
     2
 49
2.738006498928991
 49
-1100.412526831492
 53
37.5647
 43
417.8685059711005
 44
7616.904835912774
 45
0.0000015036542286
 46
6.658835289202447
 79
     2
 49
2.738006498928991
 49
-1100.412526831492
 53
37.5647
 43
440.2897819211593
 44
7616.904835912774
 45
0.0000015036542286
 46
6.658835289202447
 79
     2
 49
2.738006498928991
 49
-1100.412526831492
 53
22.93839999999997
 43
-404.6763707404079
 44
7612.61787798611
 45
0.0000027748745772
 46
6.658841674146681
 79
     2
 49
5.098976821481803
 49
-968.7608133197118
 53
22.93839999999997
 43
-382.2551545804145
 44
7612.61787798611
 45
0.0000027748745772
 46
6.658841674146681
 79
     2
 49
5.098976821481803
 49
-968.7608133197118
 53
22.93839999999997
 43
-359.8338786303557
 44
7612.61787798611
 45
0.0000027748745772
 46
6.658841674146681
 79
     2
 49
5.098976821481803
 49
-968.7608133197118
 53
22.93839999999997
 43
-337.4126026803042
 44
7612.61787798611
 45
0.0000027748745772
 46
6.658841674146681
 79
     2
 49
5.098976821481803
 49
-968.7608133197118
 53
22.93839999999997
 43
-314.9913267302454
 44
7612.61787798611
 45
0.0000027748745772
 46
6.658841674146681
 79
     2
 49
5.098976821481803
 49
-968.7608133197118
 53
22.93839999999997
 43
-292.5700507801794
 44
7612.61787798611
 45
0.0000027748745772
 46
6.658841674146681
 79
     2
 49
5.098976821481803
 49
-968.7608133197118
 53
22.93839999999997
 43
-270.1487748301206
 44
7612.61787798611
 45
0.0000027748745772
 46
6.658841674146681
 79
     2
 49
5.098976821481803
 49
-968.7608133197118
 53
22.93839999999997
 43
-247.7274988800618
 44
7612.61787798611
 45
0.0000027748745772
 46
6.658841674146681
 79
     2
 49
5.098976821481803
 49
-968.7608133197118
 53
22.93839999999997
 43
-225.3062229300103
 44
7612.61787798611
 45
0.0000027748745772
 46
6.658841674146681
 79
     2
 49
5.098976821481803
 49
-968.7608133197118
 53
22.93839999999997
 43
-202.8839504787884
 44
7612.61787798611
 45
0.0000027748745772
 46
6.658841674146681
 79
     2
 49
5.098976821481803
 49
-968.7608133197118
 53
22.93839999999997
 43
-180.4626745287296
 44
7612.61787798611
 45
0.0000027748745772
 46
6.658841674146681
 79
     2
 49
5.098976821481803
 49
-968.7608133197118
 53
22.93839999999997
 43
-158.0413985786635
 44
7612.61787798611
 45
0.0000027748745772
 46
6.658841674146681
 79
     2
 49
5.098976821481803
 49
-968.7608133197118
 53
22.93839999999997
 43
-135.6201226286048
 44
7612.61787798611
 45
0.0000027748745772
 46
6.658841674146681
 79
     2
 49
5.098976821481803
 49
-968.7608133197118
 53
22.93839999999997
 43
-113.1988466785533
 44
7612.61787798611
 45
0.0000027748745772
 46
6.658841674146681
 79
     2
 49
5.098976821481803
 49
-968.7608133197118
 53
22.93839999999997
 43
-90.77757072848726
 44
7612.61787798611
 45
0.0000027748745772
 46
6.658841674146681
 79
     2
 49
5.098976821481803
 49
-968.7608133197118
 53
22.93839999999997
 43
-68.35629477843577
 44
7612.61787798611
 45
0.0000027748745772
 46
6.658841674146681
 79
     2
 49
5.098976821481803
 49
-968.7608133197118
 53
22.93839999999997
 43
-45.93501882836244
 44
7612.61787798611
 45
0.0000027748745772
 46
6.658841674146681
 79
     2
 49
5.098976821481803
 49
-968.7608133197118
 53
22.93839999999997
 43
-23.51374287831095
 44
7612.61787798611
 45
0.0000027748745772
 46
6.658841674146681
 79
     2
 49
5.098976821481803
 49
-968.7608133197118
 53
22.93839999999997
 43
-1.092466928252179
 44
7612.61787798611
 45
0.0000027748745772
 46
6.658841674146681
 79
     2
 49
5.098976821481803
 49
-968.7608133197118
 53
22.93839999999997
 43
21.32880902180659
 44
7612.61787798611
 45
0.0000027748745772
 46
6.658841674146681
 79
     2
 49
5.098976821481803
 49
-968.7608133197118
 53
22.93839999999997
 43
43.75008497187264
 44
7612.61787798611
 45
0.0000027748745772
 46
6.658841674146681
 79
     2
 49
5.098976821481803
 49
-968.7608133197118
 53
22.93839999999997
 43
66.17136092193141
 44
7612.61787798611
 45
0.0000027748745772
 46
6.658841674146681
 79
     2
 49
5.098976821481803
 49
-968.7608133197118
 53
22.93839999999997
 43
88.59263687198291
 44
7612.61787798611
 45
0.0000027748745772
 46
6.658841674146681
 79
     2
 49
5.098976821481803
 49
-968.7608133197118
 53
22.93839999999997
 43
111.0139128220416
 44
7612.61787798611
 45
0.0000027748745772
 46
6.658841674146681
 79
     2
 49
5.098976821481803
 49
-968.7608133197118
 53
22.93839999999997
 43
133.4351887721077
 44
7612.61787798611
 45
0.0000027748745772
 46
6.658841674146681
 79
     2
 49
5.098976821481803
 49
-968.7608133197118
 53
22.93839999999997
 43
155.8564647221665
 44
7612.61787798611
 45
0.0000027748745772
 46
6.658841674146681
 79
     2
 49
5.098976821481803
 49
-968.7608133197118
 53
22.93839999999997
 43
178.277740672218
 44
7612.61787798611
 45
0.0000027748745772
 46
6.658841674146681
 79
     2
 49
5.098976821481803
 49
-968.7608133197118
 53
22.93839999999997
 43
200.6990166222768
 44
7612.61787798611
 45
0.0000027748745772
 46
6.658841674146681
 79
     2
 49
5.098976821481803
 49
-968.7608133197118
 53
22.93839999999997
 43
223.1202925723428
 44
7612.61787798611
 45
0.0000027748745772
 46
6.658841674146681
 79
     2
 49
5.098976821481803
 49
-968.7608133197118
 53
22.93839999999997
 43
245.5415685224016
 44
7612.61787798611
 45
0.0000027748745772
 46
6.658841674146681
 79
     2
 49
5.098976821481803
 49
-968.7608133197118
 53
22.93839999999997
 43
267.9628444724603
 44
7612.61787798611
 45
0.0000027748745772
 46
6.658841674146681
 79
     2
 49
5.098976821481803
 49
-968.7608133197118
 53
22.93839999999997
 43
290.3841204225191
 44
7612.61787798611
 45
0.0000027748745772
 46
6.658841674146681
 79
     2
 49
5.098976821481803
 49
-968.7608133197118
 53
22.93839999999997
 43
312.8053963725779
 44
7612.61787798611
 45
0.0000027748745772
 46
6.658841674146681
 79
     2
 49
5.098976821481803
 49
-968.7608133197118
 53
22.93839999999997
 43
335.2266723226439
 44
7612.61787798611
 45
0.0000027748745772
 46
6.658841674146681
 79
     2
 49
5.098976821481803
 49
-968.7608133197118
 53
22.93839999999997
 43
357.6479482727027
 44
7612.61787798611
 45
0.0000027748745772
 46
6.658841674146681
 79
     2
 49
5.098976821481803
 49
-968.7608133197118
 53
22.93839999999997
 43
380.0692242227615
 44
7612.61787798611
 45
0.0000027748745772
 46
6.658841674146681
 79
     2
 49
5.098976821481803
 49
-968.7608133197118
 53
22.93839999999997
 43
402.490500172813
 44
7612.61787798611
 45
0.0000027748745772
 46
6.658841674146681
 79
     2
 49
5.098976821481803
 49
-968.7608133197118
 53
22.93839999999997
 43
424.911776122879
 44
7612.61787798611
 45
0.0000027748745772
 46
6.658841674146681
 79
     2
 49
5.098976821481803
 49
-968.7608133197118
 53
22.93839999999997
 43
447.3330520729377
 44
7612.61787798611
 45
0.0000027748745772
 46
6.658841674146681
 79
     2
 49
5.098976821481803
 49
-968.7608133197118
 53
22.93839999999997
 43
469.7543280230038
 44
7612.61787798611
 45
0.0000027748745772
 46
6.658841674146681
 79
     2
 49
5.098976821481803
 49
-968.7608133197118
 53
15.10899999999998
 43
-395.5127055745161
 44
7615.533092285139
 45
22.42126228022084
 46
0.0000000603162756
 79
     2
 49
2.21249165070574
 49
-253.2524971607663
 53
15.10899999999998
 43
-395.5127055745161
 44
7622.191932221987
 45
22.42126228022084
 46
0.0000000603162756
 79
     2
 49
2.21249165070574
 49
-253.2524971607663
 53
15.10899999999998
 43
-395.5127055745161
 44
7628.850772158829
 45
22.42126228022084
 46
0.0000000603162756
 79
     2
 49
2.21249165070574
 49
-253.2524971607663
 53
15.10899999999998
 43
-395.5127055745161
 44
7635.509651955715
 45
22.42126228022084
 46
0.0000000603162756
 79
     2
 49
2.21249165070574
 49
-253.2524971607663
 53
15.10899999999998
 43
-395.5127055745161
 44
7642.168471962538
 45
22.42126228022084
 46
0.0000000603162756
 79
     2
 49
2.21249165070574
 49
-253.2524971607663
 53
15.10899999999998
 43
-395.5127055745161
 44
7648.827291969358
 45
22.42126228022084
 46
0.0000000603162756
 79
     2
 49
2.21249165070574
 49
-253.2524971607663
 53
15.10899999999998
 43
-395.5127055745161
 44
7655.486111976181
 45
22.42126228022084
 46
0.0000000603162756
 79
     2
 49
2.21249165070574
 49
-253.2524971607663
 53
15.10899999999998
 43
-395.5127055745161
 44
7662.144931983011
 45
22.42126228022084
 46
0.0000000603162756
 79
     2
 49
2.21249165070574
 49
-253.2524971607663
 53
15.10899999999998
 43
-395.5127055745161
 44
7668.803751989824
 45
22.42126228022084
 46
0.0000000603162756
 79
     2
 49
2.21249165070574
 49
-253.2524971607663
 53
15.10899999999998
 43
-395.5127055745161
 44
7675.462571996654
 45
22.42126228022084
 46
0.0000000603162756
 79
     2
 49
2.21249165070574
 49
-253.2524971607663
 53
6.747399999999972
 43
-399.9804985654682
 44
7614.604911250873
 45
22.42131556330144
 46
0.0000021777780818
 79
     2
 49
4.499063197150475
 49
-2772.552403711932
 53
6.747399999999972
 43
-399.9804985654682
 44
7621.263751187715
 45
22.42131556330144
 46
0.0000021777780818
 79
     2
 49
4.499063197150475
 49
-2772.552403711932
 53
6.747399999999972
 43
-399.9804985654682
 44
7627.922591124563
 45
22.42131556330144
 46
0.0000021777780818
 79
     2
 49
4.499063197150475
 49
-2772.552403711932
 53
6.747399999999972
 43
-399.9804985654682
 44
7634.581510781503
 45
22.42131556330144
 46
0.0000021777780818
 79
     2
 49
4.499063197150475
 49
-2772.552403711932
 53
6.747399999999972
 43
-399.9804985654682
 44
7641.240330788325
 45
22.42131556330144
 46
0.0000021777780818
 79
     2
 49
4.499063197150475
 49
-2772.552403711932
 53
6.747399999999972
 43
-399.9804985654682
 44
7647.899150795147
 45
22.42131556330144
 46
0.0000021777780818
 79
     2
 49
4.499063197150475
 49
-2772.552403711932
 53
6.747399999999972
 43
-399.9804985654682
 44
7654.557970801969
 45
22.42131556330144
 46
0.0000021777780818
 79
     2
 49
4.499063197150475
 49
-2772.552403711932
 53
6.747399999999972
 43
-399.9804985654682
 44
7661.216790808791
 45
22.42131556330144
 46
0.0000021777780818
 79
     2
 49
4.499063197150475
 49
-2772.552403711932
 53
6.747399999999972
 43
-399.9804985654682
 44
7667.875610815612
 45
22.42131556330144
 46
0.0000021777780818
 79
     2
 49
4.499063197150475
 49
-2772.552403711932
 53
6.747399999999972
 43
-399.9804985654682
 44
7674.534430822435
 45
22.42131556330144
 46
0.0000021777780818
 79
     2
 49
4.499063197150475
 49
-2772.552403711932
 53
6.747399999999972
 43
-399.9804985654682
 44
7681.193250829256
 45
22.42131556330144
 46
0.0000021777780818
 79
     2
 49
4.499063197150475
 49
-2772.552403711932
 53
6.747399999999972
 43
-399.9804985654682
 44
7687.852070836078
 45
22.42131556330144
 46
0.0000021777780818
 79
     2
 49
4.499063197150475
 49
-2772.552403711932
 53
6.747399999999972
 43
-399.9804985654682
 44
7694.510890842899
 45
22.42131556330144
 46
0.0000021777780818
 79
     2
 49
4.499063197150475
 49
-2772.552403711932
 53
6.747399999999972
 43
-399.9804985654682
 44
7701.169710849722
 45
22.42131556330144
 46
0.0000021777780818
 79
     2
 49
4.499063197150475
 49
-2772.552403711932
 53
6.747399999999972
 43
-399.9804985654682
 44
7707.828730156773
 45
22.42131556330144
 46
0.0000021777780818
 79
     2
 49
4.499063197150475
 49
-2772.552403711932
 53
6.747399999999972
 43
-399.9804985654682
 44
7714.487550163595
 45
22.42131556330144
 46
0.0000021777780818
 79
     2
 49
4.499063197150475
 49
-2772.552403711932
 53
6.747399999999972
 43
-399.9804985654682
 44
7721.146370170409
 45
22.42131556330144
 46
0.0000021777780818
 79
     2
 49
4.499063197150475
 49
-2772.552403711932
 53
6.747399999999972
 43
-399.9804985654682
 44
7727.805190177239
 45
22.42131556330144
 46
0.0000021777780818
 79
     2
 49
4.499063197150475
 49
-2772.552403711932
 53
6.747399999999972
 43
-399.9804985654682
 44
7734.464010184052
 45
22.42131556330144
 46
0.0000021777780818
 79
     2
 49
4.499063197150475
 49
-2772.552403711932
 53
6.747399999999972
 43
-399.9804985654682
 44
7741.122830190882
 45
22.42131556330144
 46
0.0000021777780818
 79
     2
 49
4.499063197150475
 49
-2772.552403711932
 53
6.747399999999972
 43
-399.9804985654682
 44
7747.781650197703
 45
22.42131556330144
 46
0.0000021777780818
 79
     2
 49
4.499063197150475
 49
-2772.552403711932
 53
6.747399999999972
 43
-399.9804985654682
 44
7754.440470204525
 45
22.42131556330144
 46
0.0000021777780818
 79
     2
 49
4.499063197150475
 49
-2772.552403711932
 53
6.747399999999972
 43
-399.9804985654682
 44
7761.099290211347
 45
22.42131556330144
 46
0.0000021777780818
 79
     2
 49
4.499063197150475
 49
-2772.552403711932
 53
6.747399999999972
 43
-399.9804985654682
 44
7767.758110218169
 45
22.42131556330144
 46
0.0000021777780818
 79
     2
 49
4.499063197150475
 49
-2772.552403711932
 53
6.747399999999972
 43
-399.9804985654682
 44
7774.41712952522
 45
22.42131556330144
 46
0.0000021777780818
 79
     2
 49
4.499063197150475
 49
-2772.552403711932
 53
6.747399999999972
 43
-399.9804985654682
 44
7781.075949532042
 45
22.42131556330144
 46
0.0000021777780818
 79
     2
 49
4.499063197150475
 49
-2772.552403711932
 53
6.747399999999972
 43
-399.9804985654682
 44
7787.734769538864
 45
22.42131556330144
 46
0.0000021777780818
 79
     2
 49
4.499063197150475
 49
-2772.552403711932
 53
6.747399999999972
 43
-399.9804985654682
 44
7794.393589545686
 45
22.42131556330144
 46
0.0000021777780818
 79
     2
 49
4.499063197150475
 49
-2772.552403711932
 53
6.747399999999972
 43
-399.9804985654682
 44
7801.052409552507
 45
22.42131556330144
 46
0.0000021777780818
 79
     2
 49
4.499063197150475
 49
-2772.552403711932
 53
6.747399999999972
 43
-399.9804985654682
 44
7807.71122955933
 45
22.42131556330144
 46
0.0000021777780818
 79
     2
 49
4.499063197150475
 49
-2772.552403711932
 53
6.747399999999972
 43
-399.9804985654682
 44
7814.369850265913
 45
22.42131556330144
 46
0.0000021777780818
 79
     2
 49
4.499063197150475
 49
-2772.552403711932
 53
6.747399999999972
 43
-399.9804985654682
 44
7821.028470972513
 45
22.42131556330144
 46
0.0000021777780818
 79
     2
 49
4.499063197150475
 49
-2772.552403711932
 53
6.747399999999972
 43
-399.9804985654682
 44
7827.687091679099
 45
22.42131556330144
 46
0.0000021777780818
 79
     2
 49
4.499063197150475
 49
-2772.552403711932
 53
6.747399999999972
 43
-399.9804985654682
 44
7834.345712385689
 45
22.42131556330144
 46
0.0000021777780818
 79
     2
 49
4.499063197150475
 49
-2772.552403711932
 53
6.747399999999972
 43
-399.9804985654682
 44
7841.006326094593
 45
22.42131556330144
 46
0.0000021777780818
 79
     2
 49
4.499063197150475
 49
-2772.552403711932
 53
6.747399999999972
 43
-399.9804985654682
 44
7847.664946801178
 45
22.42131556330144
 46
0.0000021777780818
 79
     2
 49
4.499063197150475
 49
-2772.552403711932
 53
6.747399999999972
 43
-399.9804985654682
 44
7854.323567507771
 45
22.42131556330144
 46
0.0000021777780818
 79
     2
 49
4.499063197150475
 49
-2772.552403711932
 53
6.747399999999972
 43
-399.9804985654682
 44
7860.982188214362
 45
22.42131556330144
 46
0.0000021777780818
 79
     2
 49
4.499063197150475
 49
-2772.552403711932
 53
6.747399999999972
 43
-399.9804985654682
 44
7867.640808920954
 45
22.42131556330144
 46
0.0000021777780818
 79
     2
 49
4.499063197150475
 49
-2772.552403711932
 53
6.747399999999972
 43
-399.9804985654682
 44
7874.299429627547
 45
22.42131556330144
 46
0.0000021777780818
 79
     2
 49
4.499063197150475
 49
-2772.552403711932
 53
6.747399999999972
 43
-399.9804985654682
 44
7880.958050334131
 45
22.42131556330144
 46
0.0000021777780818
 79
     2
 49
4.499063197150475
 49
-2772.552403711932
 53
6.747399999999972
 43
-399.9804985654682
 44
7887.61667104073
 45
22.42131556330144
 46
0.0000021777780818
 79
     2
 49
4.499063197150475
 49
-2772.552403711932
 53
6.747399999999972
 43
-399.9804985654682
 44
7894.275291747316
 45
22.42131556330144
 46
0.0000021777780818
 79
     2
 49
4.499063197150475
 49
-2772.552403711932
 53
6.747399999999972
 43
-399.9804985654682
 44
7900.935905456212
 45
22.42131556330144
 46
0.0000021777780818
 79
     2
 49
4.499063197150475
 49
-2772.552403711932
 53
6.747399999999972
 43
-399.9804985654682
 44
7907.594526162803
 45
22.42131556330144
 46
0.0000021777780818
 79
     2
 49
4.499063197150475
 49
-2772.552403711932
 53
6.747399999999972
 43
-399.9804985654682
 44
7914.253146869396
 45
22.42131556330144
 46
0.0000021777780818
 79
     2
 49
4.499063197150475
 49
-2772.552403711932
 53
6.747399999999972
 43
-399.9804985654682
 44
7920.911767575988
 45
22.42131556330144
 46
0.0000021777780818
 79
     2
 49
4.499063197150475
 49
-2772.552403711932
 53
6.747399999999972
 43
-399.9804985654682
 44
7927.570388282572
 45
22.42131556330144
 46
0.0000021777780818
 79
     2
 49
4.499063197150475
 49
-2772.552403711932
 53
6.747399999999972
 43
-399.9804985654682
 44
7934.229008989172
 45
22.42131556330144
 46
0.0000021777780818
 79
     2
 49
4.499063197150475
 49
-2772.552403711932
 53
6.141599999999983
 43
-409.5490421499617
 44
7612.093496159697
 45
22.4212162591076
 46
-0.000021699014323
 79
     2
 49
4.900812602129414
 49
-1551.097951008268
 53
6.141599999999983
 43
-409.5490421499617
 44
7618.752329121035
 45
22.4212162591076
 46
-0.000021699014323
 79
     2
 49
4.900812602129414
 49
-1551.097951008268
 53
6.141599999999983
 43
-409.5490421499617
 44
7625.411169057882
 45
22.4212162591076
 46
-0.000021699014323
 79
     2
 49
4.900812602129414
 49
-1551.097951008268
 53
6.141599999999983
 43
-409.5490421499617
 44
7632.069929274639
 45
22.4212162591076
 46
-0.000021699014323
 79
     2
 49
4.900812602129414
 49
-1551.097951008268
 53
6.141599999999983
 43
-409.5490421499617
 44
7638.72894858169
 45
22.4212162591076
 46
-0.000021699014323
 79
     2
 49
4.900812602129414
 49
-1551.097951008268
 53
6.141599999999983
 43
-409.5490421499617
 44
7645.387768588506
 45
22.4212162591076
 46
-0.000021699014323
 79
     2
 49
4.900812602129414
 49
-1551.097951008268
 53
6.141599999999983
 43
-409.5490421499617
 44
7652.046588595327
 45
22.4212162591076
 46
-0.000021699014323
 79
     2
 49
4.900812602129414
 49
-1551.097951008268
 53
6.141599999999983
 43
-409.5490421499617
 44
7658.705408602149
 45
22.4212162591076
 46
-0.000021699014323
 79
     2
 49
4.900812602129414
 49
-1551.097951008268
 53
6.141599999999983
 43
-409.5490421499617
 44
7665.364228608971
 45
22.4212162591076
 46
-0.000021699014323
 79
     2
 49
4.900812602129414
 49
-1551.097951008268
 53
6.141599999999983
 43
-409.5490421499617
 44
7672.0230486158
 45
22.4212162591076
 46
-0.000021699014323
 79
     2
 49
4.900812602129414
 49
-1551.097951008268
 53
6.141599999999983
 43
-409.5490421499617
 44
7678.681868622621
 45
22.4212162591076
 46
-0.000021699014323
 79
     2
 49
4.900812602129414
 49
-1551.097951008268
 53
6.141599999999983
 43
-409.5490421499617
 44
7685.340688629444
 45
22.4212162591076
 46
-0.000021699014323
 79
     2
 49
4.900812602129414
 49
-1551.097951008268
 53
6.141599999999983
 43
-409.5490421499617
 44
7691.999508636264
 45
22.4212162591076
 46
-0.000021699014323
 79
     2
 49
4.900812602129414
 49
-1551.097951008268
 53
6.141599999999983
 43
-409.5490421499617
 44
7698.65832864308
 45
22.4212162591076
 46
-0.000021699014323
 79
     2
 49
4.900812602129414
 49
-1551.097951008268
 53
6.141599999999983
 43
-409.5490421499617
 44
7705.317148649908
 45
22.4212162591076
 46
-0.000021699014323
 79
     2
 49
4.900812602129414
 49
-1551.097951008268
 53
6.141599999999983
 43
-409.5490421499617
 44
7711.976167956954
 45
22.4212162591076
 46
-0.000021699014323
 79
     2
 49
4.900812602129414
 49
-1551.097951008268
 53
6.141599999999983
 43
-409.5490421499617
 44
7718.634987963781
 45
22.4212162591076
 46
-0.000021699014323
 79
     2
 49
4.900812602129414
 49
-1551.097951008268
 53
6.141599999999983
 43
-409.5490421499617
 44
7725.293807970597
 45
22.4212162591076
 46
-0.000021699014323
 79
     2
 49
4.900812602129414
 49
-1551.097951008268
 53
6.141599999999983
 43
-409.5490421499617
 44
7731.952627977418
 45
22.4212162591076
 46
-0.000021699014323
 79
     2
 49
4.900812602129414
 49
-1551.097951008268
 53
6.141599999999983
 43
-409.5490421499617
 44
7738.611447984247
 45
22.4212162591076
 46
-0.000021699014323
 79
     2
 49
4.900812602129414
 49
-1551.097951008268
 53
6.141599999999983
 43
-409.5490421499617
 44
7745.270267991061
 45
22.4212162591076
 46
-0.000021699014323
 79
     2
 49
4.900812602129414
 49
-1551.097951008268
 53
6.141599999999983
 43
-409.5490421499617
 44
7751.929087997884
 45
22.4212162591076
 46
-0.000021699014323
 79
     2
 49
4.900812602129414
 49
-1551.097951008268
 53
6.141599999999983
 43
-409.5490421499617
 44
7758.587908004705
 45
22.4212162591076
 46
-0.000021699014323
 79
     2
 49
4.900812602129414
 49
-1551.097951008268
 53
6.141599999999983
 43
-409.5490421499617
 44
7765.246728011527
 45
22.4212162591076
 46
-0.000021699014323
 79
     2
 49
4.900812602129414
 49
-1551.097951008268
 53
6.141599999999983
 43
-409.5490421499617
 44
7771.905548018349
 45
22.4212162591076
 46
-0.000021699014323
 79
     2
 49
4.900812602129414
 49
-1551.097951008268
 53
173.8580000000001
 43
-404.6763707404079
 44
7618.04971608784
 45
0.0000416333007388
 46
6.658832854632235
 79
     2
 49
4.900812602129348
 49
-1551.097951008251
 53
173.8580000000001
 43
-382.2551545804145
 44
7618.04971608784
 45
0.0000416333007388
 46
6.658832854632235
 79
     2
 49
4.900812602129348
 49
-1551.097951008251
 53
173.8580000000001
 43
-359.8338786303557
 44
7618.04971608784
 45
0.0000416333007388
 46
6.658832854632235
 79
     2
 49
4.900812602129348
 49
-1551.097951008251
 53
173.8580000000001
 43
-337.4126026803042
 44
7618.04971608784
 45
0.0000416333007388
 46
6.658832854632235
 79
     2
 49
4.900812602129348
 49
-1551.097951008251
 53
173.8580000000001
 43
-314.9913267302454
 44
7618.04971608784
 45
0.0000416333007388
 46
6.658832854632235
 79
     2
 49
4.900812602129348
 49
-1551.097951008251
 53
173.8580000000001
 43
-292.5700507801794
 44
7618.04971608784
 45
0.0000416333007388
 46
6.658832854632235
 79
     2
 49
4.900812602129348
 49
-1551.097951008251
 53
173.8580000000001
 43
-270.1487748301206
 44
7618.04971608784
 45
0.0000416333007388
 46
6.658832854632235
 79
     2
 49
4.900812602129348
 49
-1551.097951008251
 53
173.8580000000001
 43
-247.7274988800618
 44
7618.04971608784
 45
0.0000416333007388
 46
6.658832854632235
 79
     2
 49
4.900812602129348
 49
-1551.097951008251
 53
173.8580000000001
 43
-225.3062229300103
 44
7618.04971608784
 45
0.0000416333007388
 46
6.658832854632235
 79
     2
 49
4.900812602129348
 49
-1551.097951008251
 53
173.8580000000001
 43
-202.8839504787884
 44
7618.04971608784
 45
0.0000416333007388
 46
6.658832854632235
 79
     2
 49
4.900812602129348
 49
-1551.097951008251
 53
173.8580000000001
 43
-180.4626745287296
 44
7618.04971608784
 45
0.0000416333007388
 46
6.658832854632235
 79
     2
 49
4.900812602129348
 49
-1551.097951008251
 53
173.8580000000001
 43
-158.0413985786635
 44
7618.04971608784
 45
0.0000416333007388
 46
6.658832854632235
 79
     2
 49
4.900812602129348
 49
-1551.097951008251
 53
173.8580000000001
 43
-135.6201226286048
 44
7618.04971608784
 45
0.0000416333007388
 46
6.658832854632235
 79
     2
 49
4.900812602129348
 49
-1551.097951008251
 53
173.8580000000001
 43
-113.1988466785533
 44
7618.04971608784
 45
0.0000416333007388
 46
6.658832854632235
 79
     2
 49
4.900812602129348
 49
-1551.097951008251
 53
173.8580000000001
 43
-90.77757072848726
 44
7618.04971608784
 45
0.0000416333007388
 46
6.658832854632235
 79
     2
 49
4.900812602129348
 49
-1551.097951008251
 53
173.8580000000001
 43
-68.35629477843577
 44
7618.04971608784
 45
0.0000416333007388
 46
6.658832854632235
 79
     2
 49
4.900812602129348
 49
-1551.097951008251
 53
173.8580000000001
 43
-45.93501882836244
 44
7618.04971608784
 45
0.0000416333007388
 46
6.658832854632235
 79
     2
 49
4.900812602129348
 49
-1551.097951008251
 53
173.8580000000001
 43
-23.51374287831095
 44
7618.04971608784
 45
0.0000416333007388
 46
6.658832854632235
 79
     2
 49
4.900812602129348
 49
-1551.097951008251
 53
173.8580000000001
 43
-1.092466928252179
 44
7618.04971608784
 45
0.0000416333007388
 46
6.658832854632235
 79
     2
 49
4.900812602129348
 49
-1551.097951008251
 53
173.8580000000001
 43
21.32880902180659
 44
7618.04971608784
 45
0.0000416333007388
 46
6.658832854632235
 79
     2
 49
4.900812602129348
 49
-1551.097951008251
 53
173.8580000000001
 43
43.75008497187264
 44
7618.04971608784
 45
0.0000416333007388
 46
6.658832854632235
 79
     2
 49
4.900812602129348
 49
-1551.097951008251
 53
173.8580000000001
 43
66.17136092193141
 44
7618.04971608784
 45
0.0000416333007388
 46
6.658832854632235
 79
     2
 49
4.900812602129348
 49
-1551.097951008251
 53
173.8580000000001
 43
88.59263687198291
 44
7618.04971608784
 45
0.0000416333007388
 46
6.658832854632235
 79
     2
 49
4.900812602129348
 49
-1551.097951008251
 53
173.8580000000001
 43
111.0139128220416
 44
7618.04971608784
 45
0.0000416333007388
 46
6.658832854632235
 79
     2
 49
4.900812602129348
 49
-1551.097951008251
 53
173.8580000000001
 43
133.4351887721077
 44
7618.04971608784
 45
0.0000416333007388
 46
6.658832854632235
 79
     2
 49
4.900812602129348
 49
-1551.097951008251
 53
173.8580000000001
 43
155.8564647221665
 44
7618.04971608784
 45
0.0000416333007388
 46
6.658832854632235
 79
     2
 49
4.900812602129348
 49
-1551.097951008251
 53
173.8580000000001
 43
178.277740672218
 44
7618.04971608784
 45
0.0000416333007388
 46
6.658832854632235
 79
     2
 49
4.900812602129348
 49
-1551.097951008251
 53
173.8580000000001
 43
200.6990166222768
 44
7618.04971608784
 45
0.0000416333007388
 46
6.658832854632235
 79
     2
 49
4.900812602129348
 49
-1551.097951008251
 53
173.8580000000001
 43
223.1202925723428
 44
7618.04971608784
 45
0.0000416333007388
 46
6.658832854632235
 79
     2
 49
4.900812602129348
 49
-1551.097951008251
 53
173.8580000000001
 43
245.5415685224016
 44
7618.04971608784
 45
0.0000416333007388
 46
6.658832854632235
 79
     2
 49
4.900812602129348
 49
-1551.097951008251
 53
173.8580000000001
 43
267.9628444724603
 44
7618.04971608784
 45
0.0000416333007388
 46
6.658832854632235
 79
     2
 49
4.900812602129348
 49
-1551.097951008251
 53
173.8580000000001
 43
290.3841204225191
 44
7618.04971608784
 45
0.0000416333007388
 46
6.658832854632235
 79
     2
 49
4.900812602129348
 49
-1551.097951008251
 53
173.8580000000001
 43
312.8053963725779
 44
7618.04971608784
 45
0.0000416333007388
 46
6.658832854632235
 79
     2
 49
4.900812602129348
 49
-1551.097951008251
 53
173.8580000000001
 43
335.2266723226439
 44
7618.04971608784
 45
0.0000416333007388
 46
6.658832854632235
 79
     2
 49
4.900812602129348
 49
-1551.097951008251
 53
173.8580000000001
 43
357.6479482727027
 44
7618.04971608784
 45
0.0000416333007388
 46
6.658832854632235
 79
     2
 49
4.900812602129348
 49
-1551.097951008251
 53
173.8580000000001
 43
380.0692242227615
 44
7618.04971608784
 45
0.0000416333007388
 46
6.658832854632235
 79
     2
 49
4.900812602129348
 49
-1551.097951008251
 53
173.8580000000001
 43
402.490500172813
 44
7618.04971608784
 45
0.0000416333007388
 46
6.658832854632235
 79
     2
 49
4.900812602129348
 49
-1551.097951008251
 53
173.8580000000001
 43
424.911776122879
 44
7618.04971608784
 45
0.0000416333007388
 46
6.658832854632235
 79
     2
 49
4.900812602129348
 49
-1551.097951008251
 53
173.8580000000001
 43
447.3330520729377
 44
7618.04971608784
 45
0.0000416333007388
 46
6.658832854632235
 79
     2
 49
4.900812602129348
 49
-1551.097951008251
 53
173.8580000000001
 43
469.7543280230038
 44
7618.04971608784
 45
0.0000416333007388
 46
6.658832854632235
 79
     2
 49
4.900812602129348
 49
-1551.097951008251
 53
173.8580000000001
 43
492.1756039730553
 44
7618.04971608784
 45
0.0000416333007388
 46
6.658832854632235
 79
     2
 49
4.900812602129348
 49
-1551.097951008251
 53
173.8580000000001
 43
514.596879923114
 44
7618.04971608784
 45
0.0000416333007388
 46
6.658832854632235
 79
     2
 49
4.900812602129348
 49
-1551.097951008251
 53
173.8580000000001
 43
537.0181558731728
 44
7618.04971608784
 45
0.0000416333007388
 46
6.658832854632235
 79
     2
 49
4.900812602129348
 49
-1551.097951008251
 53
173.8580000000001
 43
559.4394318232389
 44
7618.04971608784
 45
0.0000416333007388
 46
6.658832854632235
 79
     2
 49
4.900812602129348
 49
-1551.097951008251
 53
173.8580000000001
 43
581.8607077732976
 44
7618.04971608784
 45
0.0000416333007388
 46
6.658832854632235
 79
     2
 49
4.900812602129348
 49
-1551.097951008251
 53
173.8580000000001
 43
604.2819837233564
 44
7618.04971608784
 45
0.0000416333007388
 46
6.658832854632235
 79
     2
 49
4.900812602129348
 49
-1551.097951008251
 53
173.8580000000001
 43
626.7032596734079
 44
7618.04971608784
 45
0.0000416333007388
 46
6.658832854632235
 79
     2
 49
4.900812602129348
 49
-1551.097951008251
 53
173.8580000000001
 43
649.124535623474
 44
7618.04971608784
 45
0.0000416333007388
 46
6.658832854632235
 79
     2
 49
4.900812602129348
 49
-1551.097951008251
 53
173.8580000000001
 43
671.5458115735327
 44
7618.04971608784
 45
0.0000416333007388
 46
6.658832854632235
 79
     2
 49
4.900812602129348
 49
-1551.097951008251
 53
173.8580000000001
 43
693.9670875235842
 44
7618.04971608784
 45
0.0000416333007388
 46
6.658832854632235
 79
     2
 49
4.900812602129348
 49
-1551.097951008251
 53
173.8580000000001
 43
716.3883634736503
 44
7618.04971608784
 45
0.0000416333007388
 46
6.658832854632235
 79
     2
 49
4.900812602129348
 49
-1551.097951008251
 53
173.8580000000001
 43
738.809639423709
 44
7618.04971608784
 45
0.0000416333007388
 46
6.658832854632235
 79
     2
 49
4.900812602129348
 49
-1551.097951008251
 53
173.8580000000001
 43
761.2309153737678
 44
7618.04971608784
 45
0.0000416333007388
 46
6.658832854632235
 79
     2
 49
4.900812602129348
 49
-1551.097951008251
 53
173.8580000000001
 43
783.6521913238339
 44
7618.04971608784
 45
0.0000416333007388
 46
6.658832854632235
 79
     2
 49
4.900812602129348
 49
-1551.097951008251
 53
173.8580000000001
 43
806.0734672738927
 44
7618.04971608784
 45
0.0000416333007388
 46
6.658832854632235
 79
     2
 49
4.900812602129348
 49
-1551.097951008251
 53
173.8580000000001
 43
828.4947432239441
 44
7618.04971608784
 45
0.0000416333007388
 46
6.658832854632235
 79
     2
 49
4.900812602129348
 49
-1551.097951008251
 53
173.8580000000001
 43
850.9160191740102
 44
7618.04971608784
 45
0.0000416333007388
 46
6.658832854632235
 79
     2
 49
4.900812602129348
 49
-1551.097951008251
 53
173.8580000000001
 43
873.337295124069
 44
7618.04971608784
 45
0.0000416333007388
 46
6.658832854632235
 79
     2
 49
4.900812602129348
 49
-1551.097951008251
 53
173.8580000000001
 43
895.758571074135
 44
7618.04971608784
 45
0.0000416333007388
 46
6.658832854632235
 79
     2
 49
4.900812602129348
 49
-1551.097951008251
 53
173.8580000000001
 43
918.1798470241792
 44
7618.04971608784
 45
0.0000416333007388
 46
6.658832854632235
 79
     2
 49
4.900812602129348
 49
-1551.097951008251
 53
173.8580000000001
 43
940.6011229742453
 44
7618.04971608784
 45
0.0000416333007388
 46
6.658832854632235
 79
     2
 49
4.900812602129348
 49
-1551.097951008251
 53
173.8580000000001
 43
963.022398924304
 44
7618.04971608784
 45
0.0000416333007388
 46
6.658832854632235
 79
     2
 49
4.900812602129348
 49
-1551.097951008251
 53
173.8580000000001
 43
985.4436748743628
 44
7618.04971608784
 45
0.0000416333007388
 46
6.658832854632235
 79
     2
 49
4.900812602129348
 49
-1551.097951008251
 53
173.8580000000001
 43
1007.864950824421
 44
7618.04971608784
 45
0.0000416333007388
 46
6.658832854632235
 79
     2
 49
4.900812602129348
 49
-1551.097951008251
 53
173.8580000000001
 43
1030.286226774487
 44
7618.04971608784
 45
0.0000416333007388
 46
6.658832854632235
 79
     2
 49
4.900812602129348
 49
-1551.097951008251
 53
173.8580000000001
 43
1052.707502724546
 44
7618.04971608784
 45
0.0000416333007388
 46
6.658832854632235
 79
     2
 49
4.900812602129348
 49
-1551.097951008251
 53
173.8580000000001
 43
1075.128778674598
 44
7618.04971608784
 45
0.0000416333007388
 46
6.658832854632235
 79
     2
 49
4.900812602129348
 49
-1551.097951008251
 53
173.8580000000001
 43
1097.550054624664
 44
7618.04971608784
 45
0.0000416333007388
 46
6.658832854632235
 79
     2
 49
4.900812602129348
 49
-1551.097951008251
 53
173.8580000000001
 43
1119.971330574722
 44
7618.04971608784
 45
0.0000416333007388
 46
6.658832854632235
 79
     2
 49
4.900812602129348
 49
-1551.097951008251
 53
173.253
 43
-395.5127055745161
 44
7615.533092285139
 45
-0.0000485549711043
 46
6.658842651360698
 79
     2
 49
4.499063197150475
 49
-2772.552403711932
 53
173.253
 43
-373.0915292745758
 44
7615.533092285139
 45
-0.0000485549711043
 46
6.658842651360698
 79
     2
 49
4.499063197150475
 49
-2772.552403711932
 53
173.253
 43
-350.6702533245098
 44
7615.533092285139
 45
-0.0000485549711043
 46
6.658842651360698
 79
     2
 49
4.499063197150475
 49
-2772.552403711932
 53
173.253
 43
-328.248977374451
 44
7615.533092285139
 45
-0.0000485549711043
 46
6.658842651360698
 79
     2
 49
4.499063197150475
 49
-2772.552403711932
 53
173.253
 43
-305.8277014243922
 44
7615.533092285139
 45
-0.0000485549711043
 46
6.658842651360698
 79
     2
 49
4.499063197150475
 49
-2772.552403711932
 53
173.253
 43
-283.4064254743335
 44
7615.533092285139
 45
-0.0000485549711043
 46
6.658842651360698
 79
     2
 49
4.499063197150475
 49
-2772.552403711932
 53
173.253
 43
-260.9851495242674
 44
7615.533092285139
 45
-0.0000485549711043
 46
6.658842651360698
 79
     2
 49
4.499063197150475
 49
-2772.552403711932
 53
173.253
 43
-238.5638735742159
 44
7615.533092285139
 45
-0.0000485549711043
 46
6.658842651360698
 79
     2
 49
4.499063197150475
 49
-2772.552403711932
 53
173.253
 43
-216.1425976241499
 44
7615.533092285139
 45
-0.0000485549711043
 46
6.658842651360698
 79
     2
 49
4.499063197150475
 49
-2772.552403711932
 53
173.253
 43
-193.7221188750245
 44
7615.533092285139
 45
-0.0000485549711043
 46
6.658842651360698
 79
     2
 49
4.499063197150475
 49
-2772.552403711932
 53
173.253
 43
-171.3008429249657
 44
7615.533092285139
 45
-0.0000485549711043
 46
6.658842651360698
 79
     2
 49
4.499063197150475
 49
-2772.552403711932
 53
173.253
 43
-148.8795669748997
 44
7615.533092285139
 45
-0.0000485549711043
 46
6.658842651360698
 79
     2
 49
4.499063197150475
 49
-2772.552403711932
 53
173.253
 43
-126.4582910248409
 44
7615.533092285139
 45
-0.0000485549711043
 46
6.658842651360698
 79
     2
 49
4.499063197150475
 49
-2772.552403711932
 53
173.253
 43
-104.0370150747822
 44
7615.533092285139
 45
-0.0000485549711043
 46
6.658842651360698
 79
     2
 49
4.499063197150475
 49
-2772.552403711932
 53
173.253
 43
-81.61573912471613
 44
7615.533092285139
 45
-0.0000485549711043
 46
6.658842651360698
 79
     2
 49
4.499063197150475
 49
-2772.552403711932
 53
173.253
 43
-59.19446317465736
 44
7615.533092285139
 45
-0.0000485549711043
 46
6.658842651360698
 79
     2
 49
4.499063197150475
 49
-2772.552403711932
 53
173.253
 43
-36.77318722459859
 44
7615.533092285139
 45
-0.0000485549711043
 46
6.658842651360698
 79
     2
 49
4.499063197150475
 49
-2772.552403711932
 53
173.253
 43
-14.35191127453981
 44
7615.533092285139
 45
-0.0000485549711043
 46
6.658842651360698
 79
     2
 49
4.499063197150475
 49
-2772.552403711932
 53
173.253
 43
8.069364675518954
 44
7615.533092285139
 45
-0.0000485549711043
 46
6.658842651360698
 79
     2
 49
4.499063197150475
 49
-2772.552403711932
 53
173.253
 43
30.490640625585
 44
7615.533092285139
 45
-0.0000485549711043
 46
6.658842651360698
 79
     2
 49
4.499063197150475
 49
-2772.552403711932
 53
173.253
 43
52.91191657564377
 44
7615.533092285139
 45
-0.0000485549711043
 46
6.658842651360698
 79
     2
 49
4.499063197150475
 49
-2772.552403711932
 53
173.253
 43
75.33319252569526
 44
7615.533092285139
 45
-0.0000485549711043
 46
6.658842651360698
 79
     2
 49
4.499063197150475
 49
-2772.552403711932
 53
173.253
 43
97.75446847576132
 44
7615.533092285139
 45
-0.0000485549711043
 46
6.658842651360698
 79
     2
 49
4.499063197150475
 49
-2772.552403711932
 53
173.253
 43
120.1757444258201
 44
7615.533092285139
 45
-0.0000485549711043
 46
6.658842651360698
 79
     2
 49
4.499063197150475
 49
-2772.552403711932
 53
173.253
 43
142.5970203758861
 44
7615.533092285139
 45
-0.0000485549711043
 46
6.658842651360698
 79
     2
 49
4.499063197150475
 49
-2772.552403711932
 53
173.253
 43
165.0182963259303
 44
7615.533092285139
 45
-0.0000485549711043
 46
6.658842651360698
 79
     2
 49
4.499063197150475
 49
-2772.552403711932
 53
173.253
 43
187.4395722759964
 44
7615.533092285139
 45
-0.0000485549711043
 46
6.658842651360698
 79
     2
 49
4.499063197150475
 49
-2772.552403711932
 53
173.253
 43
209.8608482260551
 44
7615.533092285139
 45
-0.0000485549711043
 46
6.658842651360698
 79
     2
 49
4.499063197150475
 49
-2772.552403711932
 53
173.253
 43
232.2821241761139
 44
7615.533092285139
 45
-0.0000485549711043
 46
6.658842651360698
 79
     2
 49
4.499063197150475
 49
-2772.552403711932
 53
173.253
 43
254.7034001261654
 44
7615.533092285139
 45
-0.0000485549711043
 46
6.658842651360698
 79
     2
 49
4.499063197150475
 49
-2772.552403711932
 53
173.253
 43
277.1246760762315
 44
7615.533092285139
 45
-0.0000485549711043
 46
6.658842651360698
 79
     2
 49
4.499063197150475
 49
-2772.552403711932
 53
173.253
 43
299.5459520262902
 44
7615.533092285139
 45
-0.0000485549711043
 46
6.658842651360698
 79
     2
 49
4.499063197150475
 49
-2772.552403711932
 53
173.253
 43
321.9672279763563
 44
7615.533092285139
 45
-0.0000485549711043
 46
6.658842651360698
 79
     2
 49
4.499063197150475
 49
-2772.552403711932
 53
173.253
 43
344.3885039264078
 44
7615.533092285139
 45
-0.0000485549711043
 46
6.658842651360698
 79
     2
 49
4.499063197150475
 49
-2772.552403711932
 53
173.253
 43
366.8097798764666
 44
7615.533092285139
 45
-0.0000485549711043
 46
6.658842651360698
 79
     2
 49
4.499063197150475
 49
-2772.552403711932
 53
173.253
 43
389.2310558265253
 44
7615.533092285139
 45
-0.0000485549711043
 46
6.658842651360698
 79
     2
 49
4.499063197150475
 49
-2772.552403711932
 53
173.253
 43
411.6523317765913
 44
7615.533092285139
 45
-0.0000485549711043
 46
6.658842651360698
 79
     2
 49
4.499063197150475
 49
-2772.552403711932
 53
173.253
 43
434.0736077266501
 44
7615.533092285139
 45
-0.0000485549711043
 46
6.658842651360698
 79
     2
 49
4.499063197150475
 49
-2772.552403711932
 53
173.253
 43
456.4948836767089
 44
7615.533092285139
 45
-0.0000485549711043
 46
6.658842651360698
 79
     2
 49
4.499063197150475
 49
-2772.552403711932
 53
173.253
 43
478.9161596267677
 44
7615.533092285139
 45
-0.0000485549711043
 46
6.658842651360698
 79
     2
 49
4.499063197150475
 49
-2772.552403711932
 53
173.253
 43
501.3374355768264
 44
7615.533092285139
 45
-0.0000485549711043
 46
6.658842651360698
 79
     2
 49
4.499063197150475
 49
-2772.552403711932
 53
173.253
 43
523.7587115268925
 44
7615.533092285139
 45
-0.0000485549711043
 46
6.658842651360698
 79
     2
 49
4.499063197150475
 49
-2772.552403711932
 53
173.253
 43
546.1799874769512
 44
7615.533092285139
 45
-0.0000485549711043
 46
6.658842651360698
 79
     2
 49
4.499063197150475
 49
-2772.552403711932
 53
173.253
 43
568.60126342701
 44
7615.533092285139
 45
-0.0000485549711043
 46
6.658842651360698
 79
     2
 49
4.499063197150475
 49
-2772.552403711932
 53
173.253
 43
591.0225393770615
 44
7615.533092285139
 45
-0.0000485549711043
 46
6.658842651360698
 79
     2
 49
4.499063197150475
 49
-2772.552403711932
 53
173.253
 43
613.4438153271275
 44
7615.533092285139
 45
-0.0000485549711043
 46
6.658842651360698
 79
     2
 49
4.499063197150475
 49
-2772.552403711932
 53
173.253
 43
635.8650912771791
 44
7615.533092285139
 45
-0.0000485549711043
 46
6.658842651360698
 79
     2
 49
4.499063197150475
 49
-2772.552403711932
 53
173.253
 43
658.2863672272524
 44
7615.533092285139
 45
-0.0000485549711043
 46
6.658842651360698
 79
     2
 49
4.499063197150475
 49
-2772.552403711932
 53
173.253
 43
680.7076431773039
 44
7615.533092285139
 45
-0.0000485549711043
 46
6.658842651360698
 79
     2
 49
4.499063197150475
 49
-2772.552403711932
 53
173.253
 43
703.1289191273627
 44
7615.533092285139
 45
-0.0000485549711043
 46
6.658842651360698
 79
     2
 49
4.499063197150475
 49
-2772.552403711932
 53
173.253
 43
725.5501950774214
 44
7615.533092285139
 45
-0.0000485549711043
 46
6.658842651360698
 79
     2
 49
4.499063197150475
 49
-2772.552403711932
 53
173.253
 43
747.9714710274874
 44
7615.533092285139
 45
-0.0000485549711043
 46
6.658842651360698
 79
     2
 49
4.499063197150475
 49
-2772.552403711932
 53
173.253
 43
770.3927469775317
 44
7615.533092285139
 45
-0.0000485549711043
 46
6.658842651360698
 79
     2
 49
4.499063197150475
 49
-2772.552403711932
 53
173.253
 43
792.814022927605
 44
7615.533092285139
 45
-0.0000485549711043
 46
6.658842651360698
 79
     2
 49
4.499063197150475
 49
-2772.552403711932
 53
173.253
 43
815.2352988776565
 44
7615.533092285139
 45
-0.0000485549711043
 46
6.658842651360698
 79
     2
 49
4.499063197150475
 49
-2772.552403711932
 53
173.253
 43
837.6565748277226
 44
7615.533092285139
 45
-0.0000485549711043
 46
6.658842651360698
 79
     2
 49
4.499063197150475
 49
-2772.552403711932
 53
173.253
 43
860.0778507777814
 44
7615.533092285139
 45
-0.0000485549711043
 46
6.658842651360698
 79
     2
 49
4.499063197150475
 49
-2772.552403711932
 53
173.253
 43
882.4991267278473
 44
7615.533092285139
 45
-0.0000485549711043
 46
6.658842651360698
 79
     2
 49
4.499063197150475
 49
-2772.552403711932
 53
173.253
 43
904.9204026778916
 44
7615.533092285139
 45
-0.0000485549711043
 46
6.658842651360698
 79
     2
 49
4.499063197150475
 49
-2772.552403711932
 53
173.253
 43
927.3416786279577
 44
7615.533092285139
 45
-0.0000485549711043
 46
6.658842651360698
 79
     2
 49
4.499063197150475
 49
-2772.552403711932
 53
173.253
 43
949.7629545780164
 44
7615.533092285139
 45
-0.0000485549711043
 46
6.658842651360698
 79
     2
 49
4.499063197150475
 49
-2772.552403711932
 53
173.253
 43
972.1842305280825
 44
7615.533092285139
 45
-0.0000485549711043
 46
6.658842651360698
 79
     2
 49
4.499063197150475
 49
-2772.552403711932
 53
173.253
 43
994.6055064781267
 44
7615.533092285139
 45
-0.0000485549711043
 46
6.658842651360698
 79
     2
 49
4.499063197150475
 49
-2772.552403711932
 53
173.253
 43
1017.0267824282
 44
7615.533092285139
 45
-0.0000485549711043
 46
6.658842651360698
 79
     2
 49
4.499063197150475
 49
-2772.552403711932
 53
173.253
 43
1039.448058378251
 44
7615.533092285139
 45
-0.0000485549711043
 46
6.658842651360698
 79
     2
 49
4.499063197150475
 49
-2772.552403711932
 53
173.253
 43
1061.869334328317
 44
7615.533092285139
 45
-0.0000485549711043
 46
6.658842651360698
 79
     2
 49
4.499063197150475
 49
-2772.552403711932
 53
173.253
 43
1084.290610278369
 44
7615.533092285139
 45
-0.0000485549711043
 46
6.658842651360698
 79
     2
 49
4.499063197150475
 49
-2772.552403711932
 53
173.253
 43
1106.711886228442
 44
7615.533092285139
 45
-0.0000485549711043
 46
6.658842651360698
 79
     2
 49
4.499063197150475
 49
-2772.552403711932
 53
173.253
 43
1129.133162178487
 44
7615.533092285139
 45
-0.0000485549711043
 46
6.658842651360698
 79
     2
 49
4.499063197150475
 49
-2772.552403711932
 53
173.253
 43
1151.554438128552
 44
7615.533092285139
 45
-0.0000485549711043
 46
6.658842651360698
 79
     2
 49
4.499063197150475
 49
-2772.552403711932
 53
173.253
 43
1173.975714078611
 44
7615.533092285139
 45
-0.0000485549711043
 46
6.658842651360698
 79
     2
 49
4.499063197150475
 49
-2772.552403711932
 53
173.253
 43
1196.39699002867
 44
7615.533092285139
 45
-0.0000485549711043
 46
6.658842651360698
 79
     2
 49
4.499063197150475
 49
-2772.552403711932
 53
173.253
 43
1218.818265978721
 44
7615.533092285139
 45
-0.0000485549711043
 46
6.658842651360698
 79
     2
 49
4.499063197150475
 49
-2772.552403711932
 53
173.253
 43
1241.239541928788
 44
7615.533092285139
 45
-0.0000485549711043
 46
6.658842651360698
 79
     2
 49
4.499063197150475
 49
-2772.552403711932
 53
173.253
 43
1263.660817878846
 44
7615.533092285139
 45
-0.0000485549711043
 46
6.658842651360698
 79
     2
 49
4.499063197150475
 49
-2772.552403711932
 53
173.253
 43
1286.082093828912
 44
7615.533092285139
 45
-0.0000485549711043
 46
6.658842651360698
 79
     2
 49
4.499063197150475
 49
-2772.552403711932
 53
173.253
 43
1308.503369778971
 44
7615.533092285139
 45
-0.0000485549711043
 46
6.658842651360698
 79
     2
 49
4.499063197150475
 49
-2772.552403711932
 53
173.253
 43
1330.924645729023
 44
7615.533092285139
 45
-0.0000485549711043
 46
6.658842651360698
 79
     2
 49
4.499063197150475
 49
-2772.552403711932
 53
173.253
 43
1353.345921679089
 44
7615.533092285139
 45
-0.0000485549711043
 46
6.658842651360698
 79
     2
 49
4.499063197150475
 49
-2772.552403711932
 53
173.253
 43
1375.767197629147
 44
7615.533092285139
 45
-0.0000485549711043
 46
6.658842651360698
 79
     2
 49
4.499063197150475
 49
-2772.552403711932
 53
173.253
 43
1398.188473579214
 44
7615.533092285139
 45
-0.0000485549711043
 46
6.658842651360698
 79
     2
 49
4.499063197150475
 49
-2772.552403711932
 53
173.253
 43
1420.609749529265
 44
7615.533092285139
 45
-0.0000485549711043
 46
6.658842651360698
 79
     2
 49
4.499063197150475
 49
-2772.552403711932
 53
173.253
 43
1443.031025479324
 44
7615.533092285139
 45
-0.0000485549711043
 46
6.658842651360698
 79
     2
 49
4.499063197150475
 49
-2772.552403711932
 53
173.253
 43
1465.452301429382
 44
7615.533092285139
 45
-0.0000485549711043
 46
6.658842651360698
 79
     2
 49
4.499063197150475
 49
-2772.552403711932
 53
173.253
 43
1487.873577379449
 44
7615.533092285139
 45
-0.0000485549711043
 46
6.658842651360698
 79
     2
 49
4.499063197150475
 49
-2772.552403711932
 53
173.253
 43
1510.294853329507
 44
7615.533092285139
 45
-0.0000485549711043
 46
6.658842651360698
 79
     2
 49
4.499063197150475
 49
-2772.552403711932
 53
173.253
 43
1532.716129279559
 44
7615.533092285139
 45
-0.0000485549711043
 46
6.658842651360698
 79
     2
 49
4.499063197150475
 49
-2772.552403711932
 53
173.253
 43
1555.137405229618
 44
7615.533092285139
 45
-0.0000485549711043
 46
6.658842651360698
 79
     2
 49
4.499063197150475
 49
-2772.552403711932
 53
173.253
 43
1577.558681179684
 44
7615.533092285139
 45
-0.0000485549711043
 46
6.658842651360698
 79
     2
 49
4.499063197150475
 49
-2772.552403711932
 53
173.253
 43
1599.981950132054
 44
7615.533092285139
 45
-0.0000485549711043
 46
6.658842651360698
 79
     2
 49
4.499063197150475
 49
-2772.552403711932
 53
173.253
 43
1622.403226082106
 44
7615.533092285139
 45
-0.0000485549711043
 46
6.658842651360698
 79
     2
 49
4.499063197150475
 49
-2772.552403711932
 53
173.253
 43
1644.824502032172
 44
7615.533092285139
 45
-0.0000485549711043
 46
6.658842651360698
 79
     2
 49
4.499063197150475
 49
-2772.552403711932
 53
173.253
 43
1667.245777982223
 44
7615.533092285139
 45
-0.0000485549711043
 46
6.658842651360698
 79
     2
 49
4.499063197150475
 49
-2772.552403711932
 53
173.253
 43
1689.667053932282
 44
7615.533092285139
 45
-0.0000485549711043
 46
6.658842651360698
 79
     2
 49
4.499063197150475
 49
-2772.552403711932
 53
173.253
 43
1712.088329882341
 44
7615.533092285139
 45
-0.0000485549711043
 46
6.658842651360698
 79
     2
 49
4.499063197150475
 49
-2772.552403711932
 53
173.253
 43
1734.509605832407
 44
7615.533092285139
 45
-0.0000485549711043
 46
6.658842651360698
 79
     2
 49
4.499063197150475
 49
-2772.552403711932
 53
173.253
 43
1756.930881782466
 44
7615.533092285139
 45
-0.0000485549711043
 46
6.658842651360698
 79
     2
 49
4.499063197150475
 49
-2772.552403711932
 53
173.253
 43
1779.352157732532
 44
7615.533092285139
 45
-0.0000485549711043
 46
6.658842651360698
 79
     2
 49
4.499063197150475
 49
-2772.552403711932
 53
173.253
 43
1801.773433682576
 44
7615.533092285139
 45
-0.0000485549711043
 46
6.658842651360698
 79
     2
 49
4.499063197150475
 49
-2772.552403711932
 53
173.253
 43
1824.194709632642
 44
7615.533092285139
 45
-0.0000485549711043
 46
6.658842651360698
 79
     2
 49
4.499063197150475
 49
-2772.552403711932
 53
173.253
 43
1846.615985582701
 44
7615.533092285139
 45
-0.0000485549711043
 46
6.658842651360698
 79
     2
 49
4.499063197150475
 49
-2772.552403711932
 53
173.253
 43
1869.037261532767
 44
7615.533092285139
 45
-0.0000485549711043
 46
6.658842651360698
 79
     2
 49
4.499063197150475
 49
-2772.552403711932
 53
173.253
 43
1891.458537482825
 44
7615.533092285139
 45
-0.0000485549711043
 46
6.658842651360698
 79
     2
 49
4.499063197150475
 49
-2772.552403711932
 53
173.253
 43
1913.879813432877
 44
7615.533092285139
 45
-0.0000485549711043
 46
6.658842651360698
 79
     2
 49
4.499063197150475
 49
-2772.552403711932
 53
173.253
 43
1936.301089382943
 44
7615.533092285139
 45
-0.0000485549711043
 46
6.658842651360698
 79
     2
 49
4.499063197150475
 49
-2772.552403711932
 53
173.253
 43
1958.722365333002
 44
7615.533092285139
 45
-0.0000485549711043
 46
6.658842651360698
 79
     2
 49
4.499063197150475
 49
-2772.552403711932
 53
173.253
 43
1981.143641283068
 44
7615.533092285139
 45
-0.0000485549711043
 46
6.658842651360698
 79
     2
 49
4.499063197150475
 49
-2772.552403711932
 53
173.253
 43
2003.56491723312
 44
7615.533092285139
 45
-0.0000485549711043
 46
6.658842651360698
 79
     2
 49
4.499063197150475
 49
-2772.552403711932
 53
173.253
 43
2025.986193183178
 44
7615.533092285139
 45
-0.0000485549711043
 46
6.658842651360698
 79
     2
 49
4.499063197150475
 49
-2772.552403711932
 53
173.253
 43
2048.407469133245
 44
7615.533092285139
 45
-0.0000485549711043
 46
6.658842651360698
 79
     2
 49
4.499063197150475
 49
-2772.552403711932
 53
173.253
 43
2070.828745083304
 44
7615.533092285139
 45
-0.0000485549711043
 46
6.658842651360698
 79
     2
 49
4.499063197150475
 49
-2772.552403711932
 53
173.253
 43
2093.250021033362
 44
7615.533092285139
 45
-0.0000485549711043
 46
6.658842651360698
 79
     2
 49
4.499063197150475
 49
-2772.552403711932
 53
173.253
 43
2115.671296983421
 44
7615.533092285139
 45
-0.0000485549711043
 46
6.658842651360698
 79
     2
 49
4.499063197150475
 49
-2772.552403711932
 53
173.253
 43
2138.092572933472
 44
7615.533092285139
 45
-0.0000485549711043
 46
6.658842651360698
 79
     2
 49
4.499063197150475
 49
-2772.552403711932
 53
173.253
 43
2160.513848883538
 44
7615.533092285139
 45
-0.0000485549711043
 46
6.658842651360698
 79
     2
 49
4.499063197150475
 49
-2772.552403711932
 53
173.253
 43
2182.935124833597
 44
7615.533092285139
 45
-0.0000485549711043
 46
6.658842651360698
 79
     2
 49
4.499063197150475
 49
-2772.552403711932
 53
173.253
 43
2205.356400783649
 44
7615.533092285139
 45
-0.0000485549711043
 46
6.658842651360698
 79
     2
 49
4.499063197150475
 49
-2772.552403711932
 53
173.253
 43
2227.777676733714
 44
7615.533092285139
 45
-0.0000485549711043
 46
6.658842651360698
 79
     2
 49
4.499063197150475
 49
-2772.552403711932
 53
173.253
 43
2250.198952683773
 44
7615.533092285139
 45
-0.0000485549711043
 46
6.658842651360698
 79
     2
 49
4.499063197150475
 49
-2772.552403711932
 53
173.253
 43
2272.620228633832
 44
7615.533092285139
 45
-0.0000485549711043
 46
6.658842651360698
 79
     2
 49
4.499063197150475
 49
-2772.552403711932
 53
173.253
 43
2295.041504583891
 44
7615.533092285139
 45
-0.0000485549711043
 46
6.658842651360698
 79
     2
 49
4.499063197150475
 49
-2772.552403711932
 53
173.253
 43
2317.462780533957
 44
7615.533092285139
 45
-0.0000485549711043
 46
6.658842651360698
 79
     2
 49
4.499063197150475
 49
-2772.552403711932
 53
173.253
 43
2339.884056484009
 44
7615.533092285139
 45
-0.0000485549711043
 46
6.658842651360698
 79
     2
 49
4.499063197150475
 49
-2772.552403711932
 53
164.891
 43
-393.3765060521164
 44
7614.558195276808
 45
0.0000018505729219
 46
6.658832203888029
 79
     2
 49
2.21249165070574
 49
-253.2524971607662
 53
164.891
 43
-370.9552301020504
 44
7614.558195276808
 45
0.0000018505729219
 46
6.658832203888029
 79
     2
 49
2.21249165070574
 49
-253.2524971607662
 53
164.891
 43
-348.5339541519916
 44
7614.558195276808
 45
0.0000018505729219
 46
6.658832203888029
 79
     2
 49
2.21249165070574
 49
-253.2524971607662
 53
164.891
 43
-326.1126782019255
 44
7614.558195276808
 45
0.0000018505729219
 46
6.658832203888029
 79
     2
 49
2.21249165070574
 49
-253.2524971607662
 53
164.891
 43
-303.6914022518668
 44
7614.558195276808
 45
0.0000018505729219
 46
6.658832203888029
 79
     2
 49
2.21249165070574
 49
-253.2524971607662
 53
164.891
 43
-281.2701263018153
 44
7614.558195276808
 45
0.0000018505729219
 46
6.658832203888029
 79
     2
 49
2.21249165070574
 49
-253.2524971607662
 53
164.891
 43
-258.8488503517492
 44
7614.558195276808
 45
0.0000018505729219
 46
6.658832203888029
 79
     2
 49
2.21249165070574
 49
-253.2524971607662
 53
164.891
 43
-236.4275744016904
 44
7614.558195276808
 45
0.0000018505729219
 46
6.658832203888029
 79
     2
 49
2.21249165070574
 49
-253.2524971607662
 53
164.891
 43
-214.0068963523281
 44
7614.558195276808
 45
0.0000018505729219
 46
6.658832203888029
 79
     2
 49
2.21249165070574
 49
-253.2524971607662
 53
164.891
 43
-191.585620402262
 44
7614.558195276808
 45
0.0000018505729219
 46
6.658832203888029
 79
     2
 49
2.21249165070574
 49
-253.2524971607662
 53
164.891
 43
-169.1643444522106
 44
7614.558195276808
 45
0.0000018505729219
 46
6.658832203888029
 79
     2
 49
2.21249165070574
 49
-253.2524971607662
 53
157.062
 43
-399.9804985654682
 44
7616.062692788091
 45
-0.000049262359214
 46
6.658841673965036
 79
     2
 49
5.098976821481784
 49
-968.7608133197089
 53
157.062
 43
-377.5592425454361
 44
7616.062692788091
 45
-0.000049262359214
 46
6.658841673965036
 79
     2
 49
5.098976821481784
 49
-968.7608133197089
 53
157.062
 43
-355.1379665953773
 44
7616.062692788091
 45
-0.000049262359214
 46
6.658841673965036
 79
     2
 49
5.098976821481784
 49
-968.7608133197089
 53
157.062
 43
-332.7166906453185
 44
7616.062692788091
 45
-0.000049262359214
 46
6.658841673965036
 79
     2
 49
5.098976821481784
 49
-968.7608133197089
 53
157.062
 43
-310.2954146952525
 44
7616.062692788091
 45
-0.000049262359214
 46
6.658841673965036
 79
     2
 49
5.098976821481784
 49
-968.7608133197089
 53
157.062
 43
-287.8741387451937
 44
7616.062692788091
 45
-0.000049262359214
 46
6.658841673965036
 79
     2
 49
5.098976821481784
 49
-968.7608133197089
 53
157.062
 43
-265.452862795135
 44
7616.062692788091
 45
-0.000049262359214
 46
6.658841673965036
 79
     2
 49
5.098976821481784
 49
-968.7608133197089
 53
157.062
 43
-243.0315868450835
 44
7616.062692788091
 45
-0.000049262359214
 46
6.658841673965036
 79
     2
 49
5.098976821481784
 49
-968.7608133197089
 53
157.062
 43
-220.6103108950174
 44
7616.062692788091
 45
-0.000049262359214
 46
6.658841673965036
 79
     2
 49
5.098976821481784
 49
-968.7608133197089
 53
157.062
 43
-198.1884370442621
 44
7616.062692788091
 45
-0.000049262359214
 46
6.658841673965036
 79
     2
 49
5.098976821481784
 49
-968.7608133197089
 53
157.062
 43
-175.7671610942034
 44
7616.062692788091
 45
-0.000049262359214
 46
6.658841673965036
 79
     2
 49
5.098976821481784
 49
-968.7608133197089
 53
157.062
 43
-153.3458851441519
 44
7616.062692788091
 45
-0.000049262359214
 46
6.658841673965036
 79
     2
 49
5.098976821481784
 49
-968.7608133197089
 53
157.062
 43
-130.9246091940858
 44
7616.062692788091
 45
-0.000049262359214
 46
6.658841673965036
 79
     2
 49
5.098976821481784
 49
-968.7608133197089
 53
157.062
 43
-108.5033332440416
 44
7616.062692788091
 45
-0.000049262359214
 46
6.658841673965036
 79
     2
 49
5.098976821481784
 49
-968.7608133197089
 53
157.062
 43
-86.08205729396104
 44
7616.062692788091
 45
-0.000049262359214
 46
6.658841673965036
 79
     2
 49
5.098976821481784
 49
-968.7608133197089
 53
157.062
 43
-63.66078134391682
 44
7616.062692788091
 45
-0.000049262359214
 46
6.658841673965036
 79
     2
 49
5.098976821481784
 49
-968.7608133197089
 53
157.062
 43
-41.23950539385077
 44
7616.062692788091
 45
-0.000049262359214
 46
6.658841673965036
 79
     2
 49
5.098976821481784
 49
-968.7608133197089
 53
157.062
 43
-18.818229443792
 44
7616.062692788091
 45
-0.000049262359214
 46
6.658841673965036
 79
     2
 49
5.098976821481784
 49
-968.7608133197089
 53
157.062
 43
3.60304650627404
 44
7616.062692788091
 45
-0.000049262359214
 46
6.658841673965036
 79
     2
 49
5.098976821481784
 49
-968.7608133197089
 53
157.062
 43
26.02432245632554
 44
7616.062692788091
 45
-0.000049262359214
 46
6.658841673965036
 79
     2
 49
5.098976821481784
 49
-968.7608133197089
 53
157.062
 43
48.44559840638431
 44
7616.062692788091
 45
-0.000049262359214
 46
6.658841673965036
 79
     2
 49
5.098976821481784
 49
-968.7608133197089
 53
157.062
 43
70.86687435644307
 44
7616.062692788091
 45
-0.000049262359214
 46
6.658841673965036
 79
     2
 49
5.098976821481784
 49
-968.7608133197089
 53
157.062
 43
93.28815030650913
 44
7616.062692788091
 45
-0.000049262359214
 46
6.658841673965036
 79
     2
 49
5.098976821481784
 49
-968.7608133197089
 53
157.062
 43
115.7094262565679
 44
7616.062692788091
 45
-0.000049262359214
 46
6.658841673965036
 79
     2
 49
5.098976821481784
 49
-968.7608133197089
 53
157.062
 43
138.1307022066194
 44
7616.062692788091
 45
-0.000049262359214
 46
6.658841673965036
 79
     2
 49
5.098976821481784
 49
-968.7608133197089
 53
157.062
 43
160.5519781566854
 44
7616.062692788091
 45
-0.000049262359214
 46
6.658841673965036
 79
     2
 49
5.098976821481784
 49
-968.7608133197089
 53
157.062
 43
182.9732541067442
 44
7616.062692788091
 45
-0.000049262359214
 46
6.658841673965036
 79
     2
 49
5.098976821481784
 49
-968.7608133197089
 53
157.062
 43
205.3945300567957
 44
7616.062692788091
 45
-0.000049262359214
 46
6.658841673965036
 79
     2
 49
5.098976821481784
 49
-968.7608133197089
 53
157.062
 43
227.8158060068617
 44
7616.062692788091
 45
-0.000049262359214
 46
6.658841673965036
 79
     2
 49
5.098976821481784
 49
-968.7608133197089
 53
157.062
 43
250.2370819569205
 44
7616.062692788091
 45
-0.000049262359214
 46
6.658841673965036
 79
     2
 49
5.098976821481784
 49
-968.7608133197089
 53
157.062
 43
272.6583579069793
 44
7616.062692788091
 45
-0.000049262359214
 46
6.658841673965036
 79
     2
 49
5.098976821481784
 49
-968.7608133197089
 53
157.062
 43
295.0796338570381
 44
7616.062692788091
 45
-0.000049262359214
 46
6.658841673965036
 79
     2
 49
5.098976821481784
 49
-968.7608133197089
 53
157.062
 43
317.5009098071041
 44
7616.062692788091
 45
-0.000049262359214
 46
6.658841673965036
 79
     2
 49
5.098976821481784
 49
-968.7608133197089
 53
157.062
 43
339.9221857571556
 44
7616.062692788091
 45
-0.000049262359214
 46
6.658841673965036
 79
     2
 49
5.098976821481784
 49
-968.7608133197089
 53
157.062
 43
362.3434617072144
 44
7616.062692788091
 45
-0.000049262359214
 46
6.658841673965036
 79
     2
 49
5.098976821481784
 49
-968.7608133197089
 53
157.062
 43
384.7647376572804
 44
7616.062692788091
 45
-0.000049262359214
 46
6.658841673965036
 79
     2
 49
5.098976821481784
 49
-968.7608133197089
 53
157.062
 43
407.1860136073391
 44
7616.062692788091
 45
-0.000049262359214
 46
6.658841673965036
 79
     2
 49
5.098976821481784
 49
-968.7608133197089
 53
157.062
 43
429.6072895573907
 44
7616.062692788091
 45
-0.000049262359214
 46
6.658841673965036
 79
     2
 49
5.098976821481784
 49
-968.7608133197089
 53
157.062
 43
452.0285655074494
 44
7616.062692788091
 45
-0.000049262359214
 46
6.658841673965036
 79
     2
 49
5.098976821481784
 49
-968.7608133197089
 53
157.062
 43
474.4498414575154
 44
7616.062692788091
 45
-0.000049262359214
 46
6.658841673965036
 79
     2
 49
5.098976821481784
 49
-968.7608133197089
 53
142.435
 43
-409.5490421499617
 44
7612.093496159697
 45
0.0000333619258157
 46
6.658835289119042
 79
     2
 49
2.738006498929002
 49
-1100.412526831495
 53
142.435
 43
-387.1278459199948
 44
7612.093496159697
 45
0.0000333619258157
 46
6.658835289119042
 79
     2
 49
2.738006498929002
 49
-1100.412526831495
 53
142.435
 43
-364.706569969936
 44
7612.093496159697
 45
0.0000333619258157
 46
6.658835289119042
 79
     2
 49
2.738006498929002
 49
-1100.412526831495
 53
142.435
 43
-342.2852940198845
 44
7612.093496159697
 45
0.0000333619258157
 46
6.658835289119042
 79
     2
 49
2.738006498929002
 49
-1100.412526831495
 53
142.435
 43
-319.8640180698258
 44
7612.093496159697
 45
0.0000333619258157
 46
6.658835289119042
 79
     2
 49
2.738006498929002
 49
-1100.412526831495
 53
142.435
 43
-297.4427421197597
 44
7612.093496159697
 45
0.0000333619258157
 46
6.658835289119042
 79
     2
 49
2.738006498929002
 49
-1100.412526831495
 53
142.435
 43
-275.0214661697155
 44
7612.093496159697
 45
0.0000333619258157
 46
6.658835289119042
 79
     2
 49
2.738006498929002
 49
-1100.412526831495
 53
142.435
 43
-252.6001902196422
 44
7612.093496159697
 45
0.0000333619258157
 46
6.658835289119042
 79
     2
 49
2.738006498929002
 49
-1100.412526831495
 53
142.435
 43
-230.1789142695907
 44
7612.093496159697
 45
0.0000333619258157
 46
6.658835289119042
 79
     2
 49
2.738006498929002
 49
-1100.412526831495
 53
142.435
 43
-207.7568411185985
 44
7612.093496159697
 45
0.0000333619258157
 46
6.658835289119042
 79
     2
 49
2.738006498929002
 49
-1100.412526831495
 53
142.435
 43
-185.3355651685397
 44
7612.093496159697
 45
0.0000333619258157
 46
6.658835289119042
 79
     2
 49
2.738006498929002
 49
-1100.412526831495
 53
142.435
 43
-162.9142892184809
 44
7612.093496159697
 45
0.0000333619258157
 46
6.658835289119042
 79
     2
 49
2.738006498929002
 49
-1100.412526831495
 53
142.435
 43
-140.4930132684221
 44
7612.093496159697
 45
0.0000333619258157
 46
6.658835289119042
 79
     2
 49
2.738006498929002
 49
-1100.412526831495
 53
142.435
 43
-118.0717373183561
 44
7612.093496159697
 45
0.0000333619258157
 46
6.658835289119042
 79
     2
 49
2.738006498929002
 49
-1100.412526831495
 53
142.435
 43
-95.65046136829733
 44
7612.093496159697
 45
0.0000333619258157
 46
6.658835289119042
 79
     2
 49
2.738006498929002
 49
-1100.412526831495
 53
142.435
 43
-73.22918541824583
 44
7612.093496159697
 45
0.0000333619258157
 46
6.658835289119042
 79
     2
 49
2.738006498929002
 49
-1100.412526831495
 53
142.435
 43
-50.80790946817979
 44
7612.093496159697
 45
0.0000333619258157
 46
6.658835289119042
 79
     2
 49
2.738006498929002
 49
-1100.412526831495
 53
142.435
 43
-28.38663351812829
 44
7612.093496159697
 45
0.0000333619258157
 46
6.658835289119042
 79
     2
 49
2.738006498929002
 49
-1100.412526831495
 53
142.435
 43
-5.965357568054969
 44
7612.093496159697
 45
0.0000333619258157
 46
6.658835289119042
 79
     2
 49
2.738006498929002
 49
-1100.412526831495
 53
142.435
 43
16.45591838199652
 44
7612.093496159697
 45
0.0000333619258157
 46
6.658835289119042
 79
     2
 49
2.738006498929002
 49
-1100.412526831495
 53
142.435
 43
38.8771943320553
 44
7612.093496159697
 45
0.0000333619258157
 46
6.658835289119042
 79
     2
 49
2.738006498929002
 49
-1100.412526831495
 53
142.435
 43
61.29847028211407
 44
7612.093496159697
 45
0.0000333619258157
 46
6.658835289119042
 79
     2
 49
2.738006498929002
 49
-1100.412526831495
 53
142.435
 43
83.71974623218012
 44
7612.093496159697
 45
0.0000333619258157
 46
6.658835289119042
 79
     2
 49
2.738006498929002
 49
-1100.412526831495
 53
142.435
 43
106.1410221822389
 44
7612.093496159697
 45
0.0000333619258157
 46
6.658835289119042
 79
     2
 49
2.738006498929002
 49
-1100.412526831495
 53
142.435
 43
128.5622981322904
 44
7612.093496159697
 45
0.0000333619258157
 46
6.658835289119042
 79
     2
 49
2.738006498929002
 49
-1100.412526831495
 53
142.435
 43
150.9835740823491
 44
7612.093496159697
 45
0.0000333619258157
 46
6.658835289119042
 79
     2
 49
2.738006498929002
 49
-1100.412526831495
 53
142.435
 43
173.4048500324152
 44
7612.093496159697
 45
0.0000333619258157
 46
6.658835289119042
 79
     2
 49
2.738006498929002
 49
-1100.412526831495
 53
142.435
 43
195.8261259824667
 44
7612.093496159697
 45
0.0000333619258157
 46
6.658835289119042
 79
     2
 49
2.738006498929002
 49
-1100.412526831495
 53
142.435
 43
218.2474019325255
 44
7612.093496159697
 45
0.0000333619258157
 46
6.658835289119042
 79
     2
 49
2.738006498929002
 49
-1100.412526831495
 53
142.435
 43
240.6686778825843
 44
7612.093496159697
 45
0.0000333619258157
 46
6.658835289119042
 79
     2
 49
2.738006498929002
 49
-1100.412526831495
 53
142.435
 43
263.0899538326503
 44
7612.093496159697
 45
0.0000333619258157
 46
6.658835289119042
 79
     2
 49
2.738006498929002
 49
-1100.412526831495
 53
142.435
 43
285.5112297827091
 44
7612.093496159697
 45
0.0000333619258157
 46
6.658835289119042
 79
     2
 49
2.738006498929002
 49
-1100.412526831495
 53
142.435
 43
307.9325057327606
 44
7612.093496159697
 45
0.0000333619258157
 46
6.658835289119042
 79
     2
 49
2.738006498929002
 49
-1100.412526831495
 53
142.435
 43
330.3537816828266
 44
7612.093496159697
 45
0.0000333619258157
 46
6.658835289119042
 79
     2
 49
2.738006498929002
 49
-1100.412526831495
 53
142.435
 43
352.7750576328854
 44
7612.093496159697
 45
0.0000333619258157
 46
6.658835289119042
 79
     2
 49
2.738006498929002
 49
-1100.412526831495
 53
142.435
 43
375.1963335829514
 44
7612.093496159697
 45
0.0000333619258157
 46
6.658835289119042
 79
     2
 49
2.738006498929002
 49
-1100.412526831495
 53
142.435
 43
397.6176095330102
 44
7612.093496159697
 45
0.0000333619258157
 46
6.658835289119042
 79
     2
 49
2.738006498929002
 49
-1100.412526831495
 53
142.435
 43
420.038885483069
 44
7612.093496159697
 45
0.0000333619258157
 46
6.658835289119042
 79
     2
 49
2.738006498929002
 49
-1100.412526831495
 53
142.435
 43
442.4601614331204
 44
7612.093496159697
 45
0.0000333619258157
 46
6.658835289119042
 79
     2
 49
2.738006498929002
 49
-1100.412526831495
 53
115.046
 43
-392.1832955710979
 44
7612.004382051066
 45
-0.000053614328815
 46
6.658838208780605
 79
     2
 49
2.818862602510648
 49
-1797.918053154254
 53
115.046
 43
-369.7620196210464
 44
7612.004382051066
 45
-0.000053614328815
 46
6.658838208780605
 79
     2
 49
2.818862602510648
 49
-1797.918053154254
 53
115.046
 43
-347.3407436709877
 44
7612.004382051066
 45
-0.000053614328815
 46
6.658838208780605
 79
     2
 49
2.818862602510648
 49
-1797.918053154254
 53
115.046
 43
-324.9194677209289
 44
7612.004382051066
 45
-0.000053614328815
 46
6.658838208780605
 79
     2
 49
2.818862602510648
 49
-1797.918053154254
 53
115.046
 43
-302.4981917708629
 44
7612.004382051066
 45
-0.000053614328815
 46
6.658838208780605
 79
     2
 49
2.818862602510648
 49
-1797.918053154254
 53
115.046
 43
-280.0769158208041
 44
7612.004382051066
 45
-0.000053614328815
 46
6.658838208780605
 79
     2
 49
2.818862602510648
 49
-1797.918053154254
 53
115.046
 43
-257.6556398707453
 44
7612.004382051066
 45
-0.000053614328815
 46
6.658838208780605
 79
     2
 49
2.818862602510648
 49
-1797.918053154254
 53
115.046
 43
-235.2343639206938
 44
7612.004382051066
 45
-0.000053614328815
 46
6.658838208780605
 79
     2
 49
2.818862602510648
 49
-1797.918053154254
 53
115.046
 43
-212.8130879706205
 44
7612.004382051066
 45
-0.000053614328815
 46
6.658838208780605
 79
     2
 49
2.818862602510648
 49
-1797.918053154254
 53
115.046
 43
-190.391812020569
 44
7612.004382051066
 45
-0.000053614328815
 46
6.658838208780605
 79
     2
 49
2.818862602510648
 49
-1797.918053154254
 53
115.046
 43
-167.9705360705029
 44
7612.004382051066
 45
-0.000053614328815
 46
6.658838208780605
 79
     2
 49
2.818862602510648
 49
-1797.918053154254
 53
115.046
 43
-145.5492601204514
 44
7612.004382051066
 45
-0.000053614328815
 46
6.658838208780605
 79
     2
 49
2.818862602510648
 49
-1797.918053154254
 53
115.046
 43
-123.1279841703926
 44
7612.004382051066
 45
-0.000053614328815
 46
6.658838208780605
 79
     2
 49
2.818862602510648
 49
-1797.918053154254
 53
115.046
 43
-100.7067082203339
 44
7612.004382051066
 45
-0.000053614328815
 46
6.658838208780605
 79
     2
 49
2.818862602510648
 49
-1797.918053154254
 53
115.046
 43
-78.28543227026784
 44
7612.004382051066
 45
-0.000053614328815
 46
6.658838208780605
 79
     2
 49
2.818862602510648
 49
-1797.918053154254
 53
115.046
 43
-55.86415632020908
 44
7612.004382051066
 45
-0.000053614328815
 46
6.658838208780605
 79
     2
 49
2.818862602510648
 49
-1797.918053154254
 53
115.046
 43
-33.44288037014303
 44
7612.004382051066
 45
-0.000053614328815
 46
6.658838208780605
 79
     2
 49
2.818862602510648
 49
-1797.918053154254
 53
115.046
 43
-11.02160442009153
 44
7612.004382051066
 45
-0.000053614328815
 46
6.658838208780605
 79
     2
 49
2.818862602510648
 49
-1797.918053154254
 53
115.046
 43
11.39967152996723
 44
7612.004382051066
 45
-0.000053614328815
 46
6.658838208780605
 79
     2
 49
2.818862602510648
 49
-1797.918053154254
 53
115.046
 43
33.82094748003328
 44
7612.004382051066
 45
-0.000053614328815
 46
6.658838208780605
 79
     2
 49
2.818862602510648
 49
-1797.918053154254
 53
115.046
 43
56.2422234300775
 44
7612.004382051066
 45
-0.000053614328815
 46
6.658838208780605
 79
     2
 49
2.818862602510648
 49
-1797.918053154254
 53
115.046
 43
78.66349938015082
 44
7612.004382051066
 45
-0.000053614328815
 46
6.658838208780605
 79
     2
 49
2.818862602510648
 49
-1797.918053154254
 53
115.046
 43
101.0847753302023
 44
7612.004382051066
 45
-0.000053614328815
 46
6.658838208780605
 79
     2
 49
2.818862602510648
 49
-1797.918053154254
 53
115.046
 43
123.5060512802683
 44
7612.004382051066
 45
-0.000053614328815
 46
6.658838208780605
 79
     2
 49
2.818862602510648
 49
-1797.918053154254
 53
115.046
 43
145.9273272303198
 44
7612.004382051066
 45
-0.000053614328815
 46
6.658838208780605
 79
     2
 49
2.818862602510648
 49
-1797.918053154254
 53
115.046
 43
168.3486031803932
 44
7612.004382051066
 45
-0.000053614328815
 46
6.658838208780605
 79
     2
 49
2.818862602510648
 49
-1797.918053154254
 53
115.046
 43
190.7698791304374
 44
7612.004382051066
 45
-0.000053614328815
 46
6.658838208780605
 79
     2
 49
2.818862602510648
 49
-1797.918053154254
 53
115.046
 43
213.1911550805035
 44
7612.004382051066
 45
-0.000053614328815
 46
6.658838208780605
 79
     2
 49
2.818862602510648
 49
-1797.918053154254
 53
115.046
 43
235.6124310305622
 44
7612.004382051066
 45
-0.000053614328815
 46
6.658838208780605
 79
     2
 49
2.818862602510648
 49
-1797.918053154254
 53
115.046
 43
258.0337069806283
 44
7612.004382051066
 45
-0.000053614328815
 46
6.658838208780605
 79
     2
 49
2.818862602510648
 49
-1797.918053154254
 53
115.046
 43
280.4549829306725
 44
7612.004382051066
 45
-0.000053614328815
 46
6.658838208780605
 79
     2
 49
2.818862602510648
 49
-1797.918053154254
 53
115.046
 43
302.8762588807458
 44
7612.004382051066
 45
-0.000053614328815
 46
6.658838208780605
 79
     2
 49
2.818862602510648
 49
-1797.918053154254
 53
115.046
 43
325.2975348307973
 44
7612.004382051066
 45
-0.000053614328815
 46
6.658838208780605
 79
     2
 49
2.818862602510648
 49
-1797.918053154254
 53
115.046
 43
347.7188107808633
 44
7612.004382051066
 45
-0.000053614328815
 46
6.658838208780605
 79
     2
 49
2.818862602510648
 49
-1797.918053154254
 53
104.0759999999998
 43
-411.7193419418454
 44
7613.762764140182
 45
0.0000489474577988
 46
6.658832178583098
 79
     2
 49
1.619673114586161
 49
-643.6882857354817
 53
104.0759999999998
 43
-389.2980261317334
 44
7613.762764140182
 45
0.0000489474577988
 46
6.658832178583098
 79
     2
 49
1.619673114586161
 49
-643.6882857354817
 53
104.0759999999998
 43
-366.8767501816747
 44
7613.762764140182
 45
0.0000489474577988
 46
6.658832178583098
 79
     2
 49
1.619673114586161
 49
-643.6882857354817
 53
104.0759999999998
 43
-344.4554742316086
 44
7613.762764140182
 45
0.0000489474577988
 46
6.658832178583098
 79
     2
 49
1.619673114586161
 49
-643.6882857354817
 53
104.0759999999998
 43
-322.0341982815644
 44
7613.762764140182
 45
0.0000489474577988
 46
6.658832178583098
 79
     2
 49
1.619673114586161
 49
-643.6882857354817
 53
104.0759999999998
 43
-299.6129223314838
 44
7613.762764140182
 45
0.0000489474577988
 46
6.658832178583098
 79
     2
 49
1.619673114586161
 49
-643.6882857354817
 53
104.0759999999998
 43
-277.1916463814396
 44
7613.762764140182
 45
0.0000489474577988
 46
6.658832178583098
 79
     2
 49
1.619673114586161
 49
-643.6882857354817
 98
        1
 10
295.3023460470013
 20
1243.042976302695
  0
LWPOLYLINE
  5
93F1
330
67
100
AcDbEntity
  8
F_01 sichtbar
370
    13
100
AcDbPolyline
 90
        5
 70
     0
 43
0.0
 10
378.6458474224001
 20
335.5889464718821
 10
381.1458474224
 20
335.5889464718821
 10
381.1458474224
 20
310.5889464718821
 10
378.6458474224001
 20
310.5889464718821
 10
378.6458474224001
 20
335.5889464718821
  0
LWPOLYLINE
  5
93F2
330
67
100
AcDbEntity
  8
F_01 sichtbar
370
    13
100
AcDbPolyline
 90
       59
 70
     1
 43
0.0
 10
390.4640552086148
 20
331.9071449247894
 10
391.8099450000245
 20
330.5612554163454
 42
-2.295511712501342
 10
391.1628944214699
 20
330.2183564692677
 10
389.5147911441836
 20
331.8664594000511
 42
0.4142135623730925
 10
389.3733697879452
 20
331.8664593851863
 10
388.9958572010455
 20
331.4889467189169
 10
388.1458572010397
 20
331.4889466295608
 10
387.2958572010484
 20
331.4889465402084
 10
386.8435749563669
 20
331.9412286898005
 42
-0.8501016268507996
 10
385.8587742910113
 20
331.8760292584812
 10
382.6458568226026
 20
335.0889460513936
 10
382.6458566649253
 20
336.5889460513936
 10
383.0726334050869
 20
336.1621694009627
 42
0.198912367379658
 10
383.2494101080756
 20
336.0889461148399
 10
386.1128440155972
 20
336.0889464158499
 42
0.1316524975873961
 10
386.2378440120756
 20
336.1224400780447
 10
386.9208566725083
 20
336.5167777171409
 42
0.2679491924311224
 10
387.0458566497491
 20
336.7332840812269
 10
387.0458564283999
 20
338.8389465139298
 42
0.4142135623730951
 10
386.7958564021192
 20
339.0889464876491
 10
385.7958564021192
 20
339.088946382526
 42
-0.5773502691896217
 10
385.5793500117525
 20
339.4639463597668
 10
385.8247238314889
 20
339.888946385563
 10
386.7958563180236
 20
339.8889464876484
 42
0.4142135623730951
 10
387.0458562917429
 20
340.1389465139291
 10
387.0458561130381
 20
341.8389465139298
 42
0.4142135623730951
 10
386.7958560867646
 20
342.0889464876491
 10
385.7958560867646
 20
342.0889463825261
 42
-0.577350269189623
 10
385.5793496963979
 20
342.4639463597669
 10
385.8247235161198
 20
342.888946385563
 10
386.7958560026618
 20
342.8889464876484
 42
0.4142135623730951
 10
387.0458559763811
 20
343.1389465139291
 10
387.0458559553608
 20
343.3389465139299
 42
-0.4142135623730951
 10
387.2958559290801
 20
343.5889465402106
 10
388.1458559290786
 20
343.588946629563
 10
388.9958559290771
 20
343.5889467189154
 42
-0.4142135623730951
 10
389.2458559553579
 20
343.3389467451962
 10
389.2458559763854
 20
343.1389467451954
 42
0.4142135623730951
 10
389.4958560026662
 20
342.8889467714762
 10
390.466988489201
 20
342.8889468735615
 10
390.7123623982861
 20
342.4639468993555
 42
-0.5773502691896199
 10
390.4958560867617
 20
342.0889468765963
 10
389.4958560867617
 20
342.0889467714769
 42
0.4142135623730951
 10
389.2458561130425
 20
341.8389467451961
 10
389.24585629174
 20
340.1389467451954
 42
0.4142135623730951
 10
389.4958563180208
 20
339.8889467714762
 10
390.4669888045701
 20
339.8889468735615
 10
390.7123627136479
 20
339.4639468993555
 42
-0.5773502691896196
 10
390.4958564021236
 20
339.0889468765963
 10
389.4958564021235
 20
339.0889467714769
 42
0.4142135623730951
 10
389.2458564284043
 20
338.8389467451962
 10
389.2458566497535
 20
336.7332843124932
 42
0.2679491924311216
 10
389.3708566725127
 20
336.516777974688
 10
390.0538694158549
 20
336.1224404791901
 42
0.1316524975873966
 10
390.1788694193765
 20
336.0889468432761
 10
393.042303326898
 20
336.0889471442825
 42
0.198912367379658
 10
393.2190800144981
 20
336.1621704675708
 10
393.6458566649253
 20
336.5889472077288
 10
393.6458568226026
 20
335.0889472077288
  0
LWPOLYLINE
  5
93F3
330
67
100
AcDbEntity
  8
F_01 sichtbar
370
    13
100
AcDbPolyline
 90
       28
 70
     1
 43
0.0
 10
391.9109325821137
 20
335.0889470253533
 10
388.7833590368627
 20
335.0889466965782
 42
0.3394542588633794
 10
388.6867664620313
 20
335.0148285909345
 10
388.6461014879115
 20
334.8630647776408
 42
-0.3394542588633798
 10
388.54950891308
 20
334.7889466719971
 10
388.5029743106734
 20
334.788946667104
 42
-0.3394542588633751
 10
388.4063817202496
 20
334.8630647524406
 10
388.3657167142319
 20
335.014828557185
 42
0.3394542588633729
 10
388.2691241238153
 20
335.0889466425215
 10
388.1458568226099
 20
335.088946629563
 10
388.0225895214044
 20
335.0889466166045
 42
0.3394542588633786
 10
387.9259969465729
 20
335.0148285109608
 10
387.8853319724531
 20
334.8630646976671
 42
-0.3394542588633769
 10
387.7887393976216
 20
334.7889465920234
 10
387.742204795215
 20
334.7889465871304
 42
-0.3394542588633807
 10
387.6456122047912
 20
334.8630646724668
 10
387.6049471987735
 20
335.0148284772149
 42
0.3394542588633759
 10
387.508354608357
 20
335.0889465625478
 10
384.3807810630988
 20
335.0889462337727
 42
0.6681786379192993
 10
384.2040044126716
 20
334.6621695198956
 10
386.3782803187951
 20
332.4878940708913
 42
-0.3679559611094144
 10
386.8435749463333
 20
332.0366642955341
 10
387.2958570959254
 20
332.4889465402121
 10
388.1458570959239
 20
332.4889466295644
 10
388.9958570959225
 20
332.4889467189168
 10
389.3844610337055
 20
332.1003428628355
 42
0.4142135623730948
 10
389.5258823899439
 20
332.1003428777003
 10
392.0877093222753
 20
334.6621703486416
 42
0.6681786379192982
  0
HATCH
  5
93F4
330
67
100
AcDbEntity
  8
F_01 sichtbar
370
    13
100
AcDbHatch
 10
0.0
 20
0.0
 30
0.0
210
0.0
220
0.0
230
1.0
  2
JIS_WOOD
 70
     0
 71
     0
 91
        1
 92
        7
 72
     1
 73
     1
 93
       21
 10
409.6458474224073
 20
332.0889464718821
 42
0.0
 10
390.6458567174868
 20
332.0889464718821
 42
0.0
 10
390.4640552086148
 20
331.9071449247894
 42
0.0
 10
391.8099450000245
 20
330.5612554163454
 42
-2.295511712501344
 10
391.1628944214699
 20
330.2183564692677
 42
0.0
 10
389.5147911441836
 20
331.8664594000511
 42
0.4142135623731789
 10
389.3733697879452
 20
331.8664593851863
 42
0.0
 10
388.9958572010455
 20
331.4889467189169
 42
0.0
 10
388.1458572010397
 20
331.4889466295608
 42
0.0
 10
387.2958572010484
 20
331.4889465402084
 42
0.0
 10
386.8435749563669
 20
331.9412286898005
 42
-0.8501016268507999
 10
385.8587742910113
 20
331.8760292584812
 42
0.0
 10
385.6458570328486
 20
332.0889464718821
 42
0.0
 10
383.6458474224073
 20
332.0889464718821
 42
0.0
 10
382.6458474224073
 20
331.0889464718821
 42
0.0
 10
382.6458474224073
 20
306.0889464718821
 42
0.0
 10
370.6458474224073
 20
306.0889464718821
 42
0.0
 10
369.6458474224073
 20
305.0889464718821
 42
0.0
 10
369.6458474224073
 20
294.0889464718821
 42
0.0
 10
370.6458474224073
 20
293.0889464718821
 42
0.0
 10
409.6458474224073
 20
293.0889464718821
 42
0.0
 97
        0
 75
     0
 76
     1
 52
0.0
 41
15.0
 77
     0
 78
     1
 53
45.0
 43
-33489.33178855074
 44
-15523.9679106767
 45
-7.499999987414763
 46
7.499999987414764
 79
     0
 47
0.316875376217985
 98
        1
 10
393.1281654017894
 20
305.4487134145202
1001
ACAD
1010
0.0
1020
0.0
1030
0.0
  0
POLYLINE
  5
93F5
330
67
100
AcDbEntity
  8
F_01 sichtbar
370
    13
100
AcDb2dPolyline
 66
     1
 10
0.0
 20
0.0
 30
0.0
  0
VERTEX
  5
93F6
330
93F5
100
AcDbEntity
  8
F_01 sichtbar
370
    13
100
AcDbVertex
100
AcDb2dVertex
 10
586.488218464905
 20
293.0889464718857
 30
0.0
  0
VERTEX
  5
93F7
330
93F5
100
AcDbEntity
  8
F_01 sichtbar
370
    13
100
AcDbVertex
100
AcDb2dVertex
 10
370.6458474224073
 20
293.0889464718821
 30
0.0
  0
VERTEX
  5
93F8
330
93F5
100
AcDbEntity
  8
F_01 sichtbar
370
    13
100
AcDbVertex
100
AcDb2dVertex
 10
369.6458474224073
 20
294.0889464718821
 30
0.0
  0
VERTEX
  5
93F9
330
93F5
100
AcDbEntity
  8
F_01 sichtbar
370
    13
100
AcDbVertex
100
AcDb2dVertex
 10
369.6458474224073
 20
305.0889464718821
 30
0.0
  0
VERTEX
  5
93FA
330
93F5
100
AcDbEntity
  8
F_01 sichtbar
370
    13
100
AcDbVertex
100
AcDb2dVertex
 10
370.6458474224073
 20
306.0889464718821
 30
0.0
  0
VERTEX
  5
93FB
330
93F5
100
AcDbEntity
  8
F_01 sichtbar
370
    13
100
AcDbVertex
100
AcDb2dVertex
 10
382.6458474224073
 20
306.0889464718821
 30
0.0
  0
VERTEX
  5
93FC
330
93F5
100
AcDbEntity
  8
F_01 sichtbar
370
    13
100
AcDbVertex
100
AcDb2dVertex
 10
382.6458474224073
 20
331.0889464718821
 30
0.0
  0
VERTEX
  5
93FD
330
93F5
100
AcDbEntity
  8
F_01 sichtbar
370
    13
100
AcDbVertex
100
AcDb2dVertex
 10
383.6458474224073
 20
332.0889464718821
 30
0.0
  0
VERTEX
  5
93FE
330
93F5
100
AcDbEntity
  8
F_01 sichtbar
370
    13
100
AcDbVertex
100
AcDb2dVertex
 10
586.4882184649123
 20
332.0889464718857
 30
0.0
  0
SEQEND
  5
93FF
330
93F5
100
AcDbEntity
  8
F_01 sichtbar
370
    13
  0
LINE
  5
9400
330
67
100
AcDbEntity
  8
F_01 sichtbar
370
    13
100
AcDbLine
 10
409.6458474224073
 20
332.0889464718821
 30
0.0
 11
409.6458474224073
 21
293.0889464718821
 31
0.0
  0
HATCH
  5
9401
330
67
100
AcDbEntity
  8
F_01 sichtbar
370
    13
100
AcDbHatch
 10
0.0
 20
0.0
 30
0.0
210
0.0
220
0.0
230
1.0
  2
JIS_WOOD
 70
     0
 71
     0
 91
        1
 92
        1
 93
        4
 72
     1
 10
586.4882184648977
 20
332.0889464718857
 11
409.6458474224073
 21
332.0889464718839
 72
     1
 10
409.6458474224073
 20
332.0889464718821
 11
409.6458474224073
 21
293.0889464718821
 72
     1
 10
409.6458474224073
 20
293.0889464718821
 11
586.488218464905
 21
293.0889464718839
 72
     1
 10
586.488218464905
 20
293.0889464718857
 11
586.4882184648977
 21
332.0889464718857
 97
        0
 75
     0
 76
     1
 52
45.0
 41
25.0
 77
     0
 78
     1
 53
90.0
 43
-5699.254953044786
 44
2055.307452831719
 45
-17.6776695
 46
0.0000000000000036
 79
     0
 98
        1
 10
448.3548033894785
 20
311.00412365589
  0
HATCH
  5
9402
330
67
100
AcDbEntity
  8
F_01 sichtbar
370
    13
100
AcDbHatch
 10
0.0
 20
0.0
 30
0.0
210
0.0
220
0.0
230
1.0
  2
JIS_WOOD
 70
     0
 71
     0
 91
        1
 92
        1
 93
       25
 72
     1
 10
395.1458474223928
 20
414.0889464718821
 11
384.1458408384879
 21
414.0889464718821
 72
     1
 10
384.1458408384879
 20
414.0889464718821
 11
384.1458408384879
 21
403.088946471882
 72
     1
 10
384.1458408384879
 20
403.088946471882
 11
380.1458408384879
 21
403.088946471882
 72
     1
 10
380.1458408384879
 20
403.088946471882
 11
380.1458408384879
 21
414.0889464718821
 72
     1
 10
380.1458408384879
 20
414.0889464718821
 11
370.1458408384878
 21
414.0889464718821
 72
     1
 10
370.1458408384878
 20
414.0889464718821
 11
370.1458408384878
 21
434.088946471882
 72
     1
 10
370.1458408384878
 20
434.088946471882
 11
355.1458474223928
 21
434.088946471882
 72
     1
 10
355.1458474223928
 20
434.088946471882
 11
355.1458475476047
 21
293.0889464718821
 72
     1
 10
355.1458475476047
 20
293.0889464718821
 11
367.1458474224
 21
293.0889464718821
 72
     1
 10
367.1458474224
 20
293.0889464718821
 11
367.1154598159428
 21
306.0889464718221
 72
     1
 10
367.1154598159428
 20
306.0889464718239
 11
367.1458474223928
 21
306.0889464718839
 72
     1
 10
367.1458474223928
 20
306.0889464718821
 11
380.1458474223928
 21
306.0889464718821
 72
     1
 10
380.1458474223928
 20
306.0889464718821
 11
381.1458474223928
 21
307.0889464718821
 72
     1
 10
381.1458474223928
 20
307.0889464718821
 11
381.1458474223928
 21
310.5889464718821
 72
     1
 10
381.1458474223928
 20
310.5889464718821
 11
378.6458474223928
 21
310.5889464718821
 72
     1
 10
378.6458474223928
 20
310.5889464718821
 11
378.6458474223928
 21
335.5889464718821
 72
     1
 10
378.6458474223928
 20
335.5889464718821
 11
381.1458474223928
 21
335.5889464718821
 72
     1
 10
381.1458474223928
 20
335.5889464718821
 11
381.1458474223928
 21
336.0889464718821
 72
     1
 10
381.1458474223928
 20
336.0889464718821
 11
386.1458474223928
 21
336.0889464718821
 72
     1
 10
386.1458474223928
 20
336.0889464718821
 11
386.1458474223928
 21
344.0889464718821
 72
     1
 10
386.1458474223928
 20
344.0889464718821
 11
390.1458474223927
 21
344.0889464718821
 72
     1
 10
390.1458474223927
 20
344.0889464718821
 11
390.1458474223927
 21
336.0889464718821
 72
     1
 10
390.1458474223927
 20
336.0889464718821
 11
394.1458474223928
 21
336.0889464718821
 72
     1
 10
394.1458474223928
 20
336.0889464718821
 11
395.1458474223928
 21
337.0889464718821
 72
     1
 10
395.1458474223928
 20
337.0889464718821
 11
395.1458474223928
 21
414.0889464718821
 97
        0
 75
     0
 76
     1
 52
0.0
 41
15.0
 77
     0
 78
     1
 53
45.0
 43
-33489.33178855075
 44
-15523.9679106767
 45
-7.499999987414763
 46
7.499999987414764
 79
     0
 98
        1
 10
377.9254435401835
 20
387.5931164088288
1001
ACAD
1010
0.0
1020
0.0
1030
0.0
  0
LWPOLYLINE
  5
9403
330
67
100
AcDbEntity
  8
F_01 sichtbar
370
    13
100
AcDbPolyline
 90
        8
 70
     1
 43
0.0
 10
381.1458408384879
 20
424.088946471882
 10
383.1458408384879
 20
424.088946471882
 10
384.1458408384879
 20
423.0889464718821
 10
384.1458408384879
 20
405.088946471882
 10
383.1458408384879
 20
404.088946471882
 10
381.1458408384879
 20
404.088946471882
 10
380.1458408384879
 20
405.088946471882
 10
380.1458408384879
 20
423.0889464718821
  0
LINE
  5
9404
330
67
100
AcDbEntity
  8
F_01 sichtbar
370
    13
100
AcDbLine
 10
465.8098030811834
 20
308.0889010535721
 30
0.0
 11
465.8098030811834
 21
341.4117962354212
 31
0.0
  0
SOLID
  5
9405
330
67
100
AcDbEntity
  8
F_01 sichtbar
370
    13
100
AcDbTrace
 10
463.3098030811834
 20
308.0889010535721
 30
0.0
 11
468.3098030811834
 21
308.0889010535721
 31
0.0
 12
465.8098030811834
 22
293.088901053572
 32
0.0
 13
465.8098030811834
 23
293.088901053572
 33
0.0
  0
LWPOLYLINE
  5
9406
330
67
100
AcDbEntity
  8
F_01 sichtbar
370
    13
100
AcDbPolyline
 90
        6
 70
     1
 43
0.0
 10
395.1458145221495
 20
606.0888653665533
 10
395.1458145221495
 20
625.0888653665533
 10
394.1458145221495
 20
626.0888653665533
 10
336.1458145221495
 20
626.0888653665533
 10
335.1458145221495
 20
625.0888653665533
 10
335.1458145221495
 20
606.0888653665533
  0
LINE
  5
9407
330
67
100
AcDbEntity
  8
F_01 sichtbar
370
    13
100
AcDbLine
 10
394.1458145221495
 20
626.0888653665533
 30
0.0
 11
586.5196946860178
 21
626.0888653665533
 31
0.0
  0
LWPOLYLINE
  5
9408
330
67
100
AcDbEntity
  8
F_01 sichtbar
370
    13
100
AcDbPolyline
 90
        2
 70
     0
 43
0.0
 10
336.1458145221495
 20
626.0888653665533
 10
395.1458145221495
 20
606.0888653665533
  0
LWPOLYLINE
  5
9409
330
67
100
AcDbEntity
  8
F_01 sichtbar
370
    13
100
AcDbPolyline
 90
        2
 70
     0
 43
0.0
 10
394.1458145221495
 20
626.0888653665533
 10
335.1458145221495
 20
606.0888653665533
  0
POLYLINE
  5
940A
330
67
100
AcDbEntity
  8
F_01 sichtbar
370
    13
100
AcDb2dPolyline
 66
     1
 10
0.0
 20
0.0
 30
0.0
  0
VERTEX
  5
940B
330
940A
100
AcDbEntity
  8
F_01 sichtbar
370
    13
100
AcDbVertex
100
AcDb2dVertex
 10
395.1458145221495
 20
606.0888653665533
 30
0.0
  0
VERTEX
  5
940C
330
940A
100
AcDbEntity
  8
F_01 sichtbar
370
    13
100
AcDbVertex
100
AcDb2dVertex
 10
586.519694686025
 20
606.0888653665497
 30
0.0
  0
SEQEND
  5
940D
330
940A
100
AcDbEntity
  8
F_01 sichtbar
370
    13
  0
LWPOLYLINE
  5
940E
330
67
100
AcDbEntity
  8
F_01 sichtbar
370
    13
100
AcDbPolyline
 90
       25
 70
     0
 43
0.0
 10
395.1458408384951
 20
414.0889464718821
 10
384.1458408384951
 20
414.0889464718821
 10
384.1458408384951
 20
403.088946471882
 10
380.1458408384951
 20
403.088946471882
 10
380.1458408384951
 20
414.0889464718821
 10
370.1458408384951
 20
414.0889464718821
 10
370.1458408384951
 20
434.088946471882
 10
355.1458474224
 20
434.088946471882
 10
355.1458475505369
 20
293.0889464718821
 10
367.1458474224
 20
293.0889464718821
 10
367.1458474224
 20
306.0889464718821
 10
380.1458474224
 20
306.0889464718821
 10
381.1458474224
 20
307.0889464718821
 10
381.1458474224
 20
310.5889464718821
 10
378.6458474224001
 20
310.5889464718821
 10
378.6458474224001
 20
335.5889464718821
 10
381.1458474224
 20
335.5889464718821
 10
381.1458474224
 20
336.0889464718821
 10
386.1458474224
 20
336.0889464718821
 10
386.1458474224
 20
344.0889464718821
 10
390.1458474224
 20
344.0889464718821
 10
390.1458474224
 20
336.0889464718821
 10
394.1458474224
 20
336.0889464718821
 10
395.1458474224001
 20
337.0889464718821
 10
395.1458474224001
 20
414.0889464718821
  0
LWPOLYLINE
  5
940F
330
67
100
AcDbEntity
  8
F_01 sichtbar
370
    13
100
AcDbPolyline
 90
        4
 70
     1
 43
0.0
 10
350.1773356871872
 20
315.0888610189904
 10
295.1773356871872
 20
315.0888609042413
 10
295.1773356871872
 20
293.0888609042413
 10
350.1773356871217
 20
293.0889464718821
  0
LWPOLYLINE
  5
9410
330
67
100
AcDbEntity
  8
F_01 sichtbar
370
    13
100
AcDbPolyline
 90
        2
 70
     0
 43
0.0
 10
295.1773356871872
 20
315.0888609401008
 10
350.1773356871217
 20
293.0889464718821
  0
LWPOLYLINE
  5
9411
330
67
100
AcDbEntity
  8
F_01 sichtbar
370
    13
100
AcDbPolyline
 90
        2
 70
     0
 43
0.0
 10
350.177335641225
 20
315.0888610189904
 10
295.1773356871872
 20
293.0889072676436
  0
POLYLINE
  5
9412
330
67
100
AcDbEntity
  8
F_01 sichtbar
370
    13
100
AcDb2dPolyline
 66
     1
 10
0.0
 20
0.0
 30
0.0
  0
VERTEX
  5
9413
330
9412
100
AcDbEntity
  8
F_01 sichtbar
370
    13
100
AcDbVertex
100
AcDb2dVertex
 10
188.2022094770236
 20
293.088946951324
 30
0.0
  0
VERTEX
  5
9414
330
9412
100
AcDbEntity
  8
F_01 sichtbar
370
    13
100
AcDbVertex
100
AcDb2dVertex
 10
352.1458492584734
 20
293.088946951324
 30
0.0
  0
VERTEX
  5
9415
330
9412
100
AcDbEntity
  8
F_01 sichtbar
370
    13
100
AcDbVertex
100
AcDb2dVertex
 10
367.1458474224
 20
293.0889464718821
 30
0.0
  0
VERTEX
  5
9416
330
9412
100
AcDbEntity
  8
F_01 sichtbar
370
    13
100
AcDbVertex
100
AcDb2dVertex
 10
367.1458474224
 20
293.0889464718821
 30
0.0
  0
VERTEX
  5
9417
330
9412
100
AcDbEntity
  8
F_01 sichtbar
370
    13
100
AcDbVertex
100
AcDb2dVertex
 10
367.1458492264155
 20
278.0889199728008
 30
0.0
  0
VERTEX
  5
9418
330
9412
100
AcDbEntity
  8
F_01 sichtbar
370
    13
100
AcDbVertex
100
AcDb2dVertex
 10
188.2022094770236
 20
278.088946951324
 30
0.0
  0
SEQEND
  5
9419
330
9412
100
AcDbEntity
  8
F_01 sichtbar
370
    13
  0
POLYLINE
  5
941A
330
67
100
AcDbEntity
  8
F_01 sichtbar
370
    13
100
AcDb2dPolyline
 66
     1
 10
0.0
 20
0.0
 30
0.0
  0
VERTEX
  5
941B
330
941A
100
AcDbEntity
  8
F_01 sichtbar
370
    13
100
AcDbVertex
100
AcDb2dVertex
 10
586.4882066834561
 20
278.088946951324
 30
0.0
  0
VERTEX
  5
941C
330
941A
100
AcDbEntity
  8
F_01 sichtbar
370
    13
100
AcDbVertex
100
AcDb2dVertex
 10
369.6458492584734
 20
278.088946951324
 30
0.0
  0
VERTEX
  5
941D
330
941A
100
AcDbEntity
  8
F_01 sichtbar
370
    13
100
AcDbVertex
100
AcDb2dVertex
 10
369.6458492584734
 20
293.0889827960418
 30
0.0
  0
VERTEX
  5
941E
330
941A
100
AcDbEntity
  8
F_01 sichtbar
370
    13
100
AcDbVertex
100
AcDb2dVertex
 10
369.6461180890419
 20
293.088946951324
 30
0.0
  0
VERTEX
  5
941F
330
941A
100
AcDbEntity
  8
F_01 sichtbar
370
    13
100
AcDbVertex
100
AcDb2dVertex
 10
369.6461180890419
 20
293.088946951324
 30
0.0
  0
VERTEX
  5
9420
330
941A
100
AcDbEntity
  8
F_01 sichtbar
370
    13
100
AcDbVertex
100
AcDb2dVertex
 10
586.4882066834561
 20
293.088946951324
 30
0.0
  0
SEQEND
  5
9421
330
941A
100
AcDbEntity
  8
F_01 sichtbar
370
    13
  0
HATCH
  5
9422
330
67
100
AcDbEntity
  8
F_01 sichtbar
370
    13
100
AcDbHatch
 10
0.0
 20
0.0
 30
0.0
210
0.0
220
0.0
230
1.0
  2
JIS_WOOD
 70
     0
 71
     0
 91
        1
 92
        1
 93
        4
 72
     1
 10
367.1458492264155
 20
278.0889199728008
 11
367.1458474224
 21
293.0889464718839
 72
     1
 10
367.1458474224
 20
293.0889464718821
 11
188.2022094770236
 21
293.0889469513222
 72
     1
 10
188.2022094770236
 20
293.088946951324
 11
188.2022094770236
 21
278.088946951324
 72
     1
 10
188.2022094770236
 20
278.088946951324
 11
367.1458492264155
 21
278.0889199728008
 97
        0
 75
     0
 76
     1
 52
0.0
 41
20.0
 77
     0
 78
     1
 53
45.0
 43
-36184.18979195149
 44
-14117.95944712592
 45
-9.999999983219684
 46
9.999999983219684
 79
     0
 98
        3
 10
-36184.18979195149
 20
-14117.95944712592
 10
264.7779072631329
 20
284.1079496271232
 10
236.9086197798624
 20
283.4819996249571
1001
ACAD
1010
0.0
1020
0.0
1030
0.0
  0
HATCH
  5
9423
330
67
100
AcDbEntity
  8
F_01 sichtbar
370
    13
100
AcDbHatch
 10
0.0
 20
0.0
 30
0.0
210
0.0
220
0.0
230
1.0
  2
JIS_WOOD
 70
     0
 71
     0
 91
        1
 92
        1
 93
        4
 72
     1
 10
586.4882066834561
 20
278.088946951324
 11
586.4882066834561
 21
293.0889464718821
 72
     1
 10
586.4882066834561
 20
293.0889464718821
 11
369.6461180890419
 21
293.0889469513222
 72
     1
 10
369.6461180890419
 20
293.088946951324
 11
369.6461180890419
 21
278.088946951324
 72
     1
 10
369.6461180890419
 20
278.088946951324
 11
586.4882066834561
 21
278.0889469513259
 97
        0
 75
     0
 76
     1
 52
0.0
 41
20.0
 77
     0
 78
     1
 53
45.0
 43
-36184.18979195149
 44
-14117.95944712592
 45
-9.999999983219684
 46
9.999999983219684
 79
     0
 98
        2
 10
446.2218158751511
 20
284.1079496271232
 10
418.3525283918807
 20
283.4819996249571
1001
ACAD
1010
0.0
1020
0.0
1030
0.0
  0
HATCH
  5
9424
330
67
100
AcDbEntity
  8
F_11 Schraffur
370
    13
100
AcDbHatch
 10
0.0
 20
0.0
 30
0.0
210
0.0
220
0.0
230
1.0
  2
SOLID
 70
     1
 71
     0
 91
        1
 92
        7
 72
     0
 73
     1
 93
        4
 10
381.1458474224
 20
335.5889464718821
 10
378.6458474224073
 20
335.5889464718821
 10
378.6458474224073
 20
310.5889464718821
 10
381.1458474224073
 20
310.5889464718821
 97
        0
 75
     0
 76
     1
 47
0.1231602943269245
 98
        1
 10
380.2077052586701
 20
327.2597266192243
450
        0
451
        0
460
0.0
461
0.0
452
        1
462
1.0
453
        2
463
0.0
 63
     5
421
      255
463
1.0
 63
     7
421
 16777215
470
LINEAR
1001
ACAD
1010
0.0
1020
0.0
1030
0.0
  0
LINE
  5
9425
330
67
100
AcDbEntity
  8
F_01 sichtbar
370
    13
100
AcDbLine
 10
401.7249417922812
 20
412.5691362803372
 30
0.0
 11
411.9545103509681
 21
433.5289398759523
 31
0.0
  0
SOLID
  5
9426
330
67
100
AcDbEntity
  8
F_01 sichtbar
370
    13
100
AcDbTrace
 10
403.9716400936904
 20
411.4726205520237
 30
0.0
 11
399.478243490872
 21
413.6656520086508
 31
0.0
 12
395.1458474223928
 22
399.0889464718821
 32
0.0
 13
395.1458474223928
 23
399.0889464718821
 33
0.0
  0
MTEXT
  5
9427
330
67
100
AcDbEntity
  8
F_01 sichtbar
370
    13
100
AcDbMText
 10
238.2336974795926
 20
706.0888653665533
 30
0.0
 40
30.0
 41
187.1747820159653
 71
     1
 72
     5
  1
\A1;{\fArial Narrow|b1|i0|c0|p34;H}
 73
     1
 44
1.0
  0
MTEXT
  5
9428
330
67
100
AcDbEntity
  8
F_01 sichtbar
370
    13
100
AcDbMText
 10
414.5485691705344
 20
446.9909252131947
 30
0.0
 40
15.0
 41
187.1747820159653
 71
     1
 72
     5
  1
\A1;{\fArial Narrow|b0|i0|c0|p34;Eiche\P\PBrandschutz-\Plaminat}
 73
     1
 44
1.0
  0
ENDSEC
  0
SECTION
  2
OBJECTS
  0
DICTIONARY
  5
C
330
0
100
AcDbDictionary
281
     1
  3
ACAD_2007HEADERVARS_RT
350
9439
  3
ACAD_COLOR
350
5E
  3
ACAD_GROUP
350
D
  3
ACAD_LAYOUT
350
5D
  3
ACAD_MATERIAL
350
10
  3
ACAD_MLEADERSTYLE
350
61
  3
ACAD_MLINESTYLE
350
5A
  3
ACAD_PLOTSETTINGS
350
5C
  3
ACAD_PLOTSTYLENAME
350
E
  3
ACAD_SCALELIST
350
3D
  3
ACAD_TABLESTYLE
350
5F
  3
ACAD_VISUALSTYLE
350
29
  3
ACDB_RECOMPOSE_DATA
350
9438
  3
AcDbVariableDictionary
350
942D
  3
AEC_PROPERTY_SET_DEFS
350
93B5
  0
DICTIONARY
  5
933C
330
2
100
AcDbDictionary
280
     1
281
     1
  3
ACAD_LAYERSTATES
360
933D
  0
DICTIONARY
  5
9331
330
9330
100
AcDbDictionary
280
     1
281
     1
  0
DICTIONARY
  5
9325
330
9324
100
AcDbDictionary
280
     1
281
     1
  3
ACAD_SORTENTS
360
9326
  0
DICTIONARY
  5
9439
102
{ACAD_REACTORS
330
C
102
}
330
C
100
AcDbDictionary
281
     1
  3
DIMJOGANG
350
943A
  0
DICTIONARY
  5
5E
102
{ACAD_REACTORS
330
C
102
}
330
C
100
AcDbDictionary
281
     1
  0
DICTIONARY
  5
D
102
{ACAD_REACTORS
330
C
102
}
330
C
100
AcDbDictionary
281
     1
  0
DICTIONARY
  5
5D
102
{ACAD_REACTORS
330
C
102
}
330
C
100
AcDbDictionary
281
     1
  3
Layout1
350
66
  3
Layout2
350
6E
  3
Model
350
6A
  0
DICTIONARY
  5
10
102
{ACAD_REACTORS
330
C
102
}
330
C
100
AcDbDictionary
281
     1
  3
ByBlock
350
19
  3
ByLayer
350
11
  3
Global
350
21
  0
DICTIONARY
  5
61
102
{ACAD_REACTORS
330
C
102
}
330
C
100
AcDbDictionary
281
     1
  3
Standard
350
62
  0
DICTIONARY
  5
5A
102
{ACAD_REACTORS
330
C
102
}
330
C
100
AcDbDictionary
281
     1
  3
Standard
350
5B
  0
DICTIONARY
  5
5C
102
{ACAD_REACTORS
330
C
102
}
330
C
100
AcDbDictionary
281
     1
  0
ACDBDICTIONARYWDFLT
  5
E
102
{ACAD_REACTORS
330
C
102
}
330
C
100
AcDbDictionary
281
     1
  3
Normal
350
F
100
AcDbDictionaryWithDefault
340
F
  0
DICTIONARY
  5
3D
102
{ACAD_REACTORS
330
C
102
}
330
C
100
AcDbDictionary
281
     1
  3
A0
350
3E
  3
A1
350
3F
  3
A2
350
40
  3
A3
350
41
  3
A4
350
42
  3
A5
350
43
  3
A6
350
44
  3
A7
350
45
  3
A8
350
46
  3
A9
350
47
  3
B0
350
48
  3
B1
350
49
  3
B2
350
4A
  3
B3
350
4B
  3
B4
350
4C
  3
B5
350
4D
  3
B6
350
4E
  0
DICTIONARY
  5
5F
102
{ACAD_REACTORS
330
C
102
}
330
C
100
AcDbDictionary
281
     1
  3
Standard
350
60
  0
DICTIONARY
  5
29
102
{ACAD_REACTORS
330
C
102
}
330
C
100
AcDbDictionary
281
     1
  3
2dWireframe
350
2F
  3
3D Hidden
350
31
  3
3dWireframe
350
30
  3
Basic
350
2E
  3
Brighten
350
35
  3
ColorChange
350
39
  3
Conceptual
350
32
  3
Dim
350
34
  3
EdgeColorOff
350
3C
  3
Facepattern
350
38
  3
Flat
350
2A
  3
FlatWithEdges
350
2B
  3
Gouraud
350
2C
  3
GouraudWithEdges
350
2D
  3
JitterOff
350
3A
  3
Linepattern
350
37
  3
OverhangOff
350
3B
  3
Realistic
350
33
  3
Thicken
350
36
  0
XRECORD
  5
9438
102
{ACAD_REACTORS
330
C
102
}
330
C
100
AcDbXrecord
280
     1
 90
        1
330
60
  0
DICTIONARY
  5
942D
102
{ACAD_REACTORS
330
C
102
}
330
C
100
AcDbDictionary
281
     1
  3
CANNOSCALE
350
9431
  3
CMLEADERSTYLE
350
942F
  3
CTABLESTYLE
350
942E
  3
LAYEREVAL
350
9433
  3
LAYERNOTIFY
350
9434
  3
LIGHTINGUNITS
350
9432
  3
MSLTSCALE
350
9430
  3
XCLIPFRAME
350
9435
  0
DICTIONARY
  5
93B5
102
{ACAD_REACTORS
330
C
102
}
330
C
100
AcDbDictionary
281
     1
  0
DICTIONARY
  5
933D
102
{ACAD_REACTORS
330
933C
102
}
330
933C
100
AcDbDictionary
281
     1
  0
SORTENTSTABLE
  5
9326
102
{ACAD_REACTORS
330
9325
102
}
330
9325
100
AcDbSortentsTable
330
9324
  0
XRECORD
  5
943A
102
{ACAD_REACTORS
330
9439
102
}
330
9439
100
AcDbXrecord
280
     1
 40
1.570796326794896
  0
LAYOUT
  5
66
102
{ACAD_REACTORS
330
5D
102
}
330
5D
100
AcDbPlotSettings
  1

  2
HP Deskjet 1280 series
  4

  6

 40
0.0
 41
0.0
 42
0.0
 43
0.0
 44
0.0
 45
0.0
 46
0.0
 47
0.0
 48
0.0
 49
0.0
140
0.0
141
0.0
142
1.0
143
1.0
 70
   688
 72
     0
 73
     0
 74
     5
  7

 75
    16
147
1.0
 76
     0
 77
     2
 78
   300
148
0.0
149
0.0
100
AcDbLayout
  1
Layout1
 70
     1
 71
     1
 10
0.0
 20
0.0
 11
420.0
 21
297.0
 12
0.0
 22
0.0
 32
0.0
 14
1.000000000000000E+20
 24
1.000000000000000E+20
 34
1.000000000000000E+20
 15
-1.000000000000000E+20
 25
-1.000000000000000E+20
 35
-1.000000000000000E+20
146
0.0
 13
0.0
 23
0.0
 33
0.0
 16
1.0
 26
0.0
 36
0.0
 17
0.0
 27
1.0
 37
0.0
 76
     0
330
63
  0
LAYOUT
  5
6E
102
{ACAD_REACTORS
330
5D
102
}
330
5D
100
AcDbPlotSettings
  1

  2
HP Deskjet 1280 series
  4

  6

 40
0.0
 41
0.0
 42
0.0
 43
0.0
 44
0.0
 45
0.0
 46
0.0
 47
0.0
 48
0.0
 49
0.0
140
0.0
141
0.0
142
1.0
143
1.0
 70
   688
 72
     0
 73
     0
 74
     5
  7

 75
    16
147
1.0
 76
     0
 77
     2
 78
   300
148
0.0
149
0.0
100
AcDbLayout
  1
Layout2
 70
     1
 71
     2
 10
0.0
 20
0.0
 11
12.0
 21
9.0
 12
0.0
 22
0.0
 32
0.0
 14
0.0
 24
0.0
 34
0.0
 15
0.0
 25
0.0
 35
0.0
146
0.0
 13
0.0
 23
0.0
 33
0.0
 16
1.0
 26
0.0
 36
0.0
 17
0.0
 27
1.0
 37
0.0
 76
     0
330
6B
  0
LAYOUT
  5
6A
102
{ACAD_REACTORS
330
5D
102
}
330
5D
100
AcDbPlotSettings
  1

  2
HP Deskjet 1280 series
  4

  6

 40
0.0
 41
0.0
 42
0.0
 43
0.0
 44
0.0
 45
0.0
 46
0.0
 47
0.0
 48
0.0
 49
0.0
140
0.0
141
0.0
142
1.0
143
1.0
 70
  1712
 72
     0
 73
     0
 74
     0
  7

 75
     0
147
1.0
 76
     0
 77
     2
 78
   300
148
0.0
149
0.0
100
AcDbLayout
  1
Model
 70
     1
 71
     0
 10
0.0
 20
0.0
 11
12.0
 21
9.0
 12
0.0
 22
0.0
 32
0.0
 14
0.0
 24
0.0
 34
0.0
 15
0.0
 25
0.0
 35
0.0
146
0.0
 13
0.0
 23
0.0
 33
0.0
 16
1.0
 26
0.0
 36
0.0
 17
0.0
 27
1.0
 37
0.0
 76
     0
330
67
331
52
  0
MATERIAL
  5
19
102
{ACAD_XDICTIONARY
360
1A
102
}
102
{ACAD_REACTORS
330
10
102
}
330
10
100
AcDbMaterial
  1
ByBlock
 72
     0
 43
0.0208333333333333
 43
0.0
 43
0.0
 43
0.0
 43
0.0
 43
0.0208333333333333
 43
0.0
 43
0.0
 43
0.0
 43
0.0
 43
1.0
 43
0.0
 43
0.0
 43
0.0
 43
0.0
 43
1.0
 77
     0
 47
0.0208333333333333
 47
0.0
 47
0.0
 47
0.0
 47
0.0
 47
0.0208333333333333
 47
0.0
 47
0.0
 47
0.0
 47
0.0
 47
1.0
 47
0.0
 47
0.0
 47
0.0
 47
0.0
 47
1.0
171
     0
 49
0.0208333333333333
 49
0.0
 49
0.0
 49
0.0
 49
0.0
 49
0.0208333333333333
 49
0.0
 49
0.0
 49
0.0
 49
0.0
 49
1.0
 49
0.0
 49
0.0
 49
0.0
 49
0.0
 49
1.0
175
     0
142
0.0208333333333333
142
0.0
142
0.0
142
0.0
142
0.0
142
0.0208333333333333
142
0.0
142
0.0
142
0.0
142
0.0
142
1.0
142
0.0
142
0.0
142
0.0
142
0.0
142
1.0
179
     0
144
0.0208333333333333
144
0.0
144
0.0
144
0.0
144
0.0
144
0.0208333333333333
144
0.0
144
0.0
144
0.0
144
0.0
144
1.0
144
0.0
144
0.0
144
0.0
144
0.0
144
1.0
147
0.0208333333333333
147
0.0
147
0.0
147
0.0
147
0.0
147
0.0208333333333333
147
0.0
147
0.0
147
0.0
147
0.0
147
1.0
147
0.0
147
0.0
147
0.0
147
0.0
147
1.0
  0
MATERIAL
  5
11
102
{ACAD_XDICTIONARY
360
12
102
}
102
{ACAD_REACTORS
330
10
102
}
330
10
100
AcDbMaterial
  1
ByLayer
 72
     0
 43
0.0208333333333333
 43
0.0
 43
0.0
 43
0.0
 43
0.0
 43
0.0208333333333333
 43
0.0
 43
0.0
 43
0.0
 43
0.0
 43
1.0
 43
0.0
 43
0.0
 43
0.0
 43
0.0
 43
1.0
 77
     0
 47
0.0208333333333333
 47
0.0
 47
0.0
 47
0.0
 47
0.0
 47
0.0208333333333333
 47
0.0
 47
0.0
 47
0.0
 47
0.0
 47
1.0
 47
0.0
 47
0.0
 47
0.0
 47
0.0
 47
1.0
171
     0
 49
0.0208333333333333
 49
0.0
 49
0.0
 49
0.0
 49
0.0
 49
0.0208333333333333
 49
0.0
 49
0.0
 49
0.0
 49
0.0
 49
1.0
 49
0.0
 49
0.0
 49
0.0
 49
0.0
 49
1.0
175
     0
142
0.0208333333333333
142
0.0
142
0.0
142
0.0
142
0.0
142
0.0208333333333333
142
0.0
142
0.0
142
0.0
142
0.0
142
1.0
142
0.0
142
0.0
142
0.0
142
0.0
142
1.0
179
     0
144
0.0208333333333333
144
0.0
144
0.0
144
0.0
144
0.0
144
0.0208333333333333
144
0.0
144
0.0
144
0.0
144
0.0
144
1.0
144
0.0
144
0.0
144
0.0
144
0.0
144
1.0
147
0.0208333333333333
147
0.0
147
0.0
147
0.0
147
0.0
147
0.0208333333333333
147
0.0
147
0.0
147
0.0
147
0.0
147
1.0
147
0.0
147
0.0
147
0.0
147
0.0
147
1.0
  0
MATERIAL
  5
21
102
{ACAD_XDICTIONARY
360
22
102
}
102
{ACAD_REACTORS
330
10
102
}
330
10
100
AcDbMaterial
  1
Global
 72
     0
 43
0.0208333333333333
 43
0.0
 43
0.0
 43
0.0
 43
0.0
 43
0.0208333333333333
 43
0.0
 43
0.0
 43
0.0
 43
0.0
 43
1.0
 43
0.0
 43
0.0
 43
0.0
 43
0.0
 43
1.0
 77
     0
 47
0.0208333333333333
 47
0.0
 47
0.0
 47
0.0
 47
0.0
 47
0.0208333333333333
 47
0.0
 47
0.0
 47
0.0
 47
0.0
 47
1.0
 47
0.0
 47
0.0
 47
0.0
 47
0.0
 47
1.0
171
     0
 49
0.0208333333333333
 49
0.0
 49
0.0
 49
0.0
 49
0.0
 49
0.0208333333333333
 49
0.0
 49
0.0
 49
0.0
 49
0.0
 49
1.0
 49
0.0
 49
0.0
 49
0.0
 49
0.0
 49
1.0
175
     0
142
0.0208333333333333
142
0.0
142
0.0
142
0.0
142
0.0
142
0.0208333333333333
142
0.0
142
0.0
142
0.0
142
0.0
142
1.0
142
0.0
142
0.0
142
0.0
142
0.0
142
1.0
179
     0
144
0.0208333333333333
144
0.0
144
0.0
144
0.0
144
0.0
144
0.0208333333333333
144
0.0
144
0.0
144
0.0
144
0.0
144
1.0
144
0.0
144
0.0
144
0.0
144
0.0
144
1.0
147
0.0208333333333333
147
0.0
147
0.0
147
0.0
147
0.0
147
0.0208333333333333
147
0.0
147
0.0
147
0.0
147
0.0
147
1.0
147
0.0
147
0.0
147
0.0
147
0.0
147
1.0
  0
MLEADERSTYLE
  5
62
102
{ACAD_REACTORS
330
61
102
}
330
61
100
AcDbMLeaderStyle
170
     2
171
     1
172
     0
 90
        2
 40
0.0
 41
0.0
173
     1
 91
-1056964608
340
56
 92
       -2
290
     1
 42
0.09
291
     1
 43
0.36
  3
Standard
 44
0.18
300

342
50
174
     1
178
     6
175
     1
176
     0
 93
-1056964608
 45
0.18
292
     0
297
     0
 46
0.18
 94
-1056964608
 47
1.0
 49
1.0
140
1.0
293
     1
141
0.0
294
     1
177
     0
142
1.0
295
     0
296
     0
143
0.125
1001
ACAD_MLEADERVER
1070
     2
  0
MLINESTYLE
  5
5B
102
{ACAD_REACTORS
330
5A
102
}
330
5A
100
AcDbMlineStyle
  2
STANDARD
 70
     0
  3

 62
   256
 51
90.0
 52
90.0
 71
     2
 49
0.5
 62
   256
  6
BYLAYER
 49
-0.5
 62
   256
  6
BYLAYER
  0
ACDBPLACEHOLDER
  5
F
102
{ACAD_REACTORS
330
E
102
}
330
E
  0
SCALE
  5
3E
102
{ACAD_REACTORS
330
3D
102
}
330
3D
100
AcDbScale
 70
     0
300
1:1
140
1.0
141
1.0
290
     1
  0
SCALE
  5
3F
102
{ACAD_REACTORS
330
3D
102
}
330
3D
100
AcDbScale
 70
     0
300
1:2
140
1.0
141
2.0
290
     0
  0
SCALE
  5
40
102
{ACAD_REACTORS
330
3D
102
}
330
3D
100
AcDbScale
 70
     0
300
1:4
140
1.0
141
4.0
290
     0
  0
SCALE
  5
41
102
{ACAD_REACTORS
330
3D
102
}
330
3D
100
AcDbScale
 70
     0
300
1:5
140
1.0
141
5.0
290
     0
  0
SCALE
  5
42
102
{ACAD_REACTORS
330
3D
102
}
330
3D
100
AcDbScale
 70
     0
300
1:8
140
1.0
141
8.0
290
     0
  0
SCALE
  5
43
102
{ACAD_REACTORS
330
3D
102
}
330
3D
100
AcDbScale
 70
     0
300
1:10
140
1.0
141
10.0
290
     0
  0
SCALE
  5
44
102
{ACAD_REACTORS
330
3D
102
}
330
3D
100
AcDbScale
 70
     0
300
1:16
140
1.0
141
16.0
290
     0
  0
SCALE
  5
45
102
{ACAD_REACTORS
330
3D
102
}
330
3D
100
AcDbScale
 70
     0
300
1:20
140
1.0
141
20.0
290
     0
  0
SCALE
  5
46
102
{ACAD_REACTORS
330
3D
102
}
330
3D
100
AcDbScale
 70
     0
300
1:30
140
1.0
141
30.0
290
     0
  0
SCALE
  5
47
102
{ACAD_REACTORS
330
3D
102
}
330
3D
100
AcDbScale
 70
     0
300
1:40
140
1.0
141
40.0
290
     0
  0
SCALE
  5
48
102
{ACAD_REACTORS
330
3D
102
}
330
3D
100
AcDbScale
 70
     0
300
1:50
140
1.0
141
50.0
290
     0
  0
SCALE
  5
49
102
{ACAD_REACTORS
330
3D
102
}
330
3D
100
AcDbScale
 70
     0
300
1:100
140
1.0
141
100.0
290
     0
  0
SCALE
  5
4A
102
{ACAD_REACTORS
330
3D
102
}
330
3D
100
AcDbScale
 70
     0
300
2:1
140
2.0
141
1.0
290
     0
  0
SCALE
  5
4B
102
{ACAD_REACTORS
330
3D
102
}
330
3D
100
AcDbScale
 70
     0
300
4:1
140
4.0
141
1.0
290
     0
  0
SCALE
  5
4C
102
{ACAD_REACTORS
330
3D
102
}
330
3D
100
AcDbScale
 70
     0
300
8:1
140
8.0
141
1.0
290
     0
  0
SCALE
  5
4D
102
{ACAD_REACTORS
330
3D
102
}
330
3D
100
AcDbScale
 70
     0
300
10:1
140
10.0
141
1.0
290
     0
  0
SCALE
  5
4E
102
{ACAD_REACTORS
330
3D
102
}
330
3D
100
AcDbScale
 70
     0
300
100:1
140
100.0
141
1.0
290
     0
  0
TABLESTYLE
  5
60
102
{ACAD_XDICTIONARY
360
9436
102
}
102
{ACAD_REACTORS
330
5F
102
}
330
5F
100
AcDbTableStyle
  3
Standard
 70
     0
 71
     0
 40
1.5
 41
1.5
280
     0
281
     0
  7
Standard
140
4.5
170
     2
 62
     0
 63
     7
283
     0
274
    -2
284
     1
 64
     0
275
    -2
285
     1
 65
     0
276
    -2
286
     1
 66
     0
277
    -2
287
     1
 67
     0
278
    -2
288
     1
 68
     0
279
    -2
289
     1
 69
     0
  7
Standard
140
6.0
170
     5
 62
     0
 63
     7
283
     0
274
    -2
284
     1
 64
     0
275
    -2
285
     1
 65
     0
276
    -2
286
     1
 66
     0
277
    -2
287
     1
 67
     0
278
    -2
288
     1
 68
     0
279
    -2
289
     1
 69
     0
  7
Standard
140
4.5
170
     5
 62
     0
 63
     7
283
     0
274
    -2
284
     1
 64
     0
275
    -2
285
     1
 65
     0
276
    -2
286
     1
 66
     0
277
    -2
287
     1
 67
     0
278
    -2
288
     1
 68
     0
279
    -2
289
     1
 69
     0
  0
VISUALSTYLE
  5
2F
102
{ACAD_XDICTIONARY
360
9448
102
}
102
{ACAD_REACTORS
330
29
102
}
330
29
100
AcDbVisualStyle
  2
2dWireframe
 70
     4
 71
     0
 72
     2
 73
     0
 90
        0
 40
-0.6
 41
-30.0
 62
     5
 63
     7
421
 16777215
 74
     1
 91
        4
 64
     7
 65
   257
 75
     1
175
     1
 42
1.0
 92
        0
 66
   257
 43
1.0
 76
     1
 77
     6
 78
     2
 67
     7
 79
     5
170
     0
171
     0
290
     0
174
     0
 93
        1
 44
0.0
173
     0
291
     0
 45
0.0
1001
ACAD
1000
AcDbSavedByObjectVersion
1070
     0
  0
VISUALSTYLE
  5
31
102
{ACAD_XDICTIONARY
360
944C
102
}
102
{ACAD_REACTORS
330
29
102
}
330
29
100
AcDbVisualStyle
  2
3D Hidden
 70
     6
 71
     1
 72
     2
 73
     2
 90
        0
 40
-0.6
 41
-30.0
 62
     5
 63
     7
421
 16777215
 74
     2
 91
        2
 64
     7
 65
   257
 75
     2
175
     1
 42
179.0
 92
        0
 66
   257
 43
1.0
 76
     1
 77
     6
 78
     2
 67
     7
 79
     3
170
     0
171
     0
290
     0
174
     0
 93
        1
 44
0.0
173
     0
291
     0
 45
0.0
1001
ACAD
1000
AcDbSavedByObjectVersion
1070
     0
  0
VISUALSTYLE
  5
30
102
{ACAD_XDICTIONARY
360
944A
102
}
102
{ACAD_REACTORS
330
29
102
}
330
29
100
AcDbVisualStyle
  2
3dWireframe
 70
     5
 71
     0
 72
     2
 73
     0
 90
        0
 40
-0.6
 41
-30.0
 62
     5
 63
     7
421
 16777215
 74
     1
 91
        4
 64
     7
 65
   257
 75
     1
175
     1
 42
1.0
 92
        0
 66
   257
 43
1.0
 76
     1
 77
     6
 78
     2
 67
     7
 79
     5
170
     0
171
     0
290
     0
174
     0
 93
        1
 44
0.0
173
     0
291
     0
 45
0.0
1001
ACAD
1000
AcDbSavedByObjectVersion
1070
     0
  0
VISUALSTYLE
  5
2E
102
{ACAD_XDICTIONARY
360
9446
102
}
102
{ACAD_REACTORS
330
29
102
}
330
29
100
AcDbVisualStyle
  2
Basic
 70
     7
 71
     1
 72
     0
 73
     1
 90
        0
 40
-0.6
 41
-30.0
 62
     5
 63
     7
421
 16777215
 74
     0
 91
        4
 64
     7
 65
   257
 75
     1
175
     1
 42
1.0
 92
        8
 66
     7
 43
1.0
 76
     1
 77
     6
 78
     2
 67
     7
 79
     5
170
     0
171
     0
290
     0
174
     0
 93
        1
 44
0.0
173
     0
291
     1
 45
0.0
1001
ACAD
1000
AcDbSavedByObjectVersion
1070
     0
  0
VISUALSTYLE
  5
35
102
{ACAD_XDICTIONARY
360
9454
102
}
102
{ACAD_REACTORS
330
29
102
}
330
29
100
AcDbVisualStyle
  2
Brighten
 70
    12
 71
     2
 72
     2
 73
     0
 90
        0
 40
-0.6
 41
-30.0
 62
     5
 63
     7
421
 16777215
 74
     1
 91
        4
 64
     7
 65
   257
 75
     1
175
     1
 42
1.0
 92
        8
 66
     7
 43
1.0
 76
     1
 77
     6
 78
     2
 67
     7
 79
     5
170
     0
171
     0
290
     0
174
     0
 93
        1
 44
50.0
173
     0
291
     1
 45
0.0
1001
ACAD
1000
AcDbSavedByObjectVersion
1070
     0
  0
VISUALSTYLE
  5
39
102
{ACAD_XDICTIONARY
360
945C
102
}
102
{ACAD_REACTORS
330
29
102
}
330
29
100
AcDbVisualStyle
  2
ColorChange
 70
    16
 71
     2
 72
     2
 73
     3
 90
        0
 40
-0.6
 41
-30.0
 62
     5
 63
     8
421
  8421504
 74
     1
 91
        4
 64
     7
 65
   257
 75
     1
175
     1
 42
1.0
 92
        8
 66
     8
424
  8421504
 43
1.0
 76
     1
 77
     6
 78
     2
 67
     7
 79
     5
170
     0
171
     0
290
     0
174
     0
 93
        1
 44
0.0
173
     0
291
     1
 45
0.0
1001
ACAD
1000
AcDbSavedByObjectVersion
1070
     0
  0
VISUALSTYLE
  5
32
102
{ACAD_XDICTIONARY
360
944E
102
}
102
{ACAD_REACTORS
330
29
102
}
330
29
100
AcDbVisualStyle
  2
Conceptual
 70
     9
 71
     3
 72
     2
 73
     0
 90
        0
 40
-0.6
 41
-30.0
 62
     5
 63
     7
421
 16777215
 74
     2
 91
        2
 64
     7
 65
   257
 75
     1
175
     1
 42
179.0
 92
        8
 66
     7
 43
1.0
 76
     1
 77
     6
 78
     2
 67
     7
 79
     3
170
     0
171
     0
290
     0
174
     0
 93
        1
 44
0.0
173
     0
291
     0
 45
0.0
1001
ACAD
1000
AcDbSavedByObjectVersion
1070
     0
  0
VISUALSTYLE
  5
34
102
{ACAD_XDICTIONARY
360
9452
102
}
102
{ACAD_REACTORS
330
29
102
}
330
29
100
AcDbVisualStyle
  2
Dim
 70
    11
 71
     2
 72
     2
 73
     0
 90
        0
 40
-0.6
 41
-30.0
 62
     5
 63
     7
421
 16777215
 74
     1
 91
        4
 64
     7
 65
   257
 75
     1
175
     1
 42
1.0
 92
        8
 66
     7
 43
1.0
 76
     1
 77
     6
 78
     2
 67
     7
 79
     5
170
     0
171
     0
290
     0
174
     0
 93
        1
 44
-50.0
173
     0
291
     1
 45
0.0
1001
ACAD
1000
AcDbSavedByObjectVersion
1070
     0
  0
VISUALSTYLE
  5
3C
102
{ACAD_XDICTIONARY
360
9462
102
}
102
{ACAD_REACTORS
330
29
102
}
330
29
100
AcDbVisualStyle
  2
EdgeColorOff
 70
    22
 71
     2
 72
     2
 73
     0
 90
        0
 40
-0.6
 41
-30.0
 62
     5
 63
     7
421
 16777215
 74
     1
 91
        4
 64
     7
 65
   257
 75
     1
175
     1
 42
1.0
 92
        8
 66
     7
 43
1.0
 76
     1
 77
     6
 78
     2
 67
     7
 79
     5
170
     0
171
     0
290
     0
174
     0
 93
        1
 44
0.0
173
     0
291
     1
 45
0.0
1001
ACAD
1000
AcDbSavedByObjectVersion
1070
     0
  0
VISUALSTYLE
  5
38
102
{ACAD_XDICTIONARY
360
945A
102
}
102
{ACAD_REACTORS
330
29
102
}
330
29
100
AcDbVisualStyle
  2
Facepattern
 70
    15
 71
     2
 72
     2
 73
     0
 90
        0
 40
-0.6
 41
-30.0
 62
     5
 63
     7
421
 16777215
 74
     1
 91
        4
 64
     7
 65
   257
 75
     1
175
     1
 42
1.0
 92
        8
 66
     7
 43
1.0
 76
     1
 77
     6
 78
     2
 67
     7
 79
     5
170
     0
171
     0
290
     0
174
     0
 93
        1
 44
0.0
173
     0
291
     1
 45
0.0
1001
ACAD
1000
AcDbSavedByObjectVersion
1070
     0
  0
VISUALSTYLE
  5
2A
102
{ACAD_XDICTIONARY
360
943E
102
}
102
{ACAD_REACTORS
330
29
102
}
330
29
100
AcDbVisualStyle
  2
Flat
 70
     0
 71
     2
 72
     1
 73
     1
 90
        2
 40
-0.6
 41
30.0
 62
     5
 63
     7
421
 16777215
 74
     0
 91
        4
 64
     7
 65
   257
 75
     1
175
     1
 42
1.0
 92
        8
 66
     7
 43
1.0
 76
     1
 77
     6
 78
     2
 67
     7
 79
     5
170
     0
171
     0
290
     0
174
     0
 93
       13
 44
0.0
173
     0
291
     1
 45
0.0
1001
ACAD
1000
AcDbSavedByObjectVersion
1070
     0
  0
VISUALSTYLE
  5
2B
102
{ACAD_XDICTIONARY
360
9440
102
}
102
{ACAD_REACTORS
330
29
102
}
330
29
100
AcDbVisualStyle
  2
FlatWithEdges
 70
     1
 71
     2
 72
     1
 73
     1
 90
        2
 40
-0.6
 41
30.0
 62
     5
 63
     7
421
 16777215
 74
     1
 91
        4
 64
     7
 65
   257
 75
     1
175
     1
 42
1.0
 92
        0
 66
   257
 43
1.0
 76
     1
 77
     6
 78
     2
 67
     7
 79
     5
170
     0
171
     0
290
     0
174
     0
 93
       13
 44
0.0
173
     0
291
     1
 45
0.0
1001
ACAD
1000
AcDbSavedByObjectVersion
1070
     0
  0
VISUALSTYLE
  5
2C
102
{ACAD_XDICTIONARY
360
9442
102
}
102
{ACAD_REACTORS
330
29
102
}
330
29
100
AcDbVisualStyle
  2
Gouraud
 70
     2
 71
     2
 72
     2
 73
     1
 90
        2
 40
-0.6
 41
30.0
 62
     5
 63
     7
421
 16777215
 74
     0
 91
        4
 64
     7
 65
   257
 75
     1
175
     1
 42
1.0
 92
        0
 66
     7
 43
1.0
 76
     1
 77
     6
 78
     2
 67
     7
 79
     5
170
     0
171
     0
290
     0
174
     0
 93
       13
 44
0.0
173
     0
291
     1
 45
0.0
1001
ACAD
1000
AcDbSavedByObjectVersion
1070
     0
  0
VISUALSTYLE
  5
2D
102
{ACAD_XDICTIONARY
360
9444
102
}
102
{ACAD_REACTORS
330
29
102
}
330
29
100
AcDbVisualStyle
  2
GouraudWithEdges
 70
     3
 71
     2
 72
     2
 73
     1
 90
        2
 40
-0.6
 41
30.0
 62
     5
 63
     7
421
 16777215
 74
     1
 91
        4
 64
     7
 65
   257
 75
     1
175
     1
 42
1.0
 92
        0
 66
   257
 43
1.0
 76
     1
 77
     6
 78
     2
 67
     7
 79
     5
170
     0
171
     0
290
     0
174
     0
 93
       13
 44
0.0
173
     0
291
     1
 45
0.0
1001
ACAD
1000
AcDbSavedByObjectVersion
1070
     0
  0
VISUALSTYLE
  5
3A
102
{ACAD_XDICTIONARY
360
945E
102
}
102
{ACAD_REACTORS
330
29
102
}
330
29
100
AcDbVisualStyle
  2
JitterOff
 70
    20
 71
     2
 72
     2
 73
     0
 90
        0
 40
-0.6
 41
-30.0
 62
     5
 63
     7
421
 16777215
 74
     1
 91
        4
 64
     7
 65
   257
 75
     1
175
     1
 42
1.0
 92
       10
 66
     7
 43
1.0
 76
     1
 77
     6
 78
     2
 67
     7
 79
     5
170
     0
171
     0
290
     0
174
     0
 93
        1
 44
0.0
173
     0
291
     1
 45
0.0
1001
ACAD
1000
AcDbSavedByObjectVersion
1070
     0
  0
VISUALSTYLE
  5
37
102
{ACAD_XDICTIONARY
360
9458
102
}
102
{ACAD_REACTORS
330
29
102
}
330
29
100
AcDbVisualStyle
  2
Linepattern
 70
    14
 71
     2
 72
     2
 73
     0
 90
        0
 40
-0.6
 41
-30.0
 62
     5
 63
     7
421
 16777215
 74
     1
 91
        4
 64
     7
 65
   257
 75
     7
175
     7
 42
1.0
 92
        8
 66
     7
 43
1.0
 76
     1
 77
     6
 78
     2
 67
     7
 79
     5
170
     0
171
     0
290
     0
174
     0
 93
        1
 44
0.0
173
     0
291
     1
 45
0.0
1001
ACAD
1000
AcDbSavedByObjectVersion
1070
     0
  0
VISUALSTYLE
  5
3B
102
{ACAD_XDICTIONARY
360
9460
102
}
102
{ACAD_REACTORS
330
29
102
}
330
29
100
AcDbVisualStyle
  2
OverhangOff
 70
    21
 71
     2
 72
     2
 73
     0
 90
        0
 40
-0.6
 41
-30.0
 62
     5
 63
     7
421
 16777215
 74
     1
 91
        4
 64
     7
 65
   257
 75
     1
175
     1
 42
1.0
 92
        9
 66
     7
 43
1.0
 76
     1
 77
     6
 78
     2
 67
     7
 79
     5
170
     0
171
     0
290
     0
174
     0
 93
        1
 44
0.0
173
     0
291
     1
 45
0.0
1001
ACAD
1000
AcDbSavedByObjectVersion
1070
     0
  0
VISUALSTYLE
  5
33
102
{ACAD_XDICTIONARY
360
9450
102
}
102
{ACAD_REACTORS
330
29
102
}
330
29
100
AcDbVisualStyle
  2
Realistic
 70
     8
 71
     2
 72
     2
 73
     0
 90
        0
 40
-0.6
 41
-30.0
 62
     5
 63
     7
421
 16777215
 74
     1
 91
        0
 64
     7
 65
   257
 75
     1
175
     1
 42
1.0
 92
        8
 66
     8
424
  7895160
 43
1.0
 76
     1
 77
     6
 78
     2
 67
     7
 79
     5
170
     0
171
     0
290
     0
174
     0
 93
       13
 44
0.0
173
     0
291
     0
 45
0.0
1001
ACAD
1000
AcDbSavedByObjectVersion
1070
     0
  0
VISUALSTYLE
  5
36
102
{ACAD_XDICTIONARY
360
9456
102
}
102
{ACAD_REACTORS
330
29
102
}
330
29
100
AcDbVisualStyle
  2
Thicken
 70
    13
 71
     2
 72
     2
 73
     0
 90
        0
 40
-0.6
 41
-30.0
 62
     5
 63
     7
421
 16777215
 74
     1
 91
        4
 64
     7
 65
   257
 75
     1
175
     1
 42
1.0
 92
       12
 66
     7
 43
1.0
 76
     1
 77
     6
 78
     2
 67
     7
 79
     5
170
     0
171
     0
290
     0
174
     0
 93
        1
 44
0.0
173
     0
291
     1
 45
0.0
1001
ACAD
1000
AcDbSavedByObjectVersion
1070
     0
  0
DICTIONARYVAR
  5
9431
102
{ACAD_REACTORS
330
942D
102
}
330
942D
100
DictionaryVariables
280
     0
  1
1:1
  0
DICTIONARYVAR
  5
942F
102
{ACAD_REACTORS
330
942D
102
}
330
942D
100
DictionaryVariables
280
     0
  1
STANDARD
  0
DICTIONARYVAR
  5
942E
102
{ACAD_REACTORS
330
942D
102
}
330
942D
100
DictionaryVariables
280
     0
  1
STANDARD
  0
DICTIONARYVAR
  5
9433
102
{ACAD_REACTORS
330
942D
102
}
330
942D
100
DictionaryVariables
280
     0
  1
0
  0
DICTIONARYVAR
  5
9434
102
{ACAD_REACTORS
330
942D
102
}
330
942D
100
DictionaryVariables
280
     0
  1
0
  0
DICTIONARYVAR
  5
9432
102
{ACAD_REACTORS
330
942D
102
}
330
942D
100
DictionaryVariables
280
     0
  1
2
  0
DICTIONARYVAR
  5
9430
102
{ACAD_REACTORS
330
942D
102
}
330
942D
100
DictionaryVariables
280
     0
  1
1
  0
DICTIONARYVAR
  5
9435
102
{ACAD_REACTORS
330
942D
102
}
330
942D
100
DictionaryVariables
280
     0
  1
2
  0
DICTIONARY
  5
1A
330
19
100
AcDbDictionary
280
     1
281
     1
  3
ACAD_XREC_ROUNDTRIP
360
943C
  3
BUMPTILE
360
1C
  3
DIFFUSETILE
360
1B
  3
OPACITYTILE
360
1F
  3
REFLECTIONTILE
360
1E
  3
REFRACTIONTILE
360
20
  3
SPECULARTILE
360
1D
  0
DICTIONARY
  5
12
330
11
100
AcDbDictionary
280
     1
281
     1
  3
ACAD_XREC_ROUNDTRIP
360
943B
  3
BUMPTILE
360
14
  3
DIFFUSETILE
360
13
  3
OPACITYTILE
360
17
  3
REFLECTIONTILE
360
16
  3
REFRACTIONTILE
360
18
  3
SPECULARTILE
360
15
  0
DICTIONARY
  5
22
330
21
100
AcDbDictionary
280
     1
281
     1
  3
ACAD_XREC_ROUNDTRIP
360
943D
  3
BUMPTILE
360
24
  3
DIFFUSETILE
360
23
  3
OPACITYTILE
360
27
  3
REFLECTIONTILE
360
26
  3
REFRACTIONTILE
360
28
  3
SPECULARTILE
360
25
  0
DICTIONARY
  5
9436
330
60
100
AcDbDictionary
280
     1
281
     1
  3
ACAD_ROUNDTRIP_2008_TABLESTYLE_CELLSTYLEMAP
360
9437
  3
ACAD_XREC_ROUNDTRIP
360
9465
  0
DICTIONARY
  5
9448
330
2F
100
AcDbDictionary
280
     1
281
     1
  3
ACAD_XREC_ROUNDTRIP
360
9449
  0
DICTIONARY
  5
944C
330
31
100
AcDbDictionary
280
     1
281
     1
  3
ACAD_XREC_ROUNDTRIP
360
944D
  0
DICTIONARY
  5
944A
330
30
100
AcDbDictionary
280
     1
281
     1
  3
ACAD_XREC_ROUNDTRIP
360
944B
  0
DICTIONARY
  5
9446
330
2E
100
AcDbDictionary
280
     1
281
     1
  3
ACAD_XREC_ROUNDTRIP
360
9447
  0
DICTIONARY
  5
9454
330
35
100
AcDbDictionary
280
     1
281
     1
  3
ACAD_XREC_ROUNDTRIP
360
9455
  0
DICTIONARY
  5
945C
330
39
100
AcDbDictionary
280
     1
281
     1
  3
ACAD_XREC_ROUNDTRIP
360
945D
  0
DICTIONARY
  5
944E
330
32
100
AcDbDictionary
280
     1
281
     1
  3
ACAD_XREC_ROUNDTRIP
360
944F
  0
DICTIONARY
  5
9452
330
34
100
AcDbDictionary
280
     1
281
     1
  3
ACAD_XREC_ROUNDTRIP
360
9453
  0
DICTIONARY
  5
9462
330
3C
100
AcDbDictionary
280
     1
281
     1
  3
ACAD_XREC_ROUNDTRIP
360
9463
  0
DICTIONARY
  5
945A
330
38
100
AcDbDictionary
280
     1
281
     1
  3
ACAD_XREC_ROUNDTRIP
360
945B
  0
DICTIONARY
  5
943E
330
2A
100
AcDbDictionary
280
     1
281
     1
  3
ACAD_XREC_ROUNDTRIP
360
943F
  0
DICTIONARY
  5
9440
330
2B
100
AcDbDictionary
280
     1
281
     1
  3
ACAD_XREC_ROUNDTRIP
360
9441
  0
DICTIONARY
  5
9442
330
2C
100
AcDbDictionary
280
     1
281
     1
  3
ACAD_XREC_ROUNDTRIP
360
9443
  0
DICTIONARY
  5
9444
330
2D
100
AcDbDictionary
280
     1
281
     1
  3
ACAD_XREC_ROUNDTRIP
360
9445
  0
DICTIONARY
  5
945E
330
3A
100
AcDbDictionary
280
     1
281
     1
  3
ACAD_XREC_ROUNDTRIP
360
945F
  0
DICTIONARY
  5
9458
330
37
100
AcDbDictionary
280
     1
281
     1
  3
ACAD_XREC_ROUNDTRIP
360
9459
  0
DICTIONARY
  5
9460
330
3B
100
AcDbDictionary
280
     1
281
     1
  3
ACAD_XREC_ROUNDTRIP
360
9461
  0
DICTIONARY
  5
9450
330
33
100
AcDbDictionary
280
     1
281
     1
  3
ACAD_XREC_ROUNDTRIP
360
9451
  0
DICTIONARY
  5
9456
330
36
100
AcDbDictionary
280
     1
281
     1
  3
ACAD_XREC_ROUNDTRIP
360
9457
  0
XRECORD
  5
943C
102
{ACAD_REACTORS
330
1A
102
}
330
1A
100
AcDbXrecord
280
     1
102
MATERIAL
148
0.0
149
0.0
149
0.0
 93
        0
 94
      127
282
     0
 72
     0
 77
     0
171
     0
175
     0
179
     0
273
     0
  0
XRECORD
  5
1C
102
{ACAD_REACTORS
330
1A
102
}
330
1A
100
AcDbXrecord
280
     1
270
     1
271
     1
  0
XRECORD
  5
1B
102
{ACAD_REACTORS
330
1A
102
}
330
1A
100
AcDbXrecord
280
     1
270
     1
271
     1
  0
XRECORD
  5
1F
102
{ACAD_REACTORS
330
1A
102
}
330
1A
100
AcDbXrecord
280
     1
270
     1
271
     1
  0
XRECORD
  5
1E
102
{ACAD_REACTORS
330
1A
102
}
330
1A
100
AcDbXrecord
280
     1
270
     1
271
     1
  0
XRECORD
  5
20
102
{ACAD_REACTORS
330
1A
102
}
330
1A
100
AcDbXrecord
280
     1
270
     1
271
     1
  0
XRECORD
  5
1D
102
{ACAD_REACTORS
330
1A
102
}
330
1A
100
AcDbXrecord
280
     1
270
     1
271
     1
  0
XRECORD
  5
943B
102
{ACAD_REACTORS
330
12
102
}
330
12
100
AcDbXrecord
280
     1
102
MATERIAL
148
0.0
149
0.0
149
0.0
 93
        0
 94
      127
282
     0
 72
     0
 77
     0
171
     0
175
     0
179
     0
273
     0
  0
XRECORD
  5
14
102
{ACAD_REACTORS
330
12
102
}
330
12
100
AcDbXrecord
280
     1
270
     1
271
     1
  0
XRECORD
  5
13
102
{ACAD_REACTORS
330
12
102
}
330
12
100
AcDbXrecord
280
     1
270
     1
271
     1
  0
XRECORD
  5
17
102
{ACAD_REACTORS
330
12
102
}
330
12
100
AcDbXrecord
280
     1
270
     1
271
     1
  0
XRECORD
  5
16
102
{ACAD_REACTORS
330
12
102
}
330
12
100
AcDbXrecord
280
     1
270
     1
271
     1
  0
XRECORD
  5
18
102
{ACAD_REACTORS
330
12
102
}
330
12
100
AcDbXrecord
280
     1
270
     1
271
     1
  0
XRECORD
  5
15
102
{ACAD_REACTORS
330
12
102
}
330
12
100
AcDbXrecord
280
     1
270
     1
271
     1
  0
XRECORD
  5
943D
102
{ACAD_REACTORS
330
22
102
}
330
22
100
AcDbXrecord
280
     1
102
MATERIAL
148
0.0
149
0.0
149
0.0
 93
        0
 94
      127
282
     0
 72
     0
 77
     0
171
     0
175
     0
179
     0
273
     0
  0
XRECORD
  5
24
102
{ACAD_REACTORS
330
22
102
}
330
22
100
AcDbXrecord
280
     1
270
     1
271
     1
  0
XRECORD
  5
23
102
{ACAD_REACTORS
330
22
102
}
330
22
100
AcDbXrecord
280
     1
270
     1
271
     1
  0
XRECORD
  5
27
102
{ACAD_REACTORS
330
22
102
}
330
22
100
AcDbXrecord
280
     1
270
     1
271
     1
  0
XRECORD
  5
26
102
{ACAD_REACTORS
330
22
102
}
330
22
100
AcDbXrecord
280
     1
270
     1
271
     1
  0
XRECORD
  5
28
102
{ACAD_REACTORS
330
22
102
}
330
22
100
AcDbXrecord
280
     1
270
     1
271
     1
  0
XRECORD
  5
25
102
{ACAD_REACTORS
330
22
102
}
330
22
100
AcDbXrecord
280
     1
270
     1
271
     1
  0
CELLSTYLEMAP
  5
9437
102
{ACAD_REACTORS
330
9436
102
}
330
9436
100
AcDbCellStyleMap
 90
        3
300
CELLSTYLE
  1
TABLEFORMAT_BEGIN
 90
        5
170
     1
 91
        0
 92
    32768
 62
   257
 93
        1
300
CONTENTFORMAT
  1
CONTENTFORMAT_BEGIN
 90
        0
 91
        0
 92
      512
 93
        0
300

 40
0.0
140
1.0
 94
        5
 62
     0
340
50
144
6.0
309
CONTENTFORMAT_END
171
     1
301
MARGIN
  1
CELLMARGIN_BEGIN
 40
1.5
 40
1.5
 40
1.5
 40
1.5
 40
4.5
 40
4.5
309
CELLMARGIN_END
 94
        6
 95
        1
302
GRIDFORMAT
  1
GRIDFORMAT_BEGIN
 90
        0
 91
        1
 62
     0
 92
       -2
340
0
 93
        0
 40
1.125
309
GRIDFORMAT_END
 95
        2
302
GRIDFORMAT
  1
GRIDFORMAT_BEGIN
 90
        0
 91
        1
 62
     0
 92
       -2
340
0
 93
        0
 40
1.125
309
GRIDFORMAT_END
 95
        4
302
GRIDFORMAT
  1
GRIDFORMAT_BEGIN
 90
        0
 91
        1
 62
     0
 92
       -2
340
0
 93
        0
 40
1.125
309
GRIDFORMAT_END
 95
        8
302
GRIDFORMAT
  1
GRIDFORMAT_BEGIN
 90
        0
 91
        1
 62
     0
 92
       -2
340
0
 93
        0
 40
1.125
309
GRIDFORMAT_END
 95
       16
302
GRIDFORMAT
  1
GRIDFORMAT_BEGIN
 90
        0
 91
        1
 62
     0
 92
       -2
340
0
 93
        0
 40
1.125
309
GRIDFORMAT_END
 95
       32
302
GRIDFORMAT
  1
GRIDFORMAT_BEGIN
 90
        0
 91
        1
 62
     0
 92
       -2
340
0
 93
        0
 40
1.125
309
GRIDFORMAT_END
309
TABLEFORMAT_END
  1
CELLSTYLE_BEGIN
 90
        1
 91
        1
300
_TITLE
309
CELLSTYLE_END
300
CELLSTYLE
  1
TABLEFORMAT_BEGIN
 90
        5
170
     1
 91
        0
 92
        0
 62
   257
 93
        1
300
CONTENTFORMAT
  1
CONTENTFORMAT_BEGIN
 90
        0
 91
        0
 92
      512
 93
        0
300

 40
0.0
140
1.0
 94
        5
 62
     0
340
50
144
4.5
309
CONTENTFORMAT_END
171
     1
301
MARGIN
  1
CELLMARGIN_BEGIN
 40
1.5
 40
1.5
 40
1.5
 40
1.5
 40
4.5
 40
4.5
309
CELLMARGIN_END
 94
        6
 95
        1
302
GRIDFORMAT
  1
GRIDFORMAT_BEGIN
 90
        0
 91
        1
 62
     0
 92
       -2
340
0
 93
        0
 40
1.125
309
GRIDFORMAT_END
 95
        2
302
GRIDFORMAT
  1
GRIDFORMAT_BEGIN
 90
        0
 91
        1
 62
     0
 92
       -2
340
0
 93
        0
 40
1.125
309
GRIDFORMAT_END
 95
        4
302
GRIDFORMAT
  1
GRIDFORMAT_BEGIN
 90
        0
 91
        1
 62
     0
 92
       -2
340
0
 93
        0
 40
1.125
309
GRIDFORMAT_END
 95
        8
302
GRIDFORMAT
  1
GRIDFORMAT_BEGIN
 90
        0
 91
        1
 62
     0
 92
       -2
340
0
 93
        0
 40
1.125
309
GRIDFORMAT_END
 95
       16
302
GRIDFORMAT
  1
GRIDFORMAT_BEGIN
 90
        0
 91
        1
 62
     0
 92
       -2
340
0
 93
        0
 40
1.125
309
GRIDFORMAT_END
 95
       32
302
GRIDFORMAT
  1
GRIDFORMAT_BEGIN
 90
        0
 91
        1
 62
     0
 92
       -2
340
0
 93
        0
 40
1.125
309
GRIDFORMAT_END
309
TABLEFORMAT_END
  1
CELLSTYLE_BEGIN
 90
        2
 91
        1
300
_HEADER
309
CELLSTYLE_END
300
CELLSTYLE
  1
TABLEFORMAT_BEGIN
 90
        5
170
     1
 91
        0
 92
        0
 62
   257
 93
        1
300
CONTENTFORMAT
  1
CONTENTFORMAT_BEGIN
 90
        0
 91
        0
 92
      512
 93
        0
300

 40
0.0
140
1.0
 94
        2
 62
     0
340
50
144
4.5
309
CONTENTFORMAT_END
171
     1
301
MARGIN
  1
CELLMARGIN_BEGIN
 40
1.5
 40
1.5
 40
1.5
 40
1.5
 40
4.5
 40
4.5
309
CELLMARGIN_END
 94
        6
 95
        1
302
GRIDFORMAT
  1
GRIDFORMAT_BEGIN
 90
        0
 91
        1
 62
     0
 92
       -2
340
0
 93
        0
 40
1.125
309
GRIDFORMAT_END
 95
        2
302
GRIDFORMAT
  1
GRIDFORMAT_BEGIN
 90
        0
 91
        1
 62
     0
 92
       -2
340
0
 93
        0
 40
1.125
309
GRIDFORMAT_END
 95
        4
302
GRIDFORMAT
  1
GRIDFORMAT_BEGIN
 90
        0
 91
        1
 62
     0
 92
       -2
340
0
 93
        0
 40
1.125
309
GRIDFORMAT_END
 95
        8
302
GRIDFORMAT
  1
GRIDFORMAT_BEGIN
 90
        0
 91
        1
 62
     0
 92
       -2
340
0
 93
        0
 40
1.125
309
GRIDFORMAT_END
 95
       16
302
GRIDFORMAT
  1
GRIDFORMAT_BEGIN
 90
        0
 91
        1
 62
     0
 92
       -2
340
0
 93
        0
 40
1.125
309
GRIDFORMAT_END
 95
       32
302
GRIDFORMAT
  1
GRIDFORMAT_BEGIN
 90
        0
 91
        1
 62
     0
 92
       -2
340
0
 93
        0
 40
1.125
309
GRIDFORMAT_END
309
TABLEFORMAT_END
  1
CELLSTYLE_BEGIN
 90
        3
 91
        2
300
_DATA
309
CELLSTYLE_END
  0
XRECORD
  5
9465
102
{ACAD_REACTORS
330
9436
102
}
330
9436
100
AcDbXrecord
280
     1
102
ACAD_ROUNDTRIP_PRE2007_TABLESTYLE
 90
      512
 91
        0
  1

 92
      512
 93
        0
  2

 94
      512
 95
        0
  3

  0
XRECORD
  5
9449
102
{ACAD_REACTORS
330
9448
102
}
330
9448
100
AcDbXrecord
280
     1
102
RTVSPropertyOp0
 70
     1
102
RTVSPropertyOp1
 70
     1
102
RTVSPropertyOp2
 70
     1
102
RTVSPropertyOp3
 70
     1
102
RTVSPropertyOp4
 70
     1
102
RTVSPropertyOp5
 70
     1
102
RTVSPropertyOp6
 70
     1
102
RTVSPropertyOp7
 70
     1
102
RTVSPropertyOp8
 70
     1
102
RTVSPropertyOp9
 70
     1
102
RTVSPropertyOp10
 70
     1
102
RTVSPropertyOp11
 70
     1
102
RTVSPropertyOp12
 70
     1
102
RTVSPropertyOp13
 70
     1
102
RTVSPropertyOp14
 70
     1
102
RTVSPropertyOp15
 70
     1
102
RTVSPropertyOp16
 70
     1
102
RTVSPropertyOp17
 70
     1
102
RTVSPropertyOp18
 70
     1
102
RTVSPropertyOp19
 70
     1
102
RTVSPropertyOp20
 70
     1
102
RTVSPropertyOp21
 70
     1
102
RTVSPropertyOp22
 70
     1
102
RTVSPropertyOp23
 70
     1
102
RTVSPropertyOp24
 70
     1
102
RTVSPropertyOp25
 70
     1
102
RTVSPropertyOp26
 70
     1
102
RTVSPropertyOp27
 70
     1
  0
XRECORD
  5
944D
102
{ACAD_REACTORS
330
944C
102
}
330
944C
100
AcDbXrecord
280
     1
102
RTVSPropertyOp0
 70
     1
102
RTVSPropertyOp1
 70
     1
102
RTVSPropertyOp2
 70
     1
102
RTVSPropertyOp3
 70
     1
102
RTVSPropertyOp4
 70
     1
102
RTVSPropertyOp5
 70
     1
102
RTVSPropertyOp6
 70
     1
102
RTVSPropertyOp7
 70
     1
102
RTVSPropertyOp8
 70
     1
102
RTVSPropertyOp9
 70
     1
102
RTVSPropertyOp10
 70
     1
102
RTVSPropertyOp11
 70
     1
102
RTVSPropertyOp12
 70
     1
102
RTVSPropertyOp13
 70
     1
102
RTVSPropertyOp14
 70
     1
102
RTVSPropertyOp15
 70
     1
102
RTVSPropertyOp16
 70
     1
102
RTVSPropertyOp17
 70
     1
102
RTVSPropertyOp18
 70
     1
102
RTVSPropertyOp19
 70
     1
102
RTVSPropertyOp20
 70
     1
102
RTVSPropertyOp21
 70
     1
102
RTVSPropertyOp22
 70
     1
102
RTVSPropertyOp23
 70
     1
102
RTVSPropertyOp24
 70
     1
102
RTVSPropertyOp25
 70
     1
102
RTVSPropertyOp26
 70
     1
102
RTVSPropertyOp27
 70
     1
  0
XRECORD
  5
944B
102
{ACAD_REACTORS
330
944A
102
}
330
944A
100
AcDbXrecord
280
     1
102
RTVSPropertyOp0
 70
     1
102
RTVSPropertyOp1
 70
     1
102
RTVSPropertyOp2
 70
     1
102
RTVSPropertyOp3
 70
     1
102
RTVSPropertyOp4
 70
     1
102
RTVSPropertyOp5
 70
     1
102
RTVSPropertyOp6
 70
     1
102
RTVSPropertyOp7
 70
     1
102
RTVSPropertyOp8
 70
     1
102
RTVSPropertyOp9
 70
     1
102
RTVSPropertyOp10
 70
     1
102
RTVSPropertyOp11
 70
     1
102
RTVSPropertyOp12
 70
     1
102
RTVSPropertyOp13
 70
     1
102
RTVSPropertyOp14
 70
     1
102
RTVSPropertyOp15
 70
     1
102
RTVSPropertyOp16
 70
     1
102
RTVSPropertyOp17
 70
     1
102
RTVSPropertyOp18
 70
     1
102
RTVSPropertyOp19
 70
     1
102
RTVSPropertyOp20
 70
     1
102
RTVSPropertyOp21
 70
     1
102
RTVSPropertyOp22
 70
     1
102
RTVSPropertyOp23
 70
     1
102
RTVSPropertyOp24
 70
     1
102
RTVSPropertyOp25
 70
     1
102
RTVSPropertyOp26
 70
     1
102
RTVSPropertyOp27
 70
     1
  0
XRECORD
  5
9447
102
{ACAD_REACTORS
330
9446
102
}
330
9446
100
AcDbXrecord
280
     1
102
RTVSPropertyOp0
 70
     1
102
RTVSPropertyOp1
 70
     1
102
RTVSPropertyOp2
 70
     1
102
RTVSPropertyOp3
 70
     1
102
RTVSPropertyOp4
 70
     1
102
RTVSPropertyOp5
 70
     1
102
RTVSPropertyOp6
 70
     1
102
RTVSPropertyOp7
 70
     1
102
RTVSPropertyOp8
 70
     1
102
RTVSPropertyOp9
 70
     1
102
RTVSPropertyOp10
 70
     1
102
RTVSPropertyOp11
 70
     1
102
RTVSPropertyOp12
 70
     1
102
RTVSPropertyOp13
 70
     1
102
RTVSPropertyOp14
 70
     1
102
RTVSPropertyOp15
 70
     1
102
RTVSPropertyOp16
 70
     1
102
RTVSPropertyOp17
 70
     1
102
RTVSPropertyOp18
 70
     1
102
RTVSPropertyOp19
 70
     1
102
RTVSPropertyOp20
 70
     1
102
RTVSPropertyOp21
 70
     1
102
RTVSPropertyOp22
 70
     1
102
RTVSPropertyOp23
 70
     1
102
RTVSPropertyOp24
 70
     1
102
RTVSPropertyOp25
 70
     1
102
RTVSPropertyOp26
 70
     1
102
RTVSPropertyOp27
 70
     1
  0
XRECORD
  5
9455
102
{ACAD_REACTORS
330
9454
102
}
330
9454
100
AcDbXrecord
280
     1
102
RTVSPropertyOp0
 70
     1
102
RTVSPropertyOp1
 70
     1
102
RTVSPropertyOp2
 70
     1
102
RTVSPropertyOp3
 70
     1
102
RTVSPropertyOp4
 70
     1
102
RTVSPropertyOp5
 70
     1
102
RTVSPropertyOp6
 70
     1
102
RTVSPropertyOp7
 70
     1
102
RTVSPropertyOp8
 70
     1
102
RTVSPropertyOp9
 70
     1
102
RTVSPropertyOp10
 70
     1
102
RTVSPropertyOp11
 70
     1
102
RTVSPropertyOp12
 70
     1
102
RTVSPropertyOp13
 70
     1
102
RTVSPropertyOp14
 70
     1
102
RTVSPropertyOp15
 70
     1
102
RTVSPropertyOp16
 70
     1
102
RTVSPropertyOp17
 70
     1
102
RTVSPropertyOp18
 70
     1
102
RTVSPropertyOp19
 70
     1
102
RTVSPropertyOp20
 70
     1
102
RTVSPropertyOp21
 70
     1
102
RTVSPropertyOp22
 70
     1
102
RTVSPropertyOp23
 70
     1
102
RTVSPropertyOp24
 70
     1
102
RTVSPropertyOp25
 70
     1
102
RTVSPropertyOp26
 70
     1
102
RTVSPropertyOp27
 70
     1
  0
XRECORD
  5
945D
102
{ACAD_REACTORS
330
945C
102
}
330
945C
100
AcDbXrecord
280
     1
102
RTVSPropertyOp0
 70
     1
102
RTVSPropertyOp1
 70
     1
102
RTVSPropertyOp2
 70
     1
102
RTVSPropertyOp3
 70
     1
102
RTVSPropertyOp4
 70
     1
102
RTVSPropertyOp5
 70
     1
102
RTVSPropertyOp6
 70
     1
102
RTVSPropertyOp7
 70
     1
102
RTVSPropertyOp8
 70
     1
102
RTVSPropertyOp9
 70
     1
102
RTVSPropertyOp10
 70
     1
102
RTVSPropertyOp11
 70
     1
102
RTVSPropertyOp12
 70
     1
102
RTVSPropertyOp13
 70
     1
102
RTVSPropertyOp14
 70
     1
102
RTVSPropertyOp15
 70
     1
102
RTVSPropertyOp16
 70
     1
102
RTVSPropertyOp17
 70
     1
102
RTVSPropertyOp18
 70
     1
102
RTVSPropertyOp19
 70
     1
102
RTVSPropertyOp20
 70
     1
102
RTVSPropertyOp21
 70
     1
102
RTVSPropertyOp22
 70
     1
102
RTVSPropertyOp23
 70
     1
102
RTVSPropertyOp24
 70
     1
102
RTVSPropertyOp25
 70
     1
102
RTVSPropertyOp26
 70
     1
102
RTVSPropertyOp27
 70
     1
  0
XRECORD
  5
944F
102
{ACAD_REACTORS
330
944E
102
}
330
944E
100
AcDbXrecord
280
     1
102
RTVSPropertyOp0
 70
     1
102
RTVSPropertyOp1
 70
     1
102
RTVSPropertyOp2
 70
     1
102
RTVSPropertyOp3
 70
     1
102
RTVSPropertyOp4
 70
     1
102
RTVSPropertyOp5
 70
     1
102
RTVSPropertyOp6
 70
     1
102
RTVSPropertyOp7
 70
     1
102
RTVSPropertyOp8
 70
     1
102
RTVSPropertyOp9
 70
     1
102
RTVSPropertyOp10
 70
     1
102
RTVSPropertyOp11
 70
     1
102
RTVSPropertyOp12
 70
     1
102
RTVSPropertyOp13
 70
     1
102
RTVSPropertyOp14
 70
     1
102
RTVSPropertyOp15
 70
     1
102
RTVSPropertyOp16
 70
     1
102
RTVSPropertyOp17
 70
     1
102
RTVSPropertyOp18
 70
     1
102
RTVSPropertyOp19
 70
     1
102
RTVSPropertyOp20
 70
     1
102
RTVSPropertyOp21
 70
     1
102
RTVSPropertyOp22
 70
     1
102
RTVSPropertyOp23
 70
     1
102
RTVSPropertyOp24
 70
     1
102
RTVSPropertyOp25
 70
     1
102
RTVSPropertyOp26
 70
     1
102
RTVSPropertyOp27
 70
     1
  0
XRECORD
  5
9453
102
{ACAD_REACTORS
330
9452
102
}
330
9452
100
AcDbXrecord
280
     1
102
RTVSPropertyOp0
 70
     1
102
RTVSPropertyOp1
 70
     1
102
RTVSPropertyOp2
 70
     1
102
RTVSPropertyOp3
 70
     1
102
RTVSPropertyOp4
 70
     1
102
RTVSPropertyOp5
 70
     1
102
RTVSPropertyOp6
 70
     1
102
RTVSPropertyOp7
 70
     1
102
RTVSPropertyOp8
 70
     1
102
RTVSPropertyOp9
 70
     1
102
RTVSPropertyOp10
 70
     1
102
RTVSPropertyOp11
 70
     1
102
RTVSPropertyOp12
 70
     1
102
RTVSPropertyOp13
 70
     1
102
RTVSPropertyOp14
 70
     1
102
RTVSPropertyOp15
 70
     1
102
RTVSPropertyOp16
 70
     1
102
RTVSPropertyOp17
 70
     1
102
RTVSPropertyOp18
 70
     1
102
RTVSPropertyOp19
 70
     1
102
RTVSPropertyOp20
 70
     1
102
RTVSPropertyOp21
 70
     1
102
RTVSPropertyOp22
 70
     1
102
RTVSPropertyOp23
 70
     1
102
RTVSPropertyOp24
 70
     1
102
RTVSPropertyOp25
 70
     1
102
RTVSPropertyOp26
 70
     1
102
RTVSPropertyOp27
 70
     1
  0
XRECORD
  5
9463
102
{ACAD_REACTORS
330
9462
102
}
330
9462
100
AcDbXrecord
280
     1
102
RTVSPropertyOp0
 70
     0
102
RTVSPropertyOp1
 70
     0
102
RTVSPropertyOp2
 70
     0
102
RTVSPropertyOp3
 70
     0
102
RTVSPropertyOp4
 70
     0
102
RTVSPropertyOp5
 70
     0
102
RTVSPropertyOp6
 70
     0
102
RTVSPropertyOp7
 70
     0
102
RTVSPropertyOp8
 70
     0
102
RTVSPropertyOp9
 70
     0
102
RTVSPropertyOp10
 70
     0
102
RTVSPropertyOp11
 70
     0
102
RTVSPropertyOp12
 70
     0
102
RTVSPropertyOp13
 70
     0
102
RTVSPropertyOp14
 70
     2
102
RTVSPropertyOp15
 70
     0
102
RTVSPropertyOp16
 70
     0
102
RTVSPropertyOp17
 70
     0
102
RTVSPropertyOp18
 70
     0
102
RTVSPropertyOp19
 70
     0
102
RTVSPropertyOp20
 70
     0
102
RTVSPropertyOp21
 70
     0
102
RTVSPropertyOp22
 70
     0
102
RTVSPropertyOp23
 70
     0
102
RTVSPropertyOp24
 70
     0
102
RTVSPropertyOp25
 70
     0
102
RTVSPropertyOp26
 70
     0
102
RTVSPropertyOp27
 70
     0
  0
XRECORD
  5
945B
102
{ACAD_REACTORS
330
945A
102
}
330
945A
100
AcDbXrecord
280
     1
102
RTVSPropertyOp0
 70
     1
102
RTVSPropertyOp1
 70
     1
102
RTVSPropertyOp2
 70
     1
102
RTVSPropertyOp3
 70
     1
102
RTVSPropertyOp4
 70
     1
102
RTVSPropertyOp5
 70
     1
102
RTVSPropertyOp6
 70
     1
102
RTVSPropertyOp7
 70
     1
102
RTVSPropertyOp8
 70
     1
102
RTVSPropertyOp9
 70
     1
102
RTVSPropertyOp10
 70
     1
102
RTVSPropertyOp11
 70
     1
102
RTVSPropertyOp12
 70
     1
102
RTVSPropertyOp13
 70
     1
102
RTVSPropertyOp14
 70
     1
102
RTVSPropertyOp15
 70
     1
102
RTVSPropertyOp16
 70
     1
102
RTVSPropertyOp17
 70
     1
102
RTVSPropertyOp18
 70
     1
102
RTVSPropertyOp19
 70
     1
102
RTVSPropertyOp20
 70
     1
102
RTVSPropertyOp21
 70
     1
102
RTVSPropertyOp22
 70
     1
102
RTVSPropertyOp23
 70
     1
102
RTVSPropertyOp24
 70
     1
102
RTVSPropertyOp25
 70
     1
102
RTVSPropertyOp26
 70
     1
102
RTVSPropertyOp27
 70
     1
  0
XRECORD
  5
943F
102
{ACAD_REACTORS
330
943E
102
}
330
943E
100
AcDbXrecord
280
     1
102
RTVSPropertyOp0
 70
     1
102
RTVSPropertyOp1
 70
     1
102
RTVSPropertyOp2
 70
     1
102
RTVSPropertyOp3
 70
     1
102
RTVSPropertyOp4
 70
     1
102
RTVSPropertyOp5
 70
     1
102
RTVSPropertyOp6
 70
     1
102
RTVSPropertyOp7
 70
     1
102
RTVSPropertyOp8
 70
     1
102
RTVSPropertyOp9
 70
     1
102
RTVSPropertyOp10
 70
     1
102
RTVSPropertyOp11
 70
     1
102
RTVSPropertyOp12
 70
     1
102
RTVSPropertyOp13
 70
     1
102
RTVSPropertyOp14
 70
     1
102
RTVSPropertyOp15
 70
     1
102
RTVSPropertyOp16
 70
     1
102
RTVSPropertyOp17
 70
     1
102
RTVSPropertyOp18
 70
     1
102
RTVSPropertyOp19
 70
     1
102
RTVSPropertyOp20
 70
     1
102
RTVSPropertyOp21
 70
     1
102
RTVSPropertyOp22
 70
     1
102
RTVSPropertyOp23
 70
     1
102
RTVSPropertyOp24
 70
     1
102
RTVSPropertyOp25
 70
     1
102
RTVSPropertyOp26
 70
     1
102
RTVSPropertyOp27
 70
     1
  0
XRECORD
  5
9441
102
{ACAD_REACTORS
330
9440
102
}
330
9440
100
AcDbXrecord
280
     1
102
RTVSPropertyOp0
 70
     1
102
RTVSPropertyOp1
 70
     1
102
RTVSPropertyOp2
 70
     1
102
RTVSPropertyOp3
 70
     1
102
RTVSPropertyOp4
 70
     1
102
RTVSPropertyOp5
 70
     1
102
RTVSPropertyOp6
 70
     1
102
RTVSPropertyOp7
 70
     1
102
RTVSPropertyOp8
 70
     1
102
RTVSPropertyOp9
 70
     1
102
RTVSPropertyOp10
 70
     1
102
RTVSPropertyOp11
 70
     1
102
RTVSPropertyOp12
 70
     1
102
RTVSPropertyOp13
 70
     1
102
RTVSPropertyOp14
 70
     1
102
RTVSPropertyOp15
 70
     1
102
RTVSPropertyOp16
 70
     1
102
RTVSPropertyOp17
 70
     1
102
RTVSPropertyOp18
 70
     1
102
RTVSPropertyOp19
 70
     1
102
RTVSPropertyOp20
 70
     1
102
RTVSPropertyOp21
 70
     1
102
RTVSPropertyOp22
 70
     1
102
RTVSPropertyOp23
 70
     1
102
RTVSPropertyOp24
 70
     1
102
RTVSPropertyOp25
 70
     1
102
RTVSPropertyOp26
 70
     1
102
RTVSPropertyOp27
 70
     1
  0
XRECORD
  5
9443
102
{ACAD_REACTORS
330
9442
102
}
330
9442
100
AcDbXrecord
280
     1
102
RTVSPropertyOp0
 70
     1
102
RTVSPropertyOp1
 70
     1
102
RTVSPropertyOp2
 70
     1
102
RTVSPropertyOp3
 70
     1
102
RTVSPropertyOp4
 70
     1
102
RTVSPropertyOp5
 70
     1
102
RTVSPropertyOp6
 70
     1
102
RTVSPropertyOp7
 70
     1
102
RTVSPropertyOp8
 70
     1
102
RTVSPropertyOp9
 70
     1
102
RTVSPropertyOp10
 70
     1
102
RTVSPropertyOp11
 70
     1
102
RTVSPropertyOp12
 70
     1
102
RTVSPropertyOp13
 70
     1
102
RTVSPropertyOp14
 70
     1
102
RTVSPropertyOp15
 70
     1
102
RTVSPropertyOp16
 70
     1
102
RTVSPropertyOp17
 70
     1
102
RTVSPropertyOp18
 70
     1
102
RTVSPropertyOp19
 70
     1
102
RTVSPropertyOp20
 70
     1
102
RTVSPropertyOp21
 70
     1
102
RTVSPropertyOp22
 70
     1
102
RTVSPropertyOp23
 70
     1
102
RTVSPropertyOp24
 70
     1
102
RTVSPropertyOp25
 70
     1
102
RTVSPropertyOp26
 70
     1
102
RTVSPropertyOp27
 70
     1
  0
XRECORD
  5
9445
102
{ACAD_REACTORS
330
9444
102
}
330
9444
100
AcDbXrecord
280
     1
102
RTVSPropertyOp0
 70
     1
102
RTVSPropertyOp1
 70
     1
102
RTVSPropertyOp2
 70
     1
102
RTVSPropertyOp3
 70
     1
102
RTVSPropertyOp4
 70
     1
102
RTVSPropertyOp5
 70
     1
102
RTVSPropertyOp6
 70
     1
102
RTVSPropertyOp7
 70
     1
102
RTVSPropertyOp8
 70
     1
102
RTVSPropertyOp9
 70
     1
102
RTVSPropertyOp10
 70
     1
102
RTVSPropertyOp11
 70
     1
102
RTVSPropertyOp12
 70
     1
102
RTVSPropertyOp13
 70
     1
102
RTVSPropertyOp14
 70
     1
102
RTVSPropertyOp15
 70
     1
102
RTVSPropertyOp16
 70
     1
102
RTVSPropertyOp17
 70
     1
102
RTVSPropertyOp18
 70
     1
102
RTVSPropertyOp19
 70
     1
102
RTVSPropertyOp20
 70
     1
102
RTVSPropertyOp21
 70
     1
102
RTVSPropertyOp22
 70
     1
102
RTVSPropertyOp23
 70
     1
102
RTVSPropertyOp24
 70
     1
102
RTVSPropertyOp25
 70
     1
102
RTVSPropertyOp26
 70
     1
102
RTVSPropertyOp27
 70
     1
  0
XRECORD
  5
945F
102
{ACAD_REACTORS
330
945E
102
}
330
945E
100
AcDbXrecord
280
     1
102
RTVSPropertyOp0
 70
     0
102
RTVSPropertyOp1
 70
     0
102
RTVSPropertyOp2
 70
     0
102
RTVSPropertyOp3
 70
     0
102
RTVSPropertyOp4
 70
     0
102
RTVSPropertyOp5
 70
     0
102
RTVSPropertyOp6
 70
     0
102
RTVSPropertyOp7
 70
     0
102
RTVSPropertyOp8
 70
     0
102
RTVSPropertyOp9
 70
     0
102
RTVSPropertyOp10
 70
     0
102
RTVSPropertyOp11
 70
     0
102
RTVSPropertyOp12
 70
     0
102
RTVSPropertyOp13
 70
     0
102
RTVSPropertyOp14
 70
     2
102
RTVSPropertyOp15
 70
     0
102
RTVSPropertyOp16
 70
     0
102
RTVSPropertyOp17
 70
     0
102
RTVSPropertyOp18
 70
     0
102
RTVSPropertyOp19
 70
     0
102
RTVSPropertyOp20
 70
     0
102
RTVSPropertyOp21
 70
     0
102
RTVSPropertyOp22
 70
     0
102
RTVSPropertyOp23
 70
     0
102
RTVSPropertyOp24
 70
     0
102
RTVSPropertyOp25
 70
     0
102
RTVSPropertyOp26
 70
     0
102
RTVSPropertyOp27
 70
     0
  0
XRECORD
  5
9459
102
{ACAD_REACTORS
330
9458
102
}
330
9458
100
AcDbXrecord
280
     1
102
RTVSPropertyOp0
 70
     1
102
RTVSPropertyOp1
 70
     1
102
RTVSPropertyOp2
 70
     1
102
RTVSPropertyOp3
 70
     1
102
RTVSPropertyOp4
 70
     1
102
RTVSPropertyOp5
 70
     1
102
RTVSPropertyOp6
 70
     1
102
RTVSPropertyOp7
 70
     1
102
RTVSPropertyOp8
 70
     1
102
RTVSPropertyOp9
 70
     1
102
RTVSPropertyOp10
 70
     1
102
RTVSPropertyOp11
 70
     1
102
RTVSPropertyOp12
 70
     1
102
RTVSPropertyOp13
 70
     1
102
RTVSPropertyOp14
 70
     1
102
RTVSPropertyOp15
 70
     1
102
RTVSPropertyOp16
 70
     1
102
RTVSPropertyOp17
 70
     1
102
RTVSPropertyOp18
 70
     1
102
RTVSPropertyOp19
 70
     1
102
RTVSPropertyOp20
 70
     1
102
RTVSPropertyOp21
 70
     1
102
RTVSPropertyOp22
 70
     1
102
RTVSPropertyOp23
 70
     1
102
RTVSPropertyOp24
 70
     1
102
RTVSPropertyOp25
 70
     1
102
RTVSPropertyOp26
 70
     1
102
RTVSPropertyOp27
 70
     1
  0
XRECORD
  5
9461
102
{ACAD_REACTORS
330
9460
102
}
330
9460
100
AcDbXrecord
280
     1
102
RTVSPropertyOp0
 70
     0
102
RTVSPropertyOp1
 70
     0
102
RTVSPropertyOp2
 70
     0
102
RTVSPropertyOp3
 70
     0
102
RTVSPropertyOp4
 70
     0
102
RTVSPropertyOp5
 70
     0
102
RTVSPropertyOp6
 70
     0
102
RTVSPropertyOp7
 70
     0
102
RTVSPropertyOp8
 70
     0
102
RTVSPropertyOp9
 70
     0
102
RTVSPropertyOp10
 70
     0
102
RTVSPropertyOp11
 70
     0
102
RTVSPropertyOp12
 70
     0
102
RTVSPropertyOp13
 70
     0
102
RTVSPropertyOp14
 70
     2
102
RTVSPropertyOp15
 70
     0
102
RTVSPropertyOp16
 70
     0
102
RTVSPropertyOp17
 70
     0
102
RTVSPropertyOp18
 70
     0
102
RTVSPropertyOp19
 70
     0
102
RTVSPropertyOp20
 70
     0
102
RTVSPropertyOp21
 70
     0
102
RTVSPropertyOp22
 70
     0
102
RTVSPropertyOp23
 70
     0
102
RTVSPropertyOp24
 70
     0
102
RTVSPropertyOp25
 70
     0
102
RTVSPropertyOp26
 70
     0
102
RTVSPropertyOp27
 70
     0
  0
XRECORD
  5
9451
102
{ACAD_REACTORS
330
9450
102
}
330
9450
100
AcDbXrecord
280
     1
102
RTVSPropertyOp0
 70
     1
102
RTVSPropertyOp1
 70
     1
102
RTVSPropertyOp2
 70
     1
102
RTVSPropertyOp3
 70
     1
102
RTVSPropertyOp4
 70
     1
102
RTVSPropertyOp5
 70
     1
102
RTVSPropertyOp6
 70
     1
102
RTVSPropertyOp7
 70
     1
102
RTVSPropertyOp8
 70
     1
102
RTVSPropertyOp9
 70
     1
102
RTVSPropertyOp10
 70
     1
102
RTVSPropertyOp11
 70
     1
102
RTVSPropertyOp12
 70
     1
102
RTVSPropertyOp13
 70
     1
102
RTVSPropertyOp14
 70
     1
102
RTVSPropertyOp15
 70
     1
102
RTVSPropertyOp16
 70
     1
102
RTVSPropertyOp17
 70
     1
102
RTVSPropertyOp18
 70
     1
102
RTVSPropertyOp19
 70
     1
102
RTVSPropertyOp20
 70
     1
102
RTVSPropertyOp21
 70
     1
102
RTVSPropertyOp22
 70
     1
102
RTVSPropertyOp23
 70
     1
102
RTVSPropertyOp24
 70
     1
102
RTVSPropertyOp25
 70
     1
102
RTVSPropertyOp26
 70
     1
102
RTVSPropertyOp27
 70
     1
  0
XRECORD
  5
9457
102
{ACAD_REACTORS
330
9456
102
}
330
9456
100
AcDbXrecord
280
     1
102
RTVSPropertyOp0
 70
     1
102
RTVSPropertyOp1
 70
     1
102
RTVSPropertyOp2
 70
     1
102
RTVSPropertyOp3
 70
     1
102
RTVSPropertyOp4
 70
     1
102
RTVSPropertyOp5
 70
     1
102
RTVSPropertyOp6
 70
     1
102
RTVSPropertyOp7
 70
     1
102
RTVSPropertyOp8
 70
     1
102
RTVSPropertyOp9
 70
     1
102
RTVSPropertyOp10
 70
     1
102
RTVSPropertyOp11
 70
     1
102
RTVSPropertyOp12
 70
     1
102
RTVSPropertyOp13
 70
     1
102
RTVSPropertyOp14
 70
     1
102
RTVSPropertyOp15
 70
     1
102
RTVSPropertyOp16
 70
     1
102
RTVSPropertyOp17
 70
     1
102
RTVSPropertyOp18
 70
     1
102
RTVSPropertyOp19
 70
     1
102
RTVSPropertyOp20
 70
     1
102
RTVSPropertyOp21
 70
     1
102
RTVSPropertyOp22
 70
     1
102
RTVSPropertyOp23
 70
     1
102
RTVSPropertyOp24
 70
     1
102
RTVSPropertyOp25
 70
     1
102
RTVSPropertyOp26
 70
     1
102
RTVSPropertyOp27
 70
     1
  0
ENDSEC
  0
EOF
