  0
SECTION
  2
HEADER
  9
$ACADVER
  1
AC1018
  9
$ACADMAINTVER
 70
   104
  9
$DWGCODEPAGE
  3
ANSI_1252
  9
$LASTSAVEDBY
  1
admin
  9
$INSBASE
 10
0.0
 20
0.0
 30
0.0
  9
$EXTMIN
 10
278.2041995221129
 20
121.7645303965039
 30
-0.0015258207003583
  9
$EXTMAX
 10
679.0584950479201
 20
762.7262734074474
 30
0.0000000349246037
  9
$LIMMIN
 10
0.0
 20
0.0
  9
$LIMMAX
 10
420.0
 20
297.0
  9
$ORTHOMODE
 70
     0
  9
$REGENMODE
 70
     1
  9
$FILLMODE
 70
     1
  9
$QTEXTMODE
 70
     0
  9
$MIRRTEXT
 70
     0
  9
$LTSCALE
 40
1.0
  9
$ATTMODE
 70
     1
  9
$TEXTSIZE
 40
2.5
  9
$TRACEWID
 40
1.0
  9
$TEXTSTYLE
  7
Standard
  9
$CLAYER
  8
0
  9
$CELTYPE
  6
ByLayer
  9
$CECOLOR
 62
   256
  9
$CELTSCALE
 40
1.0
  9
$DISPSILH
 70
     0
  9
$DIMSCALE
 40
1.0
  9
$DIMASZ
 40
2.5
  9
$DIMEXO
 40
0.625
  9
$DIMDLI
 40
3.75
  9
$DIMRND
 40
0.0
  9
$DIMDLE
 40
0.0
  9
$DIMEXE
 40
1.25
  9
$DIMTP
 40
0.0
  9
$DIMTM
 40
0.0
  9
$DIMTXT
 40
2.5
  9
$DIMCEN
 40
2.5
  9
$DIMTSZ
 40
0.0
  9
$DIMTOL
 70
     0
  9
$DIMLIM
 70
     0
  9
$DIMTIH
 70
     0
  9
$DIMTOH
 70
     0
  9
$DIMSE1
 70
     0
  9
$DIMSE2
 70
     0
  9
$DIMTAD
 70
     1
  9
$DIMZIN
 70
     8
  9
$DIMBLK
  1

  9
$DIMASO
 70
     1
  9
$DIMSHO
 70
     1
  9
$DIMPOST
  1

  9
$DIMAPOST
  1

  9
$DIMALT
 70
     0
  9
$DIMALTD
 70
     3
  9
$DIMALTF
 40
0.03937007874016
  9
$DIMLFAC
 40
1.0
  9
$DIMTOFL
 70
     1
  9
$DIMTVP
 40
0.0
  9
$DIMTIX
 70
     0
  9
$DIMSOXD
 70
     0
  9
$DIMSAH
 70
     0
  9
$DIMBLK1
  1

  9
$DIMBLK2
  1

  9
$DIMSTYLE
  2
ISO-25
  9
$DIMCLRD
 70
     0
  9
$DIMCLRE
 70
     0
  9
$DIMCLRT
 70
     0
  9
$DIMTFAC
 40
1.0
  9
$DIMGAP
 40
0.625
  9
$DIMJUST
 70
     0
  9
$DIMSD1
 70
     0
  9
$DIMSD2
 70
     0
  9
$DIMTOLJ
 70
     0
  9
$DIMTZIN
 70
     8
  9
$DIMALTZ
 70
     0
  9
$DIMALTTZ
 70
     0
  9
$DIMUPT
 70
     0
  9
$DIMDEC
 70
     2
  9
$DIMTDEC
 70
     2
  9
$DIMALTU
 70
     2
  9
$DIMALTTD
 70
     3
  9
$DIMTXSTY
  7
Standard
  9
$DIMAUNIT
 70
     0
  9
$DIMADEC
 70
     0
  9
$DIMALTRND
 40
0.0
  9
$DIMAZIN
 70
     0
  9
$DIMDSEP
 70
    44
  9
$DIMATFIT
 70
     3
  9
$DIMFRAC
 70
     0
  9
$DIMLDRBLK
  1

  9
$DIMLUNIT
 70
     2
  9
$DIMLWD
 70
    -2
  9
$DIMLWE
 70
    -2
  9
$DIMTMOVE
 70
     0
  9
$LUNITS
 70
     2
  9
$LUPREC
 70
     4
  9
$SKETCHINC
 40
1.0
  9
$FILLETRAD
 40
0.0
  9
$AUNITS
 70
     0
  9
$AUPREC
 70
     0
  9
$MENU
  1
.
  9
$ELEVATION
 40
0.0
  9
$PELEVATION
 40
0.0
  9
$THICKNESS
 40
0.0
  9
$LIMCHECK
 70
     0
  9
$CHAMFERA
 40
0.0
  9
$CHAMFERB
 40
0.0
  9
$CHAMFERC
 40
0.0
  9
$CHAMFERD
 40
0.0
  9
$SKPOLY
 70
     0
  9
$TDCREATE
 40
2457869.280614120
  9
$TDUCREATE
 40
2457869.197280787
  9
$TDUPDATE
 40
2457869.348635556
  9
$TDUUPDATE
 40
2457869.265302222
  9
$TDINDWG
 40
0.0680218750
  9
$TDUSRTIMER
 40
0.0680216898
  9
$USRTIMER
 70
     1
  9
$ANGBASE
 50
0.0
  9
$ANGDIR
 70
     0
  9
$PDMODE
 70
     0
  9
$PDSIZE
 40
0.0
  9
$PLINEWID
 40
0.0
  9
$SPLFRAME
 70
     0
  9
$SPLINETYPE
 70
     6
  9
$SPLINESEGS
 70
     8
  9
$HANDSEED
  5
7C44
  9
$SURFTAB1
 70
     6
  9
$SURFTAB2
 70
     6
  9
$SURFTYPE
 70
     6
  9
$SURFU
 70
     6
  9
$SURFV
 70
     6
  9
$UCSBASE
  2

  9
$UCSNAME
  2

  9
$UCSORG
 10
0.0
 20
0.0
 30
0.0
  9
$UCSXDIR
 10
1.0
 20
0.0
 30
0.0
  9
$UCSYDIR
 10
0.0
 20
1.0
 30
0.0
  9
$UCSORTHOREF
  2

  9
$UCSORTHOVIEW
 70
     0
  9
$UCSORGTOP
 10
0.0
 20
0.0
 30
0.0
  9
$UCSORGBOTTOM
 10
0.0
 20
0.0
 30
0.0
  9
$UCSORGLEFT
 10
0.0
 20
0.0
 30
0.0
  9
$UCSORGRIGHT
 10
0.0
 20
0.0
 30
0.0
  9
$UCSORGFRONT
 10
0.0
 20
0.0
 30
0.0
  9
$UCSORGBACK
 10
0.0
 20
0.0
 30
0.0
  9
$PUCSBASE
  2

  9
$PUCSNAME
  2

  9
$PUCSORG
 10
0.0
 20
0.0
 30
0.0
  9
$PUCSXDIR
 10
1.0
 20
0.0
 30
0.0
  9
$PUCSYDIR
 10
0.0
 20
1.0
 30
0.0
  9
$PUCSORTHOREF
  2

  9
$PUCSORTHOVIEW
 70
     0
  9
$PUCSORGTOP
 10
0.0
 20
0.0
 30
0.0
  9
$PUCSORGBOTTOM
 10
0.0
 20
0.0
 30
0.0
  9
$PUCSORGLEFT
 10
0.0
 20
0.0
 30
0.0
  9
$PUCSORGRIGHT
 10
0.0
 20
0.0
 30
0.0
  9
$PUCSORGFRONT
 10
0.0
 20
0.0
 30
0.0
  9
$PUCSORGBACK
 10
0.0
 20
0.0
 30
0.0
  9
$USERI1
 70
     0
  9
$USERI2
 70
     0
  9
$USERI3
 70
     0
  9
$USERI4
 70
     0
  9
$USERI5
 70
     0
  9
$USERR1
 40
0.0
  9
$USERR2
 40
0.0
  9
$USERR3
 40
0.0
  9
$USERR4
 40
0.0
  9
$USERR5
 40
0.0
  9
$WORLDVIEW
 70
     1
  9
$SHADEDGE
 70
     3
  9
$SHADEDIF
 70
    70
  9
$TILEMODE
 70
     1
  9
$MAXACTVP
 70
    64
  9
$PINSBASE
 10
0.0
 20
0.0
 30
0.0
  9
$PLIMCHECK
 70
     0
  9
$PEXTMIN
 10
1.000000000000000E+20
 20
1.000000000000000E+20
 30
1.000000000000000E+20
  9
$PEXTMAX
 10
-1.000000000000000E+20
 20
-1.000000000000000E+20
 30
-1.000000000000000E+20
  9
$PLIMMIN
 10
0.0
 20
0.0
  9
$PLIMMAX
 10
420.0
 20
297.0
  9
$UNITMODE
 70
     0
  9
$VISRETAIN
 70
     1
  9
$PLINEGEN
 70
     0
  9
$PSLTSCALE
 70
     1
  9
$TREEDEPTH
 70
  3020
  9
$CMLSTYLE
  2
Standard
  9
$CMLJUST
 70
     0
  9
$CMLSCALE
 40
20.0
  9
$PROXYGRAPHICS
 70
     1
  9
$MEASUREMENT
 70
     1
  9
$CELWEIGHT
370
    -1
  9
$ENDCAPS
280
     0
  9
$JOINSTYLE
280
     0
  9
$LWDISPLAY
290
     0
  9
$INSUNITS
 70
     4
  9
$HYPERLINKBASE
  1

  9
$STYLESHEET
  1

  9
$XEDIT
290
     1
  9
$CEPSNTYPE
380
     0
  9
$PSTYLEMODE
290
     1
  9
$FINGERPRINTGUID
  2
{9DFB5F12-FE38-410F-B4C1-738DA96BFA2A}
  9
$VERSIONGUID
  2
{91788F15-5B77-4B1C-821D-B7F4709F4EC3}
  9
$EXTNAMES
290
     1
  9
$PSVPSCALE
 40
0.0
  9
$OLESTARTUP
290
     0
  9
$SORTENTS
280
   127
  9
$INDEXCTL
280
     0
  9
$HIDETEXT
280
     1
  9
$XCLIPFRAME
290
     0
  9
$HALOGAP
280
     0
  9
$OBSCOLOR
 70
   257
  9
$OBSLTYPE
280
     0
  9
$INTERSECTIONDISPLAY
280
     0
  9
$INTERSECTIONCOLOR
 70
   257
  9
$DIMASSOC
280
     2
  9
$PROJECTNAME
  1

  0
ENDSEC
  0
SECTION
  2
CLASSES
  0
CLASS
  1
ACDBDICTIONARYWDFLT
  2
AcDbDictionaryWithDefault
  3
ObjectDBX Classes
 90
        0
 91
        1
280
     0
281
     0
  0
CLASS
  1
MATERIAL
  2
AcDbMaterial
  3
ObjectDBX Classes
 90
     1153
 91
        3
280
     0
281
     0
  0
CLASS
  1
VISUALSTYLE
  2
AcDbVisualStyle
  3
ObjectDBX Classes
 90
     4095
 91
       19
280
     0
281
     0
  0
CLASS
  1
SCALE
  2
AcDbScale
  3
ObjectDBX Classes
 90
     1153
 91
       17
280
     0
281
     0
  0
CLASS
  1
TABLESTYLE
  2
AcDbTableStyle
  3
ObjectDBX Classes
 90
     4095
 91
        1
280
     0
281
     0
  0
CLASS
  1
MLEADERSTYLE
  2
AcDbMLeaderStyle
  3
ACDB_MLEADERSTYLE_CLASS
 90
     4095
 91
        1
280
     0
281
     0
  0
CLASS
  1
SORTENTSTABLE
  2
AcDbSortentsTable
  3
ObjectDBX Classes
 90
        0
 91
      129
280
     0
281
     0
  0
CLASS
  1
AEC_REFEDIT_STATUS_TRACKER
  2
AecDbRefEditStatusTracker
  3
AecArchBase60|Product Desc: Autodesk Architectural Desktop 2007 |Company: Autodesk,Inc. |WEB Address: www.autodesk.com
 90
      129
 91
        1
280
     0
281
     0
  0
CLASS
  1
NPOCOLLECTION
  2
AcDbImpNonPersistentObjectsCollection
  3
ObjectDBX Classes
 90
     1153
 91
        1
280
     0
281
     0
  0
CLASS
  1
DICTIONARYVAR
  2
AcDbDictionaryVar
  3
ObjectDBX Classes
 90
        0
 91
      174
280
     0
281
     0
  0
CLASS
  1
CELLSTYLEMAP
  2
AcDbCellStyleMap
  3
ObjectDBX Classes
 90
     1152
 91
       20
280
     0
281
     0
  0
CLASS
  1
DIMASSOC
  2
AcDbDimAssoc
  3
"AcDbDimAssoc|Product Desc:     AcDim ARX App For Dimension|Company:          Autodesk, Inc.|WEB Address:      www.autodesk.com"
 90
        0
 91
        2
280
     0
281
     0
  0
ENDSEC
  0
SECTION
  2
TABLES
  0
TABLE
  2
VPORT
  5
8
330
0
100
AcDbSymbolTable
 70
     1
  0
VPORT
  5
52
330
8
100
AcDbSymbolTableRecord
100
AcDbViewportTableRecord
  2
*Active
 70
     0
 10
0.0
 20
0.0
 11
1.0
 21
1.0
 12
478.6313472850165
 22
442.2454019019757
 13
0.0
 23
0.0
 14
10.0
 24
10.0
 15
10.0
 25
10.0
 16
0.0
 26
0.0
 36
1.0
 17
0.0
 27
0.0
 37
0.0
 40
645.1283415570601
 41
1.888286334056399
 42
50.0
 43
0.0
 44
0.0
 50
0.0
 51
0.0
 71
     0
 72
  1000
 73
     1
 74
     3
 75
     0
 76
     0
 77
     0
 78
     0
281
     0
 65
     1
110
0.0
120
0.0
130
0.0
111
1.0
121
0.0
131
0.0
112
0.0
122
1.0
132
0.0
 79
     0
146
0.0
  0
ENDTAB
  0
TABLE
  2
LTYPE
  5
5
330
0
100
AcDbSymbolTable
 70
     2
  0
LTYPE
  5
56
330
5
100
AcDbSymbolTableRecord
100
AcDbLinetypeTableRecord
  2
ByBlock
 70
     0
  3

 72
    65
 73
     0
 40
0.0
  0
LTYPE
  5
57
330
5
100
AcDbSymbolTableRecord
100
AcDbLinetypeTableRecord
  2
ByLayer
 70
     0
  3

 72
    65
 73
     0
 40
0.0
  0
LTYPE
  5
58
330
5
100
AcDbSymbolTableRecord
100
AcDbLinetypeTableRecord
  2
Continuous
 70
     0
  3
Solid line
 72
    65
 73
     0
 40
0.0
  0
LTYPE
  5
7B49
330
5
100
AcDbSymbolTableRecord
100
AcDbLinetypeTableRecord
  2
JIS_02_0.7
 70
     0
  3
HIDDEN0.75 _ _ _ _ _ _ _ _ _ _ _ _ _ _ _ _ _
 72
    65
 73
     2
 40
1.35
 49
0.75
 74
     0
 49
-0.6
 74
     0
  0
ENDTAB
  0
TABLE
  2
LAYER
  5
2
102
{ACAD_XDICTIONARY
360
7B59
102
}
330
0
100
AcDbSymbolTable
 70
     6
  0
LAYER
  5
4F
330
2
100
AcDbSymbolTableRecord
100
AcDbLayerTableRecord
  2
0
 70
     0
 62
     7
  6
Continuous
370
    -3
390
F
  0
LAYER
  5
7B4A
330
2
100
AcDbSymbolTableRecord
100
AcDbLayerTableRecord
  2
F_01 sichtbar
 70
     0
 62
     7
  6
Continuous
370
    -3
390
F
1001
AcAecLayerStandard
1000

1000

  0
LAYER
  5
7B4B
330
2
100
AcDbSymbolTableRecord
100
AcDbLayerTableRecord
  2
F_31 Ansichtsfenster
 70
     0
 62
    12
  6
Continuous
290
     0
370
    40
390
F
1001
AcAecLayerStandard
1000

1000

  0
LAYER
  5
7B4C
330
2
100
AcDbSymbolTableRecord
100
AcDbLayerTableRecord
  2
F_02 unsichtbar
 70
     0
 62
     8
  6
JIS_02_0.7
370
    -3
390
F
1001
AcAecLayerStandard
1000

1000

  0
LAYER
  5
7B4D
330
2
100
AcDbSymbolTableRecord
100
AcDbLayerTableRecord
  2
F_15 Schr-Mauer hell
 70
     0
 62
   254
  6
Continuous
370
    -3
390
F
1001
AcAecLayerStandard
1000

1000

  0
LAYER
  5
7B4E
330
2
100
AcDbSymbolTableRecord
100
AcDbLayerTableRecord
  2
F_18 Schr-Holz hell
 70
     0
 62
    41
  6
Continuous
370
    -3
390
F
1001
AcAecLayerStandard
1000

1000

  0
ENDTAB
  0
TABLE
  2
STYLE
  5
3
330
0
100
AcDbSymbolTable
 70
     3
  0
STYLE
  5
50
330
3
100
AcDbSymbolTableRecord
100
AcDbTextStyleTableRecord
  2
Standard
 70
     0
 40
0.0
 41
1.0
 50
0.0
 71
     0
 42
2.5
  3
txt
  4

  0
STYLE
  5
55
330
3
100
AcDbSymbolTableRecord
100
AcDbTextStyleTableRecord
  2
Annotative
 70
     0
 40
0.0
 41
1.0
 50
0.0
 71
     0
 42
0.2
  3
txt
  4

1001
AcadAnnotative
1000
AnnotativeData
1002
{
1070
     1
1070
     1
1002
}
  0
STYLE
  5
7B4F
330
3
100
AcDbSymbolTableRecord
100
AcDbTextStyleTableRecord
  2
Arial
 70
     0
 40
0.0
 41
1.0
 50
0.0
 71
     0
 42
3.0
  3
ARIALN.TTF
  4

1001
AcadAnnotative
1000
AnnotativeData
1002
{
1070
     1
1070
     1
1002
}
1001
ACAD
1000
Arial Narrow
1071
       34
  0
ENDTAB
  0
TABLE
  2
VIEW
  5
6
330
0
100
AcDbSymbolTable
 70
     0
  0
ENDTAB
  0
TABLE
  2
UCS
  5
7
330
0
100
AcDbSymbolTable
 70
     0
  0
ENDTAB
  0
TABLE
  2
APPID
  5
9
330
0
100
AcDbSymbolTable
 70
     8
  0
APPID
  5
51
330
9
100
AcDbSymbolTableRecord
100
AcDbRegAppTableRecord
  2
ACAD
 70
     0
  0
APPID
  5
59
330
9
100
AcDbSymbolTableRecord
100
AcDbRegAppTableRecord
  2
AcadAnnotative
 70
     0
  0
APPID
  5
7B55
330
9
100
AcDbSymbolTableRecord
100
AcDbRegAppTableRecord
  2
AcAecLayerStandard
 70
     0
  0
APPID
  5
7B56
330
9
100
AcDbSymbolTableRecord
100
AcDbRegAppTableRecord
  2
ACAD_PSEXT
 70
     0
  0
APPID
  5
7B57
330
9
100
AcDbSymbolTableRecord
100
AcDbRegAppTableRecord
  2
ACAD_DSTYLE_DIMJAG
 70
     0
  0
APPID
  5
7B58
330
9
100
AcDbSymbolTableRecord
100
AcDbRegAppTableRecord
  2
ACAD_DSTYLE_DIMTALN
 70
     0
  0
APPID
  5
7C41
330
9
100
AcDbSymbolTableRecord
100
AcDbRegAppTableRecord
  2
ACAD_DSTYLE_DIMJOGGED_JOGANGLE_SYMBOL
 70
     0
  0
APPID
  5
7C43
330
9
100
AcDbSymbolTableRecord
100
AcDbRegAppTableRecord
  2
ACAD_MLEADERVER
 70
     0
  0
ENDTAB
  0
TABLE
  2
DIMSTYLE
  5
A
330
0
100
AcDbSymbolTable
 70
     7
100
AcDbDimStyleTable
 71
     0
  0
DIMSTYLE
105
53
330
A
100
AcDbSymbolTableRecord
100
AcDbDimStyleTableRecord
  2
ISO-25
 70
     0
 41
2.5
 42
0.625
 43
3.75
 44
1.25
 73
     0
 74
     0
 77
     1
 78
     8
140
2.5
141
2.5
143
0.03937007874016
147
0.625
171
     3
172
     1
271
     2
272
     2
274
     3
278
    44
283
     0
284
     8
340
50
1001
ACAD_DSTYLE_DIMJOGGED_JOGANGLE_SYMBOL
1070
   384
1040
1.570796326794896
  0
DIMSTYLE
105
54
330
A
100
AcDbSymbolTableRecord
100
AcDbDimStyleTableRecord
  2
Annotative
 70
     0
340
50
1001
AcadAnnotative
1000
AnnotativeData
1002
{
1070
     1
1070
     1
1002
}
  0
DIMSTYLE
105
7B50
330
A
100
AcDbSymbolTableRecord
100
AcDbDimStyleTableRecord
  2
MST 1-1
 70
     0
 41
2.0
 42
2.0
 43
2.0
 44
1.0
 46
2.0
 73
     0
 74
     0
 77
     3
 78
     8
 79
     2
140
3.0
141
2.5
143
0.03937007874016
147
1.0
171
     3
176
   256
177
   256
178
     3
179
     1
271
     1
272
     1
274
     3
279
     2
284
     8
340
7B4F
342
7B43
1001
ACAD_DSTYLE_DIMJAG
1070
   388
1040
1.5
1001
ACAD_DSTYLE_DIMTALN
1070
   392
1070
     0
  0
DIMSTYLE
105
7B51
330
A
100
AcDbSymbolTableRecord
100
AcDbDimStyleTableRecord
  2
MST 1-2
 70
     0
 40
2.0
 41
2.0
 42
2.0
 43
2.0
 44
1.0
 46
2.0
 73
     0
 74
     0
 77
     3
 78
     8
 79
     2
140
3.0
141
1.0
143
0.03937007874016
147
1.0
171
     3
176
   256
177
   256
178
     3
179
     1
271
     1
272
     1
274
     3
279
     2
284
     8
340
7B4F
342
7B43
  0
DIMSTYLE
105
7B52
330
A
100
AcDbSymbolTableRecord
100
AcDbDimStyleTableRecord
  2
MST 1-5
 70
     0
 40
5.0
 41
1.5
 42
2.0
 43
2.0
 44
1.0
 46
2.0
 73
     0
 74
     0
 77
     3
 78
     8
 79
     2
140
3.0
141
1.0
143
0.03937007874016
147
1.0
171
     3
176
   256
177
   256
178
     3
179
     1
271
     1
272
     1
274
     3
279
     2
284
     8
340
7B4F
342
7B43
  0
DIMSTYLE
105
7B53
330
A
100
AcDbSymbolTableRecord
100
AcDbDimStyleTableRecord
  2
MST 1-10
 70
     0
 40
10.0
 41
2.0
 42
2.0
 43
2.0
 44
2.0
 46
2.0
 73
     0
 74
     0
 77
     3
 78
     8
 79
     2
140
3.0
141
1.0
143
0.03937007874016
147
1.0
171
     3
176
   256
177
   256
178
     3
179
     1
271
     1
272
     1
274
     3
279
     2
284
     8
340
7B4F
342
7B43
1001
ACAD_DSTYLE_DIMJAG
1070
   388
1040
1.5
1001
ACAD_DSTYLE_DIMTALN
1070
   392
1070
     0
  0
DIMSTYLE
105
7B54
330
A
100
AcDbSymbolTableRecord
100
AcDbDimStyleTableRecord
  2
MST 1-20
 70
     0
 40
20.0
 41
2.0
 42
2.0
 43
2.0
 44
1.0
 46
2.0
 73
     0
 74
     0
 77
     3
 78
     8
 79
     2
140
3.0
141
1.0
143
0.03937007874016
147
1.0
171
     3
176
   256
177
   256
178
     3
179
     1
271
     1
272
     1
274
     3
279
     2
284
     8
340
7B4F
342
7B43
  0
ENDTAB
  0
TABLE
  2
BLOCK_RECORD
  5
1
330
0
100
AcDbSymbolTable
 70
     3
  0
BLOCK_RECORD
  5
67
330
1
100
AcDbSymbolTableRecord
100
AcDbBlockTableRecord
  2
*Model_Space
340
6A
  0
BLOCK_RECORD
  5
63
330
1
100
AcDbSymbolTableRecord
100
AcDbBlockTableRecord
  2
*Paper_Space
340
66
  0
BLOCK_RECORD
  5
6B
330
1
100
AcDbSymbolTableRecord
100
AcDbBlockTableRecord
  2
*Paper_Space0
340
6E
  0
BLOCK_RECORD
  5
7B43
102
{ACAD_XDICTIONARY
360
7B44
102
}
330
1
100
AcDbSymbolTableRecord
100
AcDbBlockTableRecord
  2
_ArchTick
340
0
310
2800000020000000200000000100080000000000000400000000000000000000000000000000000000000000000080000080000000808000800000008000800080800000C0C0C000C0DCC000F0CAA6000020400000206000002080000020A0000020C0000020E00000400000004020000040400000406000004080000040A0
310
000040C0000040E00000600000006020000060400000606000006080000060A0000060C0000060E00000800000008020000080400000806000008080000080A0000080C0000080E00000A0000000A0200000A0400000A0600000A0800000A0A00000A0C00000A0E00000C0000000C0200000C0400000C0600000C0800000C0
310
A00000C0C00000C0E00000E0000000E0200000E0400000E0600000E0800000E0A00000E0C00000E0E00040000000400020004000400040006000400080004000A0004000C0004000E00040200000402020004020400040206000402080004020A0004020C0004020E000404000004040200040404000404060004040800040
310
40A0004040C0004040E00040600000406020004060400040606000406080004060A0004060C0004060E00040800000408020004080400040806000408080004080A0004080C0004080E00040A0000040A0200040A0400040A0600040A0800040A0A00040A0C00040A0E00040C0000040C0200040C0400040C0600040C08000
310
40C0A00040C0C00040C0E00040E0000040E0200040E0400040E0600040E0800040E0A00040E0C00040E0E00080000000800020008000400080006000800080008000A0008000C0008000E00080200000802020008020400080206000802080008020A0008020C0008020E00080400000804020008040400080406000804080
310
008040A0008040C0008040E00080600000806020008060400080606000806080008060A0008060C0008060E00080800000808020008080400080806000808080008080A0008080C0008080E00080A0000080A0200080A0400080A0600080A0800080A0A00080A0C00080A0E00080C0000080C0200080C0400080C0600080C0
310
800080C0A00080C0C00080C0E00080E0000080E0200080E0400080E0600080E0800080E0A00080E0C00080E0E000C0000000C0002000C0004000C0006000C0008000C000A000C000C000C000E000C0200000C0202000C0204000C0206000C0208000C020A000C020C000C020E000C0400000C0402000C0404000C0406000C0
310
408000C040A000C040C000C040E000C0600000C0602000C0604000C0606000C0608000C060A000C060C000C060E000C0800000C0802000C0804000C0806000C0808000C080A000C080C000C080E000C0A00000C0A02000C0A04000C0A06000C0A08000C0A0A000C0A0C000C0A0E000C0C00000C0C02000C0C04000C0C06000
310
C0C08000C0C0A000F0FBFF00A4A0A000808080000000FF0000FF000000FFFF00FF000000FF00FF00FFFF0000FFFFFF00FFFFFF00FFFFFFFFFFFFFFFFFFFFFFFFFFFFFFFFFFFFFFFFFFFFFFFFFFFFFFFFFFFF00FF00FFFFFFFFFFFFFFFFFFFFFFFFFFFFFFFFFFFFFFFFFFFFFFFFFFFFFFFF00FFFFFF00FFFFFFFFFFFFFFFFFF
310
FFFFFFFFFFFFFFFFFFFFFFFFFFFFFFFFFF00FFFFFFFFFF00FFFFFFFFFFFFFFFFFFFFFFFFFFFFFFFFFFFFFFFFFFFFFFFFFFFF00FFFFFFFFFF00FFFFFFFFFFFFFFFFFFFFFFFFFFFFFFFFFFFFFFFFFFFFFFFFFFFF00FFFFFFFFFF00FFFFFFFFFFFFFFFFFFFFFFFFFFFFFFFFFFFFFFFFFFFFFFFFFFFF00FFFFFFFFFF00FFFFFFFF
310
FFFFFFFFFFFFFFFFFFFFFFFFFFFFFFFFFFFFFFFFFFFF00FFFFFFFFFF00FFFFFFFFFFFFFFFFFFFFFFFFFFFFFFFFFFFFFFFFFFFFFFFFFFFF00FFFFFFFFFF00FFFFFFFFFFFFFFFFFFFFFFFFFFFFFFFFFFFFFFFFFFFFFFFFFFFF00FFFFFFFFFF00FFFFFFFFFFFFFFFFFFFFFFFFFFFFFFFFFFFFFFFFFFFFFFFFFFFF00FFFFFFFFFF
310
00FFFFFFFFFFFFFFFFFFFFFFFFFFFFFFFFFFFFFFFFFFFFFFFFFFFF00FFFFFFFFFF00FFFFFFFFFFFFFFFFFFFFFFFFFFFFFFFFFFFFFFFFFFFFFFFFFFFF00FFFFFFFFFF00FFFFFFFFFFFFFFFFFFFFFFFFFFFFFFFFFFFFFFFFFFFFFFFFFFFF00FFFFFFFFFF00FFFFFFFFFFFFFFFFFFFFFFFFFFFFFFFFFFFFFFFFFFFFFFFFFFFF00
310
FFFFFFFFFF00FFFFFFFFFFFFFFFFFFFFFFFFFFFFFFFFFFFFFFFFFFFFFFFFFFFF00FFFFFFFFFF00FFFFFFFFFFFFFFFFFFFFFFFFFFFFFFFFFFFFFFFFFFFFFFFFFFFF00FFFFFFFFFF00FFFFFFFFFFFFFFFFFFFFFFFFFFFFFFFFFFFFFFFFFFFFFFFFFFFF00FFFFFFFFFF00FFFFFFFFFFFFFFFFFFFFFFFFFFFFFFFFFFFFFFFFFFFF
310
FFFFFFFF00FFFFFFFFFF00FFFFFFFFFFFFFFFFFFFFFFFFFFFFFFFFFFFFFFFFFFFFFFFFFFFF00FFFFFFFFFF00FFFFFFFFFFFFFFFFFFFFFFFFFFFFFFFFFFFFFFFFFFFFFFFFFFFF00FFFFFFFFFF00FFFFFFFFFFFFFFFFFFFFFFFFFFFFFFFFFFFFFFFFFFFFFFFFFFFF00FFFFFFFFFF00FFFFFFFFFFFFFFFFFFFFFFFFFFFFFFFFFF
310
FFFFFFFFFFFFFFFFFF00FFFFFFFFFF00FFFFFFFFFFFFFFFFFFFFFFFFFFFFFFFFFFFFFFFFFFFFFFFFFFFF00FFFFFFFFFF00FFFFFFFFFFFFFFFFFFFFFFFFFFFFFFFFFFFFFFFFFFFFFFFFFFFF00FFFFFFFFFF00FFFFFFFFFFFFFFFFFFFFFFFFFFFFFFFFFFFFFFFFFFFFFFFFFFFF00FFFFFFFFFF00FFFFFFFFFFFFFFFFFFFFFFFF
310
FFFFFFFFFFFFFFFFFFFFFFFFFFFF00FFFFFFFFFF00FFFFFFFFFFFFFFFFFFFFFFFFFFFFFFFFFFFFFFFFFFFFFFFFFFFF00FFFFFFFFFF00FFFFFFFFFFFFFFFFFFFFFFFFFFFFFFFFFFFFFFFFFFFFFFFFFFFF00FFFFFFFFFF00FFFFFFFFFFFFFFFFFFFFFFFFFFFFFFFFFFFFFFFFFFFFFFFFFFFF00FFFFFF00FFFFFFFFFFFFFFFFFF
310
FFFFFFFFFFFFFFFFFFFFFFFFFFFFFFFFFFFFFF00FF00FFFFFFFFFFFFFFFFFFFFFFFFFFFFFFFFFFFFFFFFFFFFFFFFFFFFFFFFFFFF00FFFFFF
  0
ENDTAB
  0
ENDSEC
  0
SECTION
  2
BLOCKS
  0
BLOCK
  5
68
330
67
100
AcDbEntity
  8
0
100
AcDbBlockBegin
  2
*Model_Space
 70
     0
 10
0.0
 20
0.0
 30
0.0
  3
*Model_Space
  1

  0
ENDBLK
  5
69
330
67
100
AcDbEntity
  8
0
100
AcDbBlockEnd
  0
BLOCK
  5
64
330
63
100
AcDbEntity
 67
     1
  8
0
100
AcDbBlockBegin
  2
*Paper_Space
 70
     0
 10
0.0
 20
0.0
 30
0.0
  3
*Paper_Space
  1

  0
ENDBLK
  5
65
330
63
100
AcDbEntity
 67
     1
  8
0
100
AcDbBlockEnd
  0
BLOCK
  5
6C
330
6B
100
AcDbEntity
 67
     1
  8
0
100
AcDbBlockBegin
  2
*Paper_Space0
 70
     0
 10
0.0
 20
0.0
 30
0.0
  3
*Paper_Space0
  1

  0
ENDBLK
  5
6D
330
6B
100
AcDbEntity
 67
     1
  8
0
100
AcDbBlockEnd
  0
BLOCK
  5
7B46
330
7B43
100
AcDbEntity
  8
0
100
AcDbBlockBegin
  2
_ArchTick
 70
     0
 10
0.0
 20
0.0
 30
0.0
  3
_ArchTick
  1

  0
LWPOLYLINE
  5
7B47
330
7B43
100
AcDbEntity
  8
0
  6
ByBlock
 62
     7
100
AcDbPolyline
 90
        2
 70
     0
 43
0.15
 10
-0.5
 20
-0.5
 10
0.5
 20
0.5
  0
ENDBLK
  5
7B48
330
7B43
100
AcDbEntity
  8
0
100
AcDbBlockEnd
  0
ENDSEC
  0
SECTION
  2
ENTITIES
  0
HATCH
  5
7BB6
330
67
100
AcDbEntity
  8
F_18 Schr-Holz hell
370
    13
100
AcDbHatch
 10
0.0
 20
0.0
 30
0.0
210
0.0
220
0.0
230
1.0
  2
SOLID
 70
     1
 71
     0
 91
        1
 92
        1
 93
        7
 72
     1
 10
679.0259324905055
 20
358.3668118314117
 11
477.6837489755853
 21
358.3668116900453
 72
     1
 10
477.6837489755853
 20
358.3668116900435
 11
477.6837489755853
 21
352.8670597355149
 72
     1
 10
477.6837489755853
 20
352.8670597355149
 11
451.7835878479309
 21
352.8670597355149
 72
     1
 10
451.7835878479309
 20
352.8670597355149
 11
450.1835878479396
 21
321.3670597355149
 72
     1
 10
450.1835878479396
 20
321.3670597355149
 11
450.1835878479396
 21
316.3670597355149
 72
     1
 10
450.1835878479396
 20
316.3670597355149
 11
679.0259324905055
 21
316.3670597355167
 72
     1
 10
679.0259324905055
 20
316.3670597355185
 11
679.0259324905055
 21
358.3668118314117
 97
        0
 75
     0
 76
     1
 98
        1
 10
-31273.1215719669
 20
-14160.6737251397
450
        0
451
        0
460
0.0
461
0.0
452
        1
462
1.0
453
        2
463
0.0
 63
     5
421
      255
463
1.0
 63
     7
421
 16777215
470
LINEAR
1001
ACAD
1010
0.0
1020
0.0
1030
0.0
  0
HATCH
  5
7BB7
330
67
100
AcDbEntity
  8
F_15 Schr-Mauer hell
370
    13
100
AcDbHatch
 10
0.0
 20
0.0
 30
0.0
210
0.0
220
0.0
230
1.0
  2
SOLID
 70
     1
 71
     0
 91
        1
 92
        1
 93
        4
 72
     1
 10
278.2399352840657
 20
530.8670234695045
 11
278.239935284073
 21
330.8670234695046
 72
     1
 10
278.239935284073
 20
330.8670234695046
 11
440.1835878478959
 21
330.8670234695064
 72
     1
 10
440.1835878478959
 20
330.8670234695082
 11
440.1835878478959
 21
530.8670234695064
 72
     1
 10
440.1835878478959
 20
530.8670234695045
 11
278.2399352840657
 21
530.8670234695045
 97
        0
 75
     0
 76
     1
 98
        1
 10
229.0945934091433
 20
492.4555246295885
450
        0
451
        0
460
0.0
461
0.0
452
        1
462
1.0
453
        2
463
0.0
 63
     5
421
      255
463
1.0
 63
     7
421
 16777215
470
LINEAR
1001
ACAD
1010
0.0
1020
0.0
1030
0.0
  0
HATCH
  5
7BB8
330
67
100
AcDbEntity
  8
F_01 sichtbar
370
    13
100
AcDbHatch
 10
0.0
 20
0.0
 30
0.0
210
0.0
220
0.0
230
1.0
  2
BATT_INSULATION
 70
     0
 71
     0
 91
        1
 92
        1
 93
        4
 72
     1
 10
679.0259324905055
 20
353.3670597355149
 11
679.0259324905055
 21
321.3781639416875
 72
     1
 10
679.0259324905055
 20
321.3781639416875
 11
508.1835878479396
 21
321.3781639416893
 72
     1
 10
508.1835878479396
 20
321.3781639416911
 11
508.1835878479396
 21
353.3670597355185
 72
     1
 10
508.1835878479396
 20
353.3670597355185
 11
679.0259324905055
 21
353.3670597355167
 97
        0
 75
     0
 76
     2
 52
180.0
 41
32.77964320184142
 77
     0
 78
   528
 53
0.000000000000007
 43
12330.7199248295
 44
1611.195199766912
 45
10.95203936981043
 46
-36.87709860207159
 79
     2
 49
0.0
 49
-10.95203936981043
 53
345.9236
 43
12325.24388875477
 44
1607.09774436668
 45
10.95202660980681
 46
0.000004046117522
 79
     2
 49
2.663936043727233
 49
-1058.697838380723
 53
345.9236
 43
12325.24388875477
 44
1570.220645764605
 45
10.95202660980681
 46
0.000004046117522
 79
     2
 49
2.663936043727233
 49
-1058.697838380723
 53
345.9236
 43
12325.24388875477
 44
1533.343547162537
 45
10.95202660980681
 46
0.000004046117522
 79
     2
 49
2.663936043727233
 49
-1058.697838380723
 53
345.9236
 43
12325.24388875477
 44
1496.466448560461
 45
10.95202660980681
 46
0.000004046117522
 79
     2
 49
2.663936043727233
 49
-1058.697838380723
 53
345.9236
 43
12325.24388875477
 44
1459.589349958393
 45
10.95202660980681
 46
0.000004046117522
 79
     2
 49
2.663936043727233
 49
-1058.697838380723
 53
345.9236
 43
12325.24388875477
 44
1422.712251356325
 45
10.95202660980681
 46
0.000004046117522
 79
     2
 49
2.663936043727233
 49
-1058.697838380723
 53
345.9236
 43
12325.24388875477
 44
1385.83515275425
 45
10.95202660980681
 46
0.000004046117522
 79
     2
 49
2.663936043727233
 49
-1058.697838380723
 53
334.9544
 43
12326.51957412925
 44
1576.280618403335
 45
10.9520365279484
 46
-0.0000117218229823
 79
     2
 49
4.636287175181994
 49
-2957.102061108975
 53
334.9544
 43
12326.51957412925
 44
1539.40351980126
 45
10.9520365279484
 46
-0.0000117218229823
 79
     2
 49
4.636287175181994
 49
-2957.102061108975
 53
334.9544
 43
12326.51957412925
 44
1502.526421199191
 45
10.9520365279484
 46
-0.0000117218229823
 79
     2
 49
4.636287175181994
 49
-2957.102061108975
 53
334.9544
 43
12326.51957412925
 44
1465.649322597116
 45
10.9520365279484
 46
-0.0000117218229823
 79
     2
 49
4.636287175181994
 49
-2957.102061108975
 53
334.9544
 43
12326.51957412925
 44
1428.772223995044
 45
10.9520365279484
 46
-0.0000117218229823
 79
     2
 49
4.636287175181994
 49
-2957.102061108975
 53
334.9544
 43
12326.51957412925
 44
1391.895125392973
 45
10.9520365279484
 46
-0.0000117218229823
 79
     2
 49
4.636287175181994
 49
-2957.102061108975
 53
334.9544
 43
12326.51957412925
 44
1355.018026790904
 45
10.9520365279484
 46
-0.0000117218229823
 79
     2
 49
4.636287175181994
 49
-2957.102061108975
 53
334.9544
 43
12326.51957412925
 44
1318.140928188829
 45
10.9520365279484
 46
-0.0000117218229823
 79
     2
 49
4.636287175181994
 49
-2957.102061108975
 53
334.9544
 43
12326.51957412925
 44
1281.264812976059
 45
10.9520365279484
 46
-0.0000117218229823
 79
     2
 49
4.636287175181994
 49
-2957.102061108975
 53
334.9544
 43
12326.51957412925
 44
1244.387714373984
 45
10.9520365279484
 46
-0.0000117218229823
 79
     2
 49
4.636287175181994
 49
-2957.102061108975
 53
334.9544
 43
12326.51957412925
 44
1207.510615771912
 45
10.9520365279484
 46
-0.0000117218229823
 79
     2
 49
4.636287175181994
 49
-2957.102061108975
 53
334.9544
 43
12326.51957412925
 44
1170.63351716984
 45
10.9520365279484
 46
-0.0000117218229823
 79
     2
 49
4.636287175181994
 49
-2957.102061108975
 53
334.9544
 43
12326.51957412925
 44
1133.756418567768
 45
10.9520365279484
 46
-0.0000117218229823
 79
     2
 49
4.636287175181994
 49
-2957.102061108975
 53
334.9544
 43
12326.51957412925
 44
1096.8793199657
 45
10.9520365279484
 46
-0.0000117218229823
 79
     2
 49
4.636287175181994
 49
-2957.102061108975
 53
334.9544
 43
12326.51957412925
 44
1060.002221363628
 45
10.9520365279484
 46
-0.0000117218229823
 79
     2
 49
4.636287175181994
 49
-2957.102061108975
 53
334.9544
 43
12326.51957412925
 44
1023.125122761553
 45
10.9520365279484
 46
-0.0000117218229823
 79
     2
 49
4.636287175181994
 49
-2957.102061108975
 53
334.9544
 43
12326.51957412925
 44
986.2480241594848
 45
10.9520365279484
 46
-0.0000117218229823
 79
     2
 49
4.636287175181994
 49
-2957.102061108975
 53
334.9544
 43
12326.51957412925
 44
949.3709255574131
 45
10.9520365279484
 46
-0.0000117218229823
 79
     2
 49
4.636287175181994
 49
-2957.102061108975
 53
334.9544
 43
12326.51957412925
 44
912.4938269553412
 45
10.9520365279484
 46
-0.0000117218229823
 79
     2
 49
4.636287175181994
 49
-2957.102061108975
 53
334.9544
 43
12326.51957412925
 44
875.616728353266
 45
10.9520365279484
 46
-0.0000117218229823
 79
     2
 49
4.636287175181994
 49
-2957.102061108975
 53
334.9544
 43
12326.51957412925
 44
838.7396297511978
 45
10.9520365279484
 46
-0.0000117218229823
 79
     2
 49
4.636287175181994
 49
-2957.102061108975
 53
334.9544
 43
12326.51957412925
 44
801.8625311491259
 45
10.9520365279484
 46
-0.0000117218229823
 79
     2
 49
4.636287175181994
 49
-2957.102061108975
 53
334.9544
 43
12326.51957412925
 44
764.9854325470542
 45
10.9520365279484
 46
-0.0000117218229823
 79
     2
 49
4.636287175181994
 49
-2957.102061108975
 53
334.9544
 43
12326.51957412925
 44
728.1083339449788
 45
10.9520365279484
 46
-0.0000117218229823
 79
     2
 49
4.636287175181994
 49
-2957.102061108975
 53
334.9544
 43
12326.51957412925
 44
691.2312353429106
 45
10.9520365279484
 46
-0.0000117218229823
 79
     2
 49
4.636287175181994
 49
-2957.102061108975
 53
334.9544
 43
12326.51957412925
 44
654.3541367408424
 45
10.9520365279484
 46
-0.0000117218229823
 79
     2
 49
4.636287175181994
 49
-2957.102061108975
 53
334.9544
 43
12326.51957412925
 44
617.477038138767
 45
10.9520365279484
 46
-0.0000117218229823
 79
     2
 49
4.636287175181994
 49
-2957.102061108975
 53
334.9544
 43
12326.51957412925
 44
580.5999395366988
 45
10.9520365279484
 46
-0.0000117218229823
 79
     2
 49
4.636287175181994
 49
-2957.102061108975
 53
334.9544
 43
12326.51957412925
 44
543.7228409346235
 45
10.9520365279484
 46
-0.0000117218229823
 79
     2
 49
4.636287175181994
 49
-2957.102061108975
 53
334.9544
 43
12326.51957412925
 44
506.845742332548
 45
10.9520365279484
 46
-0.0000117218229823
 79
     2
 49
4.636287175181994
 49
-2957.102061108975
 53
334.9544
 43
12326.51957412925
 44
469.9686437304799
 45
10.9520365279484
 46
-0.0000117218229823
 79
     2
 49
4.636287175181994
 49
-2957.102061108975
 53
334.9544
 43
12326.51957412925
 44
433.0915451284117
 45
10.9520365279484
 46
-0.0000117218229823
 79
     2
 49
4.636287175181994
 49
-2957.102061108975
 53
334.9544
 43
12326.51957412925
 44
396.2144465263364
 45
10.9520365279484
 46
-0.0000117218229823
 79
     2
 49
4.636287175181994
 49
-2957.102061108975
 53
334.9544
 43
12326.51957412925
 44
359.3373479242646
 45
10.9520365279484
 46
-0.0000117218229823
 79
     2
 49
4.636287175181994
 49
-2957.102061108975
 53
307.5647
 43
12327.82784246908
 44
1606.449756379868
 45
10.95203172566192
 46
-0.0000024731155069
 79
     2
 49
4.503300162712156
 49
-1809.889024393901
 53
307.5647
 43
12327.82784246908
 44
1569.572592218507
 45
10.95203172566192
 46
-0.0000024731155069
 79
     2
 49
4.503300162712156
 49
-1809.889024393901
 53
307.5647
 43
12327.82784246908
 44
1532.695493616436
 45
10.95203172566192
 46
-0.0000024731155069
 79
     2
 49
4.503300162712156
 49
-1809.889024393901
 53
307.5647
 43
12327.82784246908
 44
1495.818395014367
 45
10.95203172566192
 46
-0.0000024731155069
 79
     2
 49
4.503300162712156
 49
-1809.889024393901
 53
307.5647
 43
12327.82784246908
 44
1458.941296412292
 45
10.95203172566192
 46
-0.0000024731155069
 79
     2
 49
4.503300162712156
 49
-1809.889024393901
 53
307.5647
 43
12327.82784246908
 44
1422.064197810217
 45
10.95203172566192
 46
-0.0000024731155069
 79
     2
 49
4.503300162712156
 49
-1809.889024393901
 53
307.5647
 43
12327.82784246908
 44
1385.187099208148
 45
10.95203172566192
 46
-0.0000024731155069
 79
     2
 49
4.503300162712156
 49
-1809.889024393901
 53
307.5647
 43
12327.82784246908
 44
1348.31000060608
 45
10.95203172566192
 46
-0.0000024731155069
 79
     2
 49
4.503300162712156
 49
-1809.889024393901
 53
307.5647
 43
12327.82784246908
 44
1311.432902004005
 45
10.95203172566192
 46
-0.0000024731155069
 79
     2
 49
4.503300162712156
 49
-1809.889024393901
 53
307.5647
 43
12327.82784246908
 44
1274.554820012638
 45
10.95203172566192
 46
-0.0000024731155069
 79
     2
 49
4.503300162712156
 49
-1809.889024393901
 53
307.5647
 43
12327.82784246908
 44
1237.67772141057
 45
10.95203172566192
 46
-0.0000024731155069
 79
     2
 49
4.503300162712156
 49
-1809.889024393901
 53
307.5647
 43
12327.82784246908
 44
1200.800622808495
 45
10.95203172566192
 46
-0.0000024731155069
 79
     2
 49
4.503300162712156
 49
-1809.889024393901
 53
307.5647
 43
12327.82784246908
 44
1163.92352420642
 45
10.95203172566192
 46
-0.0000024731155069
 79
     2
 49
4.503300162712156
 49
-1809.889024393901
 53
307.5647
 43
12327.82784246908
 44
1127.046425604351
 45
10.95203172566192
 46
-0.0000024731155069
 79
     2
 49
4.503300162712156
 49
-1809.889024393901
 53
307.5647
 43
12327.82784246908
 44
1090.169327002283
 45
10.95203172566192
 46
-0.0000024731155069
 79
     2
 49
4.503300162712156
 49
-1809.889024393901
 53
307.5647
 43
12327.82784246908
 44
1053.292228400208
 45
10.95203172566192
 46
-0.0000024731155069
 79
     2
 49
4.503300162712156
 49
-1809.889024393901
 53
307.5647
 43
12327.82784246908
 44
1016.415129798136
 45
10.95203172566192
 46
-0.0000024731155069
 79
     2
 49
4.503300162712156
 49
-1809.889024393901
 53
307.5647
 43
12327.82784246908
 44
979.5380311960643
 45
10.95203172566192
 46
-0.0000024731155069
 79
     2
 49
4.503300162712156
 49
-1809.889024393901
 53
307.5647
 43
12327.82784246908
 44
942.6609325939962
 45
10.95203172566192
 46
-0.0000024731155069
 79
     2
 49
4.503300162712156
 49
-1809.889024393901
 53
307.5647
 43
12327.82784246908
 44
905.7838339919207
 45
10.95203172566192
 46
-0.0000024731155069
 79
     2
 49
4.503300162712156
 49
-1809.889024393901
 53
307.5647
 43
12327.82784246908
 44
868.9067353898526
 45
10.95203172566192
 46
-0.0000024731155069
 79
     2
 49
4.503300162712156
 49
-1809.889024393901
 53
307.5647
 43
12327.82784246908
 44
832.0296367877771
 45
10.95203172566192
 46
-0.0000024731155069
 79
     2
 49
4.503300162712156
 49
-1809.889024393901
 53
307.5647
 43
12327.82784246908
 44
795.1525381857091
 45
10.95203172566192
 46
-0.0000024731155069
 79
     2
 49
4.503300162712156
 49
-1809.889024393901
 53
307.5647
 43
12327.82784246908
 44
758.2754395836373
 45
10.95203172566192
 46
-0.0000024731155069
 79
     2
 49
4.503300162712156
 49
-1809.889024393901
 53
307.5647
 43
12327.82784246908
 44
721.3983409815655
 45
10.95203172566192
 46
-0.0000024731155069
 79
     2
 49
4.503300162712156
 49
-1809.889024393901
 53
307.5647
 43
12327.82784246908
 44
684.5212423794901
 45
10.95203172566192
 46
-0.0000024731155069
 79
     2
 49
4.503300162712156
 49
-1809.889024393901
 53
307.5647
 43
12327.82784246908
 44
647.6441437774219
 45
10.95203172566192
 46
-0.0000024731155069
 79
     2
 49
4.503300162712156
 49
-1809.889024393901
 53
307.5647
 43
12327.82784246908
 44
610.7670451753538
 45
10.95203172566192
 46
-0.0000024731155069
 79
     2
 49
4.503300162712156
 49
-1809.889024393901
 53
307.5647
 43
12327.82784246908
 44
573.8899465732783
 45
10.95203172566192
 46
-0.0000024731155069
 79
     2
 49
4.503300162712156
 49
-1809.889024393901
 53
307.5647
 43
12327.82784246908
 44
537.0128479712065
 45
10.95203172566192
 46
-0.0000024731155069
 79
     2
 49
4.503300162712156
 49
-1809.889024393901
 53
307.5647
 43
12327.82784246908
 44
500.1357493691348
 45
10.95203172566192
 46
-0.0000024731155069
 79
     2
 49
4.503300162712156
 49
-1809.889024393901
 53
307.5647
 43
12327.82784246908
 44
463.2586507670594
 45
10.95203172566192
 46
-0.0000024731155069
 79
     2
 49
4.503300162712156
 49
-1809.889024393901
 53
307.5647
 43
12327.82784246908
 44
426.3815521649949
 45
10.95203172566192
 46
-0.0000024731155069
 79
     2
 49
4.503300162712156
 49
-1809.889024393901
 53
307.5647
 43
12327.82784246908
 44
389.5044535629231
 45
10.95203172566192
 46
-0.0000024731155069
 79
     2
 49
4.503300162712156
 49
-1809.889024393901
 53
307.5647
 43
12327.82784246908
 44
352.6273549608477
 45
10.95203172566192
 46
-0.0000024731155069
 79
     2
 49
4.503300162712156
 49
-1809.889024393901
 53
307.5647
 43
12327.82784246908
 44
315.7502563587796
 45
10.95203172566192
 46
-0.0000024731155069
 79
     2
 49
4.503300162712156
 49
-1809.889024393901
 53
307.5647
 43
12327.82784246908
 44
278.8731577567078
 45
10.95203172566192
 46
-0.0000024731155069
 79
     2
 49
4.503300162712156
 49
-1809.889024393901
 53
307.5647
 43
12327.82784246908
 44
241.9960591546351
 45
10.95203172566192
 46
-0.0000024731155069
 79
     2
 49
4.503300162712156
 49
-1809.889024393901
 53
307.5647
 43
12327.82784246908
 44
205.1189605525633
 45
10.95203172566192
 46
-0.0000024731155069
 79
     2
 49
4.503300162712156
 49
-1809.889024393901
 53
292.9384
 43
12320.77692482654
 44
1594.865922166983
 45
10.95204222721493
 46
-0.0000045639384487
 79
     2
 49
8.386475035331912
 49
-1593.356600854789
 53
292.9384
 43
12320.77692482654
 44
1557.98892190384
 45
10.95204222721493
 46
-0.0000045639384487
 79
     2
 49
8.386475035331912
 49
-1593.356600854789
 53
292.9384
 43
12320.77692482654
 44
1521.111823301765
 45
10.95204222721493
 46
-0.0000045639384487
 79
     2
 49
8.386475035331912
 49
-1593.356600854789
 53
292.9384
 43
12320.77692482654
 44
1484.234724699697
 45
10.95204222721493
 46
-0.0000045639384487
 79
     2
 49
8.386475035331912
 49
-1593.356600854789
 53
292.9384
 43
12320.77692482654
 44
1447.357626097629
 45
10.95204222721493
 46
-0.0000045639384487
 79
     2
 49
8.386475035331912
 49
-1593.356600854789
 53
292.9384
 43
12320.77692482654
 44
1410.480527495553
 45
10.95204222721493
 46
-0.0000045639384487
 79
     2
 49
8.386475035331912
 49
-1593.356600854789
 53
292.9384
 43
12320.77692482654
 44
1373.603428893481
 45
10.95204222721493
 46
-0.0000045639384487
 79
     2
 49
8.386475035331912
 49
-1593.356600854789
 53
292.9384
 43
12320.77692482654
 44
1336.72633029141
 45
10.95204222721493
 46
-0.0000045639384487
 79
     2
 49
8.386475035331912
 49
-1593.356600854789
 53
292.9384
 43
12320.77692482654
 44
1299.849231689341
 45
10.95204222721493
 46
-0.0000045639384487
 79
     2
 49
8.386475035331912
 49
-1593.356600854789
 53
292.9384
 43
12320.77692482654
 44
1262.970494105108
 45
10.95204222721493
 46
-0.0000045639384487
 79
     2
 49
8.386475035331912
 49
-1593.356600854789
 53
292.9384
 43
12320.77692482654
 44
1226.093395503037
 45
10.95204222721493
 46
-0.0000045639384487
 79
     2
 49
8.386475035331912
 49
-1593.356600854789
 53
292.9384
 43
12320.77692482654
 44
1189.216296900961
 45
10.95204222721493
 46
-0.0000045639384487
 79
     2
 49
8.386475035331912
 49
-1593.356600854789
 53
292.9384
 43
12320.77692482654
 44
1152.339198298893
 45
10.95204222721493
 46
-0.0000045639384487
 79
     2
 49
8.386475035331912
 49
-1593.356600854789
 53
292.9384
 43
12320.77692482654
 44
1115.462099696825
 45
10.95204222721493
 46
-0.0000045639384487
 79
     2
 49
8.386475035331912
 49
-1593.356600854789
 53
292.9384
 43
12320.77692482654
 44
1078.585001094749
 45
10.95204222721493
 46
-0.0000045639384487
 79
     2
 49
8.386475035331912
 49
-1593.356600854789
 53
292.9384
 43
12320.77692482654
 44
1041.707902492678
 45
10.95204222721493
 46
-0.0000045639384487
 79
     2
 49
8.386475035331912
 49
-1593.356600854789
 53
292.9384
 43
12320.77692482654
 44
1004.830803890606
 45
10.95204222721493
 46
-0.0000045639384487
 79
     2
 49
8.386475035331912
 49
-1593.356600854789
 53
292.9384
 43
12320.77692482654
 44
967.9537052885343
 45
10.95204222721493
 46
-0.0000045639384487
 79
     2
 49
8.386475035331912
 49
-1593.356600854789
 53
292.9384
 43
12320.77692482654
 44
931.0766066864662
 45
10.95204222721493
 46
-0.0000045639384487
 79
     2
 49
8.386475035331912
 49
-1593.356600854789
 53
292.9384
 43
12320.77692482654
 44
894.1995080843945
 45
10.95204222721493
 46
-0.0000045639384487
 79
     2
 49
8.386475035331912
 49
-1593.356600854789
 53
292.9384
 43
12320.77692482654
 44
857.322409482319
 45
10.95204222721493
 46
-0.0000045639384487
 79
     2
 49
8.386475035331912
 49
-1593.356600854789
 53
292.9384
 43
12320.77692482654
 44
820.4453108802509
 45
10.95204222721493
 46
-0.0000045639384487
 79
     2
 49
8.386475035331912
 49
-1593.356600854789
 53
292.9384
 43
12320.77692482654
 44
783.5682122781791
 45
10.95204222721493
 46
-0.0000045639384487
 79
     2
 49
8.386475035331912
 49
-1593.356600854789
 53
292.9384
 43
12320.77692482654
 44
746.6911136761073
 45
10.95204222721493
 46
-0.0000045639384487
 79
     2
 49
8.386475035331912
 49
-1593.356600854789
 53
292.9384
 43
12320.77692482654
 44
709.8140150740318
 45
10.95204222721493
 46
-0.0000045639384487
 79
     2
 49
8.386475035331912
 49
-1593.356600854789
 53
292.9384
 43
12320.77692482654
 44
672.9369164719637
 45
10.95204222721493
 46
-0.0000045639384487
 79
     2
 49
8.386475035331912
 49
-1593.356600854789
 53
292.9384
 43
12320.77692482654
 44
636.0598178698883
 45
10.95204222721493
 46
-0.0000045639384487
 79
     2
 49
8.386475035331912
 49
-1593.356600854789
 53
292.9384
 43
12320.77692482654
 44
599.1827192678202
 45
10.95204222721493
 46
-0.0000045639384487
 79
     2
 49
8.386475035331912
 49
-1593.356600854789
 53
292.9384
 43
12320.77692482654
 44
562.3056206657447
 45
10.95204222721493
 46
-0.0000045639384487
 79
     2
 49
8.386475035331912
 49
-1593.356600854789
 53
292.9384
 43
12320.77692482654
 44
525.4285220636766
 45
10.95204222721493
 46
-0.0000045639384487
 79
     2
 49
8.386475035331912
 49
-1593.356600854789
 53
292.9384
 43
12320.77692482654
 44
488.5514234616084
 45
10.95204222721493
 46
-0.0000045639384487
 79
     2
 49
8.386475035331912
 49
-1593.356600854789
 53
292.9384
 43
12320.77692482654
 44
451.674324859533
 45
10.95204222721493
 46
-0.0000045639384487
 79
     2
 49
8.386475035331912
 49
-1593.356600854789
 53
292.9384
 43
12320.77692482654
 44
414.7972262574612
 45
10.95204222721493
 46
-0.0000045639384487
 79
     2
 49
8.386475035331912
 49
-1593.356600854789
 53
292.9384
 43
12320.77692482654
 44
377.9201276553895
 45
10.95204222721493
 46
-0.0000045639384487
 79
     2
 49
8.386475035331912
 49
-1593.356600854789
 53
292.9384
 43
12320.77692482654
 44
341.0430290533177
 45
10.95204222721493
 46
-0.0000045639384487
 79
     2
 49
8.386475035331912
 49
-1593.356600854789
 53
292.9384
 43
12320.77692482654
 44
304.1659304512459
 45
10.95204222721493
 46
-0.0000045639384487
 79
     2
 49
8.386475035331912
 49
-1593.356600854789
 53
292.9384
 43
12320.77692482654
 44
267.2888318491768
 45
10.95204222721493
 46
-0.0000045639384487
 79
     2
 49
8.386475035331912
 49
-1593.356600854789
 53
292.9384
 43
12320.77692482654
 44
230.4117332471051
 45
10.95204222721493
 46
-0.0000045639384487
 79
     2
 49
8.386475035331912
 49
-1593.356600854789
 53
292.9384
 43
12320.77692482654
 44
193.5346346450296
 45
10.95204222721493
 46
-0.0000045639384487
 79
     2
 49
8.386475035331912
 49
-1593.356600854789
 53
292.9384
 43
12320.77692482654
 44
156.6575360429615
 45
10.95204222721493
 46
-0.0000045639384487
 79
     2
 49
8.386475035331912
 49
-1593.356600854789
 53
285.109
 43
12325.57168518679
 44
1579.794104459924
 45
0.0000000992044029
 46
-36.87707611878427
 79
     2
 49
3.638966530766021
 49
-416.5337124354709
 53
285.109
 43
12336.5237245566
 44
1579.794104459924
 45
0.0000000992044029
 46
-36.87707611878427
 79
     2
 49
3.638966530766021
 49
-416.5337124354709
 53
285.109
 43
12347.47576392641
 44
1579.794104459924
 45
0.0000000992044029
 46
-36.87707611878427
 79
     2
 49
3.638966530766021
 49
-416.5337124354709
 53
285.109
 43
12358.4278688555
 44
1579.794104459924
 45
0.0000000992044029
 46
-36.87707611878427
 79
     2
 49
3.638966530766021
 49
-416.5337124354709
 53
285.109
 43
12369.37987544567
 44
1579.794104459924
 45
0.0000000992044029
 46
-36.87707611878427
 79
     2
 49
3.638966530766021
 49
-416.5337124354709
 53
285.109
 43
12380.33188203584
 44
1579.794104459924
 45
0.0000000992044029
 46
-36.87707611878427
 79
     2
 49
3.638966530766021
 49
-416.5337124354709
 53
285.109
 43
12391.28388862601
 44
1579.794104459924
 45
0.0000000992044029
 46
-36.87707611878427
 79
     2
 49
3.638966530766021
 49
-416.5337124354709
 53
285.109
 43
12402.23589521617
 44
1579.794104459924
 45
0.0000000992044029
 46
-36.87707611878427
 79
     2
 49
3.638966530766021
 49
-416.5337124354709
 53
285.109
 43
12413.18790180634
 44
1579.794104459924
 45
0.0000000992044029
 46
-36.87707611878427
 79
     2
 49
3.638966530766021
 49
-416.5337124354709
 53
285.109
 43
12424.1399083965
 44
1579.794104459924
 45
0.0000000992044029
 46
-36.87707611878427
 79
     2
 49
3.638966530766021
 49
-416.5337124354709
 53
276.7473999999999
 43
12324.04507164359
 44
1587.142448195048
 45
0.0000035818718473
 46
-36.87716375543
 79
     2
 49
7.399774995313284
 49
-4560.119085052519
 53
276.7473999999999
 43
12334.9971110134
 44
1587.142448195048
 45
0.0000035818718473
 46
-36.87716375543
 79
     2
 49
7.399774995313284
 49
-4560.119085052519
 53
276.7473999999999
 43
12345.94915038321
 44
1587.142448195048
 45
0.0000035818718473
 46
-36.87716375543
 79
     2
 49
7.399774995313284
 49
-4560.119085052519
 53
276.7473999999999
 43
12356.9013208716
 44
1587.142448195048
 45
0.0000035818718473
 46
-36.87716375543
 79
     2
 49
7.399774995313284
 49
-4560.119085052519
 53
276.7473999999999
 43
12367.85332746176
 44
1587.142448195048
 45
0.0000035818718473
 46
-36.87716375543
 79
     2
 49
7.399774995313284
 49
-4560.119085052519
 53
276.7473999999999
 43
12378.80533405193
 44
1587.142448195048
 45
0.0000035818718473
 46
-36.87716375543
 79
     2
 49
7.399774995313284
 49
-4560.119085052519
 53
276.7473999999999
 43
12389.7573406421
 44
1587.142448195048
 45
0.0000035818718473
 46
-36.87716375543
 79
     2
 49
7.399774995313284
 49
-4560.119085052519
 53
276.7473999999999
 43
12400.70934723227
 44
1587.142448195048
 45
0.0000035818718473
 46
-36.87716375543
 79
     2
 49
7.399774995313284
 49
-4560.119085052519
 53
276.7473999999999
 43
12411.66135382243
 44
1587.142448195048
 45
0.0000035818718473
 46
-36.87716375543
 79
     2
 49
7.399774995313284
 49
-4560.119085052519
 53
276.7473999999999
 43
12422.6133604126
 44
1587.142448195048
 45
0.0000035818718473
 46
-36.87716375543
 79
     2
 49
7.399774995313284
 49
-4560.119085052519
 53
276.7473999999999
 43
12433.56536700277
 44
1587.142448195048
 45
0.0000035818718473
 46
-36.87716375543
 79
     2
 49
7.399774995313284
 49
-4560.119085052519
 53
276.7473999999999
 43
12444.51737359293
 44
1587.142448195048
 45
0.0000035818718473
 46
-36.87716375543
 79
     2
 49
7.399774995313284
 49
-4560.119085052519
 53
276.7473999999999
 43
12455.4693801831
 44
1587.142448195048
 45
0.0000035818718473
 46
-36.87716375543
 79
     2
 49
7.399774995313284
 49
-4560.119085052519
 53
276.7473999999999
 43
12466.42138677327
 44
1587.142448195048
 45
0.0000035818718473
 46
-36.87716375543
 79
     2
 49
7.399774995313284
 49
-4560.119085052519
 53
276.7473999999999
 43
12477.37372115987
 44
1587.142448195048
 45
0.0000035818718473
 46
-36.87716375543
 79
     2
 49
7.399774995313284
 49
-4560.119085052519
 53
276.7473999999999
 43
12488.32572775004
 44
1587.142448195048
 45
0.0000035818718473
 46
-36.87716375543
 79
     2
 49
7.399774995313284
 49
-4560.119085052519
 53
276.7473999999999
 43
12499.27773434019
 44
1587.142448195048
 45
0.0000035818718473
 46
-36.87716375543
 79
     2
 49
7.399774995313284
 49
-4560.119085052519
 53
276.7473999999999
 43
12510.22974093037
 44
1587.142448195048
 45
0.0000035818718473
 46
-36.87716375543
 79
     2
 49
7.399774995313284
 49
-4560.119085052519
 53
276.7473999999999
 43
12521.18174752053
 44
1587.142448195048
 45
0.0000035818718473
 46
-36.87716375543
 79
     2
 49
7.399774995313284
 49
-4560.119085052519
 53
276.7473999999999
 43
12532.1337541107
 44
1587.142448195048
 45
0.0000035818718473
 46
-36.87716375543
 79
     2
 49
7.399774995313284
 49
-4560.119085052519
 53
276.7473999999999
 43
12543.08576070087
 44
1587.142448195048
 45
0.0000035818718473
 46
-36.87716375543
 79
     2
 49
7.399774995313284
 49
-4560.119085052519
 53
276.7473999999999
 43
12554.03776729104
 44
1587.142448195048
 45
0.0000035818718473
 46
-36.87716375543
 79
     2
 49
7.399774995313284
 49
-4560.119085052519
 53
276.7473999999999
 43
12564.9897738812
 44
1587.142448195048
 45
0.0000035818718473
 46
-36.87716375543
 79
     2
 49
7.399774995313284
 49
-4560.119085052519
 53
276.7473999999999
 43
12575.94178047137
 44
1587.142448195048
 45
0.0000035818718473
 46
-36.87716375543
 79
     2
 49
7.399774995313284
 49
-4560.119085052519
 53
276.7473999999999
 43
12586.89411485797
 44
1587.142448195048
 45
0.0000035818718473
 46
-36.87716375543
 79
     2
 49
7.399774995313284
 49
-4560.119085052519
 53
276.7473999999999
 43
12597.84612144813
 44
1587.142448195048
 45
0.0000035818718473
 46
-36.87716375543
 79
     2
 49
7.399774995313284
 49
-4560.119085052519
 53
276.7473999999999
 43
12608.79812803831
 44
1587.142448195048
 45
0.0000035818718473
 46
-36.87716375543
 79
     2
 49
7.399774995313284
 49
-4560.119085052519
 53
276.7473999999999
 43
12619.75013462848
 44
1587.142448195048
 45
0.0000035818718473
 46
-36.87716375543
 79
     2
 49
7.399774995313284
 49
-4560.119085052519
 53
276.7473999999999
 43
12630.70214121864
 44
1587.142448195048
 45
0.0000035818718473
 46
-36.87716375543
 79
     2
 49
7.399774995313284
 49
-4560.119085052519
 53
276.7473999999999
 43
12641.65414780881
 44
1587.142448195048
 45
0.0000035818718473
 46
-36.87716375543
 79
     2
 49
7.399774995313284
 49
-4560.119085052519
 53
276.7473999999999
 43
12652.60582660254
 44
1587.142448195048
 45
0.0000035818718473
 46
-36.87716375543
 79
     2
 49
7.399774995313284
 49
-4560.119085052519
 53
276.7473999999999
 43
12663.55750539628
 44
1587.142448195048
 45
0.0000035818718473
 46
-36.87716375543
 79
     2
 49
7.399774995313284
 49
-4560.119085052519
 53
276.7473999999999
 43
12674.50918419001
 44
1587.142448195048
 45
0.0000035818718473
 46
-36.87716375543
 79
     2
 49
7.399774995313284
 49
-4560.119085052519
 53
276.7473999999999
 43
12685.46086298374
 44
1587.142448195048
 45
0.0000035818718473
 46
-36.87716375543
 79
     2
 49
7.399774995313284
 49
-4560.119085052519
 53
276.7473999999999
 43
12696.41581974181
 44
1587.142448195048
 45
0.0000035818718473
 46
-36.87716375543
 79
     2
 49
7.399774995313284
 49
-4560.119085052519
 53
276.7473999999999
 43
12707.36749853554
 44
1587.142448195048
 45
0.0000035818718473
 46
-36.87716375543
 79
     2
 49
7.399774995313284
 49
-4560.119085052519
 53
276.7473999999999
 43
12718.31917732927
 44
1587.142448195048
 45
0.0000035818718473
 46
-36.87716375543
 79
     2
 49
7.399774995313284
 49
-4560.119085052519
 53
276.7473999999999
 43
12729.27085612301
 44
1587.142448195048
 45
0.0000035818718473
 46
-36.87716375543
 79
     2
 49
7.399774995313284
 49
-4560.119085052519
 53
276.7473999999999
 43
12740.22253491674
 44
1587.142448195048
 45
0.0000035818718473
 46
-36.87716375543
 79
     2
 49
7.399774995313284
 49
-4560.119085052519
 53
276.7473999999999
 43
12751.17421371048
 44
1587.142448195048
 45
0.0000035818718473
 46
-36.87716375543
 79
     2
 49
7.399774995313284
 49
-4560.119085052519
 53
276.7473999999999
 43
12762.12589250421
 44
1587.142448195048
 45
0.0000035818718473
 46
-36.87716375543
 79
     2
 49
7.399774995313284
 49
-4560.119085052519
 53
276.7473999999999
 43
12773.07757129795
 44
1587.142448195048
 45
0.0000035818718473
 46
-36.87716375543
 79
     2
 49
7.399774995313284
 49
-4560.119085052519
 53
276.7473999999999
 43
12784.02925009168
 44
1587.142448195048
 45
0.0000035818718473
 46
-36.87716375543
 79
     2
 49
7.399774995313284
 49
-4560.119085052519
 53
276.7473999999999
 43
12794.98420684974
 44
1587.142448195048
 45
0.0000035818718473
 46
-36.87716375543
 79
     2
 49
7.399774995313284
 49
-4560.119085052519
 53
276.7473999999999
 43
12805.93588564348
 44
1587.142448195048
 45
0.0000035818718473
 46
-36.87716375543
 79
     2
 49
7.399774995313284
 49
-4560.119085052519
 53
276.7473999999999
 43
12816.88756443721
 44
1587.142448195048
 45
0.0000035818718473
 46
-36.87716375543
 79
     2
 49
7.399774995313284
 49
-4560.119085052519
 53
276.7473999999999
 43
12827.83924323095
 44
1587.142448195048
 45
0.0000035818718473
 46
-36.87716375543
 79
     2
 49
7.399774995313284
 49
-4560.119085052519
 53
276.7473999999999
 43
12838.79092202468
 44
1587.142448195048
 45
0.0000035818718473
 46
-36.87716375543
 79
     2
 49
7.399774995313284
 49
-4560.119085052519
 53
276.7473999999999
 43
12849.74260081842
 44
1587.142448195048
 45
0.0000035818718473
 46
-36.87716375543
 79
     2
 49
7.399774995313284
 49
-4560.119085052519
 53
276.1416
 43
12319.91445471731
 44
1602.880184353761
 45
-0.0000356891682921
 46
-36.87700042616381
 79
     2
 49
8.060547042976009
 49
-2551.147945737283
 53
276.1416
 43
12330.86648261425
 44
1602.880184353761
 45
-0.0000356891682921
 46
-36.87700042616381
 79
     2
 49
8.060547042976009
 49
-2551.147945737283
 53
276.1416
 43
12341.81852198406
 44
1602.880184353761
 45
-0.0000356891682921
 46
-36.87700042616381
 79
     2
 49
8.060547042976009
 49
-2551.147945737283
 53
276.1416
 43
12352.7704302353
 44
1602.880184353761
 45
-0.0000356891682921
 46
-36.87700042616381
 79
     2
 49
8.060547042976009
 49
-2551.147945737283
 53
276.1416
 43
12363.7227646219
 44
1602.880184353761
 45
-0.0000356891682921
 46
-36.87700042616381
 79
     2
 49
8.060547042976009
 49
-2551.147945737283
 53
276.1416
 43
12374.67477121206
 44
1602.880184353761
 45
-0.0000356891682921
 46
-36.87700042616381
 79
     2
 49
8.060547042976009
 49
-2551.147945737283
 53
276.1416
 43
12385.62677780223
 44
1602.880184353761
 45
-0.0000356891682921
 46
-36.87700042616381
 79
     2
 49
8.060547042976009
 49
-2551.147945737283
 53
276.1416
 43
12396.5787843924
 44
1602.880184353761
 45
-0.0000356891682921
 46
-36.87700042616381
 79
     2
 49
8.060547042976009
 49
-2551.147945737283
 53
276.1416
 43
12407.53079098256
 44
1602.880184353761
 45
-0.0000356891682921
 46
-36.87700042616381
 79
     2
 49
8.060547042976009
 49
-2551.147945737283
 53
276.1416
 43
12418.48279757274
 44
1602.880184353761
 45
-0.0000356891682921
 46
-36.87700042616381
 79
     2
 49
8.060547042976009
 49
-2551.147945737283
 53
276.1416
 43
12429.4348041629
 44
1602.880184353761
 45
-0.0000356891682921
 46
-36.87700042616381
 79
     2
 49
8.060547042976009
 49
-2551.147945737283
 53
276.1416
 43
12440.38681075307
 44
1602.880184353761
 45
-0.0000356891682921
 46
-36.87700042616381
 79
     2
 49
8.060547042976009
 49
-2551.147945737283
 53
276.1416
 43
12451.33881734324
 44
1602.880184353761
 45
-0.0000356891682921
 46
-36.87700042616381
 79
     2
 49
8.060547042976009
 49
-2551.147945737283
 53
276.1416
 43
12462.2908239334
 44
1602.880184353761
 45
-0.0000356891682921
 46
-36.87700042616381
 79
     2
 49
8.060547042976009
 49
-2551.147945737283
 53
276.1416
 43
12473.24283052357
 44
1602.880184353761
 45
-0.0000356891682921
 46
-36.87700042616381
 79
     2
 49
8.060547042976009
 49
-2551.147945737283
 53
276.1416
 43
12484.19516491017
 44
1602.880184353761
 45
-0.0000356891682921
 46
-36.87700042616381
 79
     2
 49
8.060547042976009
 49
-2551.147945737283
 53
276.1416
 43
12495.14717150034
 44
1602.880184353761
 45
-0.0000356891682921
 46
-36.87700042616381
 79
     2
 49
8.060547042976009
 49
-2551.147945737283
 53
276.1416
 43
12506.0991780905
 44
1602.880184353761
 45
-0.0000356891682921
 46
-36.87700042616381
 79
     2
 49
8.060547042976009
 49
-2551.147945737283
 53
276.1416
 43
12517.05118468067
 44
1602.880184353761
 45
-0.0000356891682921
 46
-36.87700042616381
 79
     2
 49
8.060547042976009
 49
-2551.147945737283
 53
276.1416
 43
12528.00319127084
 44
1602.880184353761
 45
-0.0000356891682921
 46
-36.87700042616381
 79
     2
 49
8.060547042976009
 49
-2551.147945737283
 53
276.1416
 43
12538.955197861
 44
1602.880184353761
 45
-0.0000356891682921
 46
-36.87700042616381
 79
     2
 49
8.060547042976009
 49
-2551.147945737283
 53
276.1416
 43
12549.90720445117
 44
1602.880184353761
 45
-0.0000356891682921
 46
-36.87700042616381
 79
     2
 49
8.060547042976009
 49
-2551.147945737283
 53
276.1416
 43
12560.85921104133
 44
1602.880184353761
 45
-0.0000356891682921
 46
-36.87700042616381
 79
     2
 49
8.060547042976009
 49
-2551.147945737283
 53
276.1416
 43
12571.81121763151
 44
1602.880184353761
 45
-0.0000356891682921
 46
-36.87700042616381
 79
     2
 49
8.060547042976009
 49
-2551.147945737283
 53
276.1416
 43
12582.76322422168
 44
1602.880184353761
 45
-0.0000356891682921
 46
-36.87700042616381
 79
     2
 49
8.060547042976009
 49
-2551.147945737283
 53
83.85800000000008
 43
12329.71086907281
 44
1594.865922166983
 45
10.9520277214346
 46
-0.0000684758235829
 79
     2
 49
8.060547042975898
 49
-2551.147945737254
 53
83.85800000000008
 43
12329.71086907281
 44
1557.98892190384
 45
10.9520277214346
 46
-0.0000684758235829
 79
     2
 49
8.060547042975898
 49
-2551.147945737254
 53
83.85800000000008
 43
12329.71086907281
 44
1521.111823301765
 45
10.9520277214346
 46
-0.0000684758235829
 79
     2
 49
8.060547042975898
 49
-2551.147945737254
 53
83.85800000000008
 43
12329.71086907281
 44
1484.234724699697
 45
10.9520277214346
 46
-0.0000684758235829
 79
     2
 49
8.060547042975898
 49
-2551.147945737254
 53
83.85800000000008
 43
12329.71086907281
 44
1447.357626097629
 45
10.9520277214346
 46
-0.0000684758235829
 79
     2
 49
8.060547042975898
 49
-2551.147945737254
 53
83.85800000000008
 43
12329.71086907281
 44
1410.480527495553
 45
10.9520277214346
 46
-0.0000684758235829
 79
     2
 49
8.060547042975898
 49
-2551.147945737254
 53
83.85800000000008
 43
12329.71086907281
 44
1373.603428893481
 45
10.9520277214346
 46
-0.0000684758235829
 79
     2
 49
8.060547042975898
 49
-2551.147945737254
 53
83.85800000000008
 43
12329.71086907281
 44
1336.72633029141
 45
10.9520277214346
 46
-0.0000684758235829
 79
     2
 49
8.060547042975898
 49
-2551.147945737254
 53
83.85800000000008
 43
12329.71086907281
 44
1299.849231689341
 45
10.9520277214346
 46
-0.0000684758235829
 79
     2
 49
8.060547042975898
 49
-2551.147945737254
 53
83.85800000000008
 43
12329.71086907281
 44
1262.970494105108
 45
10.9520277214346
 46
-0.0000684758235829
 79
     2
 49
8.060547042975898
 49
-2551.147945737254
 53
83.85800000000008
 43
12329.71086907281
 44
1226.093395503037
 45
10.9520277214346
 46
-0.0000684758235829
 79
     2
 49
8.060547042975898
 49
-2551.147945737254
 53
83.85800000000008
 43
12329.71086907281
 44
1189.216296900961
 45
10.9520277214346
 46
-0.0000684758235829
 79
     2
 49
8.060547042975898
 49
-2551.147945737254
 53
83.85800000000008
 43
12329.71086907281
 44
1152.339198298893
 45
10.9520277214346
 46
-0.0000684758235829
 79
     2
 49
8.060547042975898
 49
-2551.147945737254
 53
83.85800000000008
 43
12329.71086907281
 44
1115.462099696825
 45
10.9520277214346
 46
-0.0000684758235829
 79
     2
 49
8.060547042975898
 49
-2551.147945737254
 53
83.85800000000008
 43
12329.71086907281
 44
1078.585001094749
 45
10.9520277214346
 46
-0.0000684758235829
 79
     2
 49
8.060547042975898
 49
-2551.147945737254
 53
83.85800000000008
 43
12329.71086907281
 44
1041.707902492678
 45
10.9520277214346
 46
-0.0000684758235829
 79
     2
 49
8.060547042975898
 49
-2551.147945737254
 53
83.85800000000008
 43
12329.71086907281
 44
1004.830803890606
 45
10.9520277214346
 46
-0.0000684758235829
 79
     2
 49
8.060547042975898
 49
-2551.147945737254
 53
83.85800000000008
 43
12329.71086907281
 44
967.9537052885343
 45
10.9520277214346
 46
-0.0000684758235829
 79
     2
 49
8.060547042975898
 49
-2551.147945737254
 53
83.85800000000008
 43
12329.71086907281
 44
931.0766066864662
 45
10.9520277214346
 46
-0.0000684758235829
 79
     2
 49
8.060547042975898
 49
-2551.147945737254
 53
83.85800000000008
 43
12329.71086907281
 44
894.1995080843945
 45
10.9520277214346
 46
-0.0000684758235829
 79
     2
 49
8.060547042975898
 49
-2551.147945737254
 53
83.85800000000008
 43
12329.71086907281
 44
857.322409482319
 45
10.9520277214346
 46
-0.0000684758235829
 79
     2
 49
8.060547042975898
 49
-2551.147945737254
 53
83.85800000000008
 43
12329.71086907281
 44
820.4453108802509
 45
10.9520277214346
 46
-0.0000684758235829
 79
     2
 49
8.060547042975898
 49
-2551.147945737254
 53
83.85800000000008
 43
12329.71086907281
 44
783.5682122781791
 45
10.9520277214346
 46
-0.0000684758235829
 79
     2
 49
8.060547042975898
 49
-2551.147945737254
 53
83.85800000000008
 43
12329.71086907281
 44
746.6911136761073
 45
10.9520277214346
 46
-0.0000684758235829
 79
     2
 49
8.060547042975898
 49
-2551.147945737254
 53
83.85800000000008
 43
12329.71086907281
 44
709.8140150740318
 45
10.9520277214346
 46
-0.0000684758235829
 79
     2
 49
8.060547042975898
 49
-2551.147945737254
 53
83.85800000000008
 43
12329.71086907281
 44
672.9369164719637
 45
10.9520277214346
 46
-0.0000684758235829
 79
     2
 49
8.060547042975898
 49
-2551.147945737254
 53
83.85800000000008
 43
12329.71086907281
 44
636.0598178698883
 45
10.9520277214346
 46
-0.0000684758235829
 79
     2
 49
8.060547042975898
 49
-2551.147945737254
 53
83.85800000000008
 43
12329.71086907281
 44
599.1827192678202
 45
10.9520277214346
 46
-0.0000684758235829
 79
     2
 49
8.060547042975898
 49
-2551.147945737254
 53
83.85800000000008
 43
12329.71086907281
 44
562.3056206657447
 45
10.9520277214346
 46
-0.0000684758235829
 79
     2
 49
8.060547042975898
 49
-2551.147945737254
 53
83.85800000000008
 43
12329.71086907281
 44
525.4285220636766
 45
10.9520277214346
 46
-0.0000684758235829
 79
     2
 49
8.060547042975898
 49
-2551.147945737254
 53
83.85800000000008
 43
12329.71086907281
 44
488.5514234616084
 45
10.9520277214346
 46
-0.0000684758235829
 79
     2
 49
8.060547042975898
 49
-2551.147945737254
 53
83.85800000000008
 43
12329.71086907281
 44
451.674324859533
 45
10.9520277214346
 46
-0.0000684758235829
 79
     2
 49
8.060547042975898
 49
-2551.147945737254
 53
83.85800000000008
 43
12329.71086907281
 44
414.7972262574612
 45
10.9520277214346
 46
-0.0000684758235829
 79
     2
 49
8.060547042975898
 49
-2551.147945737254
 53
83.85800000000008
 43
12329.71086907281
 44
377.9201276553895
 45
10.9520277214346
 46
-0.0000684758235829
 79
     2
 49
8.060547042975898
 49
-2551.147945737254
 53
83.85800000000008
 43
12329.71086907281
 44
341.0430290533177
 45
10.9520277214346
 46
-0.0000684758235829
 79
     2
 49
8.060547042975898
 49
-2551.147945737254
 53
83.85800000000008
 43
12329.71086907281
 44
304.1659304512459
 45
10.9520277214346
 46
-0.0000684758235829
 79
     2
 49
8.060547042975898
 49
-2551.147945737254
 53
83.85800000000008
 43
12329.71086907281
 44
267.2888318491768
 45
10.9520277214346
 46
-0.0000684758235829
 79
     2
 49
8.060547042975898
 49
-2551.147945737254
 53
83.85800000000008
 43
12329.71086907281
 44
230.4117332471051
 45
10.9520277214346
 46
-0.0000684758235829
 79
     2
 49
8.060547042975898
 49
-2551.147945737254
 53
83.85800000000008
 43
12329.71086907281
 44
193.5346346450296
 45
10.9520277214346
 46
-0.0000684758235829
 79
     2
 49
8.060547042975898
 49
-2551.147945737254
 53
83.85800000000008
 43
12329.71086907281
 44
156.6575360429615
 45
10.9520277214346
 46
-0.0000684758235829
 79
     2
 49
8.060547042975898
 49
-2551.147945737254
 53
83.85800000000008
 43
12329.71086907281
 44
119.7804374408897
 45
10.9520277214346
 46
-0.0000684758235829
 79
     2
 49
8.060547042975898
 49
-2551.147945737254
 53
83.85800000000008
 43
12329.71086907281
 44
82.90333883881794
 45
10.9520277214346
 46
-0.0000684758235829
 79
     2
 49
8.060547042975898
 49
-2551.147945737254
 53
83.85800000000008
 43
12329.71086907281
 44
46.02624023674616
 45
10.9520277214346
 46
-0.0000684758235829
 79
     2
 49
8.060547042975898
 49
-2551.147945737254
 53
83.85800000000008
 43
12329.71086907281
 44
9.149141634674379
 45
10.9520277214346
 46
-0.0000684758235829
 79
     2
 49
8.060547042975898
 49
-2551.147945737254
 53
83.85800000000008
 43
12329.71086907281
 44
-27.7279569673974
 45
10.9520277214346
 46
-0.0000684758235829
 79
     2
 49
8.060547042975898
 49
-2551.147945737254
 53
83.85800000000008
 43
12329.71086907281
 44
-64.60505556946919
 45
10.9520277214346
 46
-0.0000684758235829
 79
     2
 49
8.060547042975898
 49
-2551.147945737254
 53
83.85800000000008
 43
12329.71086907281
 44
-101.4821541715409
 45
10.9520277214346
 46
-0.0000684758235829
 79
     2
 49
8.060547042975898
 49
-2551.147945737254
 53
83.85800000000008
 43
12329.71086907281
 44
-138.3592527736164
 45
10.9520277214346
 46
-0.0000684758235829
 79
     2
 49
8.060547042975898
 49
-2551.147945737254
 53
83.85800000000008
 43
12329.71086907281
 44
-175.2363513756809
 45
10.9520277214346
 46
-0.0000684758235829
 79
     2
 49
8.060547042975898
 49
-2551.147945737254
 53
83.85800000000008
 43
12329.71086907281
 44
-212.1134499777527
 45
10.9520277214346
 46
-0.0000684758235829
 79
     2
 49
8.060547042975898
 49
-2551.147945737254
 53
83.85800000000008
 43
12329.71086907281
 44
-248.9905485798281
 45
10.9520277214346
 46
-0.0000684758235829
 79
     2
 49
8.060547042975898
 49
-2551.147945737254
 53
83.85800000000008
 43
12329.71086907281
 44
-285.8676471818999
 45
10.9520277214346
 46
-0.0000684758235829
 79
     2
 49
8.060547042975898
 49
-2551.147945737254
 53
83.85800000000008
 43
12329.71086907281
 44
-322.7447457839716
 45
10.9520277214346
 46
-0.0000684758235829
 79
     2
 49
8.060547042975898
 49
-2551.147945737254
 53
83.85800000000008
 43
12329.71086907281
 44
-359.6218443860434
 45
10.9520277214346
 46
-0.0000684758235829
 79
     2
 49
8.060547042975898
 49
-2551.147945737254
 53
83.85800000000008
 43
12329.71086907281
 44
-396.4989429881116
 45
10.9520277214346
 46
-0.0000684758235829
 79
     2
 49
8.060547042975898
 49
-2551.147945737254
 53
83.85800000000008
 43
12329.71086907281
 44
-433.3760415901833
 45
10.9520277214346
 46
-0.0000684758235829
 79
     2
 49
8.060547042975898
 49
-2551.147945737254
 53
83.85800000000008
 43
12329.71086907281
 44
-470.2531401922588
 45
10.9520277214346
 46
-0.0000684758235829
 79
     2
 49
8.060547042975898
 49
-2551.147945737254
 53
83.85800000000008
 43
12329.71086907281
 44
-507.1302387943269
 45
10.9520277214346
 46
-0.0000684758235829
 79
     2
 49
8.060547042975898
 49
-2551.147945737254
 53
83.85800000000008
 43
12329.71086907281
 44
-544.0073373963987
 45
10.9520277214346
 46
-0.0000684758235829
 79
     2
 49
8.060547042975898
 49
-2551.147945737254
 53
83.85800000000008
 43
12329.71086907281
 44
-580.8844359984704
 45
10.9520277214346
 46
-0.0000684758235829
 79
     2
 49
8.060547042975898
 49
-2551.147945737254
 53
83.85800000000008
 43
12329.71086907281
 44
-617.7615346005422
 45
10.9520277214346
 46
-0.0000684758235829
 79
     2
 49
8.060547042975898
 49
-2551.147945737254
 53
83.85800000000008
 43
12329.71086907281
 44
-654.638633202614
 45
10.9520277214346
 46
-0.0000684758235829
 79
     2
 49
8.060547042975898
 49
-2551.147945737254
 53
83.85800000000008
 43
12329.71086907281
 44
-691.5157318046858
 45
10.9520277214346
 46
-0.0000684758235829
 79
     2
 49
8.060547042975898
 49
-2551.147945737254
 53
83.85800000000008
 43
12329.71086907281
 44
-728.3928304067576
 45
10.9520277214346
 46
-0.0000684758235829
 79
     2
 49
8.060547042975898
 49
-2551.147945737254
 53
83.85800000000008
 43
12329.71086907281
 44
-765.2699290088293
 45
10.9520277214346
 46
-0.0000684758235829
 79
     2
 49
8.060547042975898
 49
-2551.147945737254
 53
83.85800000000008
 43
12329.71086907281
 44
-802.1470276109049
 45
10.9520277214346
 46
-0.0000684758235829
 79
     2
 49
8.060547042975898
 49
-2551.147945737254
 53
83.85800000000008
 43
12329.71086907281
 44
-839.024126212973
 45
10.9520277214346
 46
-0.0000684758235829
 79
     2
 49
8.060547042975898
 49
-2551.147945737254
 53
83.85800000000008
 43
12329.71086907281
 44
-875.901224815041
 45
10.9520277214346
 46
-0.0000684758235829
 79
     2
 49
8.060547042975898
 49
-2551.147945737254
 53
83.85800000000008
 43
12329.71086907281
 44
-912.7783234171165
 45
10.9520277214346
 46
-0.0000684758235829
 79
     2
 49
8.060547042975898
 49
-2551.147945737254
 53
83.25300000000003
 43
12325.57168518679
 44
1579.794104459924
 45
10.95204383447483
 46
0.0000798601498432
 79
     2
 49
7.399774995313283
 49
-4560.119085052519
 53
83.25300000000003
 43
12325.57168518679
 44
1542.917169756066
 45
10.95204383447483
 46
0.0000798601498432
 79
     2
 49
7.399774995313283
 49
-4560.119085052519
 53
83.25300000000003
 43
12325.57168518679
 44
1506.040071153994
 45
10.95204383447483
 46
0.0000798601498432
 79
     2
 49
7.399774995313283
 49
-4560.119085052519
 53
83.25300000000003
 43
12325.57168518679
 44
1469.162972551922
 45
10.95204383447483
 46
0.0000798601498432
 79
     2
 49
7.399774995313283
 49
-4560.119085052519
 53
83.25300000000003
 43
12325.57168518679
 44
1432.285873949854
 45
10.95204383447483
 46
0.0000798601498432
 79
     2
 49
7.399774995313283
 49
-4560.119085052519
 53
83.25300000000003
 43
12325.57168518679
 44
1395.408775347782
 45
10.95204383447483
 46
0.0000798601498432
 79
     2
 49
7.399774995313283
 49
-4560.119085052519
 53
83.25300000000003
 43
12325.57168518679
 44
1358.531676745707
 45
10.95204383447483
 46
0.0000798601498432
 79
     2
 49
7.399774995313283
 49
-4560.119085052519
 53
83.25300000000003
 43
12325.57168518679
 44
1321.654578143639
 45
10.95204383447483
 46
0.0000798601498432
 79
     2
 49
7.399774995313283
 49
-4560.119085052519
 53
83.25300000000003
 43
12325.57168518679
 44
1284.777479541563
 45
10.95204383447483
 46
0.0000798601498432
 79
     2
 49
7.399774995313283
 49
-4560.119085052519
 53
83.25300000000003
 43
12325.57168518679
 44
1247.901692125221
 45
10.95204383447483
 46
0.0000798601498432
 79
     2
 49
7.399774995313283
 49
-4560.119085052519
 53
83.25300000000003
 43
12325.57168518679
 44
1211.024593523153
 45
10.95204383447483
 46
0.0000798601498432
 79
     2
 49
7.399774995313283
 49
-4560.119085052519
 53
83.25300000000003
 43
12325.57168518679
 44
1174.147494921078
 45
10.95204383447483
 46
0.0000798601498432
 79
     2
 49
7.399774995313283
 49
-4560.119085052519
 53
83.25300000000003
 43
12325.57168518679
 44
1137.27039631901
 45
10.95204383447483
 46
0.0000798601498432
 79
     2
 49
7.399774995313283
 49
-4560.119085052519
 53
83.25300000000003
 43
12325.57168518679
 44
1100.393297716934
 45
10.95204383447483
 46
0.0000798601498432
 79
     2
 49
7.399774995313283
 49
-4560.119085052519
 53
83.25300000000003
 43
12325.57168518679
 44
1063.516199114859
 45
10.95204383447483
 46
0.0000798601498432
 79
     2
 49
7.399774995313283
 49
-4560.119085052519
 53
83.25300000000003
 43
12325.57168518679
 44
1026.639100512791
 45
10.95204383447483
 46
0.0000798601498432
 79
     2
 49
7.399774995313283
 49
-4560.119085052519
 53
83.25300000000003
 43
12325.57168518679
 44
989.7620019107225
 45
10.95204383447483
 46
0.0000798601498432
 79
     2
 49
7.399774995313283
 49
-4560.119085052519
 53
83.25300000000003
 43
12325.57168518679
 44
952.8849033086471
 45
10.95204383447483
 46
0.0000798601498432
 79
     2
 49
7.399774995313283
 49
-4560.119085052519
 53
83.25300000000003
 43
12325.57168518679
 44
916.0078047065754
 45
10.95204383447483
 46
0.0000798601498432
 79
     2
 49
7.399774995313283
 49
-4560.119085052519
 53
83.25300000000003
 43
12325.57168518679
 44
879.1307061045035
 45
10.95204383447483
 46
0.0000798601498432
 79
     2
 49
7.399774995313283
 49
-4560.119085052519
 53
83.25300000000003
 43
12325.57168518679
 44
842.2536075024353
 45
10.95204383447483
 46
0.0000798601498432
 79
     2
 49
7.399774995313283
 49
-4560.119085052519
 53
83.25300000000003
 43
12325.57168518679
 44
805.3765089003672
 45
10.95204383447483
 46
0.0000798601498432
 79
     2
 49
7.399774995313283
 49
-4560.119085052519
 53
83.25300000000003
 43
12325.57168518679
 44
768.4994102982918
 45
10.95204383447483
 46
0.0000798601498432
 79
     2
 49
7.399774995313283
 49
-4560.119085052519
 53
83.25300000000003
 43
12325.57168518679
 44
731.6223116962164
 45
10.95204383447483
 46
0.0000798601498432
 79
     2
 49
7.399774995313283
 49
-4560.119085052519
 53
83.25300000000003
 43
12325.57168518679
 44
694.7452130941483
 45
10.95204383447483
 46
0.0000798601498432
 79
     2
 49
7.399774995313283
 49
-4560.119085052519
 53
83.25300000000003
 43
12325.57168518679
 44
657.8681144920765
 45
10.95204383447483
 46
0.0000798601498432
 79
     2
 49
7.399774995313283
 49
-4560.119085052519
 53
83.25300000000003
 43
12325.57168518679
 44
620.9910158900047
 45
10.95204383447483
 46
0.0000798601498432
 79
     2
 49
7.399774995313283
 49
-4560.119085052519
 53
83.25300000000003
 43
12325.57168518679
 44
584.1139172879329
 45
10.95204383447483
 46
0.0000798601498432
 79
     2
 49
7.399774995313283
 49
-4560.119085052519
 53
83.25300000000003
 43
12325.57168518679
 44
547.2368186858611
 45
10.95204383447483
 46
0.0000798601498432
 79
     2
 49
7.399774995313283
 49
-4560.119085052519
 53
83.25300000000003
 43
12325.57168518679
 44
510.3597200837894
 45
10.95204383447483
 46
0.0000798601498432
 79
     2
 49
7.399774995313283
 49
-4560.119085052519
 53
83.25300000000003
 43
12325.57168518679
 44
473.4826214817176
 45
10.95204383447483
 46
0.0000798601498432
 79
     2
 49
7.399774995313283
 49
-4560.119085052519
 53
83.25300000000003
 43
12325.57168518679
 44
436.6055228796458
 45
10.95204383447483
 46
0.0000798601498432
 79
     2
 49
7.399774995313283
 49
-4560.119085052519
 53
83.25300000000003
 43
12325.57168518679
 44
399.728424277574
 45
10.95204383447483
 46
0.0000798601498432
 79
     2
 49
7.399774995313283
 49
-4560.119085052519
 53
83.25300000000003
 43
12325.57168518679
 44
362.8513256755059
 45
10.95204383447483
 46
0.0000798601498432
 79
     2
 49
7.399774995313283
 49
-4560.119085052519
 53
83.25300000000003
 43
12325.57168518679
 44
325.9742270734341
 45
10.95204383447483
 46
0.0000798601498432
 79
     2
 49
7.399774995313283
 49
-4560.119085052519
 53
83.25300000000003
 43
12325.57168518679
 44
289.0971284713623
 45
10.95204383447483
 46
0.0000798601498432
 79
     2
 49
7.399774995313283
 49
-4560.119085052519
 53
83.25300000000003
 43
12325.57168518679
 44
252.220029869286
 45
10.95204383447483
 46
0.0000798601498432
 79
     2
 49
7.399774995313283
 49
-4560.119085052519
 53
83.25300000000003
 43
12325.57168518679
 44
215.3429312672179
 45
10.95204383447483
 46
0.0000798601498432
 79
     2
 49
7.399774995313283
 49
-4560.119085052519
 53
83.25300000000003
 43
12325.57168518679
 44
178.4658326651424
 45
10.95204383447483
 46
0.0000798601498432
 79
     2
 49
7.399774995313283
 49
-4560.119085052519
 53
83.25300000000003
 43
12325.57168518679
 44
141.5887340630743
 45
10.95204383447483
 46
0.0000798601498432
 79
     2
 49
7.399774995313283
 49
-4560.119085052519
 53
83.25300000000003
 43
12325.57168518679
 44
104.7116354610025
 45
10.95204383447483
 46
0.0000798601498432
 79
     2
 49
7.399774995313283
 49
-4560.119085052519
 53
83.25300000000003
 43
12325.57168518679
 44
67.83453685893073
 45
10.95204383447483
 46
0.0000798601498432
 79
     2
 49
7.399774995313283
 49
-4560.119085052519
 53
83.25300000000003
 43
12325.57168518679
 44
30.95743825685895
 45
10.95204383447483
 46
0.0000798601498432
 79
     2
 49
7.399774995313283
 49
-4560.119085052519
 53
83.25300000000003
 43
12325.57168518679
 44
-5.919660345212832
 45
10.95204383447483
 46
0.0000798601498432
 79
     2
 49
7.399774995313283
 49
-4560.119085052519
 53
83.25300000000003
 43
12325.57168518679
 44
-42.79675894728462
 45
10.95204383447483
 46
0.0000798601498432
 79
     2
 49
7.399774995313283
 49
-4560.119085052519
 53
83.25300000000003
 43
12325.57168518679
 44
-79.6738575493564
 45
10.95204383447483
 46
0.0000798601498432
 79
     2
 49
7.399774995313283
 49
-4560.119085052519
 53
83.25300000000003
 43
12325.57168518679
 44
-116.5509561514245
 45
10.95204383447483
 46
0.0000798601498432
 79
     2
 49
7.399774995313283
 49
-4560.119085052519
 53
83.25300000000003
 43
12325.57168518679
 44
-153.4280547534999
 45
10.95204383447483
 46
0.0000798601498432
 79
     2
 49
7.399774995313283
 49
-4560.119085052519
 53
83.25300000000003
 43
12325.57168518679
 44
-190.3051533555717
 45
10.95204383447483
 46
0.0000798601498432
 79
     2
 49
7.399774995313283
 49
-4560.119085052519
 53
83.25300000000003
 43
12325.57168518679
 44
-227.1822519576435
 45
10.95204383447483
 46
0.0000798601498432
 79
     2
 49
7.399774995313283
 49
-4560.119085052519
 53
83.25300000000003
 43
12325.57168518679
 44
-264.0593505597153
 45
10.95204383447483
 46
0.0000798601498432
 79
     2
 49
7.399774995313283
 49
-4560.119085052519
 53
83.25300000000003
 43
12325.57168518679
 44
-300.9364491617835
 45
10.95204383447483
 46
0.0000798601498432
 79
     2
 49
7.399774995313283
 49
-4560.119085052519
 53
83.25300000000003
 43
12325.57168518679
 44
-337.8135477638553
 45
10.95204383447483
 46
0.0000798601498432
 79
     2
 49
7.399774995313283
 49
-4560.119085052519
 53
83.25300000000003
 43
12325.57168518679
 44
-374.690646365927
 45
10.95204383447483
 46
0.0000798601498432
 79
     2
 49
7.399774995313283
 49
-4560.119085052519
 53
83.25300000000003
 43
12325.57168518679
 44
-411.5677449680024
 45
10.95204383447483
 46
0.0000798601498432
 79
     2
 49
7.399774995313283
 49
-4560.119085052519
 53
83.25300000000003
 43
12325.57168518679
 44
-448.4448435700706
 45
10.95204383447483
 46
0.0000798601498432
 79
     2
 49
7.399774995313283
 49
-4560.119085052519
 53
83.25300000000003
 43
12325.57168518679
 44
-485.321942172146
 45
10.95204383447483
 46
0.0000798601498432
 79
     2
 49
7.399774995313283
 49
-4560.119085052519
 53
83.25300000000003
 43
12325.57168518679
 44
-522.1990407742141
 45
10.95204383447483
 46
0.0000798601498432
 79
     2
 49
7.399774995313283
 49
-4560.119085052519
 53
83.25300000000003
 43
12325.57168518679
 44
-559.0761393762859
 45
10.95204383447483
 46
0.0000798601498432
 79
     2
 49
7.399774995313283
 49
-4560.119085052519
 53
83.25300000000003
 43
12325.57168518679
 44
-595.9532379783577
 45
10.95204383447483
 46
0.0000798601498432
 79
     2
 49
7.399774995313283
 49
-4560.119085052519
 53
83.25300000000003
 43
12325.57168518679
 44
-632.8303365804295
 45
10.95204383447483
 46
0.0000798601498432
 79
     2
 49
7.399774995313283
 49
-4560.119085052519
 53
83.25300000000003
 43
12325.57168518679
 44
-669.7074351825013
 45
10.95204383447483
 46
0.0000798601498432
 79
     2
 49
7.399774995313283
 49
-4560.119085052519
 53
83.25300000000003
 43
12325.57168518679
 44
-706.584533784573
 45
10.95204383447483
 46
0.0000798601498432
 79
     2
 49
7.399774995313283
 49
-4560.119085052519
 53
83.25300000000003
 43
12325.57168518679
 44
-743.4616323866448
 45
10.95204383447483
 46
0.0000798601498432
 79
     2
 49
7.399774995313283
 49
-4560.119085052519
 53
83.25300000000003
 43
12325.57168518679
 44
-780.3387309887166
 45
10.95204383447483
 46
0.0000798601498432
 79
     2
 49
7.399774995313283
 49
-4560.119085052519
 53
83.25300000000003
 43
12325.57168518679
 44
-817.2158295907847
 45
10.95204383447483
 46
0.0000798601498432
 79
     2
 49
7.399774995313283
 49
-4560.119085052519
 53
83.25300000000003
 43
12325.57168518679
 44
-854.0929281928601
 45
10.95204383447483
 46
0.0000798601498432
 79
     2
 49
7.399774995313283
 49
-4560.119085052519
 53
83.25300000000003
 43
12325.57168518679
 44
-890.970026794932
 45
10.95204383447483
 46
0.0000798601498432
 79
     2
 49
7.399774995313283
 49
-4560.119085052519
 53
83.25300000000003
 43
12325.57168518679
 44
-927.8471253970037
 45
10.95204383447483
 46
0.0000798601498432
 79
     2
 49
7.399774995313283
 49
-4560.119085052519
 53
83.25300000000003
 43
12325.57168518679
 44
-964.7242239990719
 45
10.95204383447483
 46
0.0000798601498432
 79
     2
 49
7.399774995313283
 49
-4560.119085052519
 53
83.25300000000003
 43
12325.57168518679
 44
-1001.601322601143
 45
10.95204383447483
 46
0.0000798601498432
 79
     2
 49
7.399774995313283
 49
-4560.119085052519
 53
83.25300000000003
 43
12325.57168518679
 44
-1038.478421203215
 45
10.95204383447483
 46
0.0000798601498432
 79
     2
 49
7.399774995313283
 49
-4560.119085052519
 53
83.25300000000003
 43
12325.57168518679
 44
-1075.355519805291
 45
10.95204383447483
 46
0.0000798601498432
 79
     2
 49
7.399774995313283
 49
-4560.119085052519
 53
83.25300000000003
 43
12325.57168518679
 44
-1112.232618407359
 45
10.95204383447483
 46
0.0000798601498432
 79
     2
 49
7.399774995313283
 49
-4560.119085052519
 53
83.25300000000003
 43
12325.57168518679
 44
-1149.109717009427
 45
10.95204383447483
 46
0.0000798601498432
 79
     2
 49
7.399774995313283
 49
-4560.119085052519
 53
83.25300000000003
 43
12325.57168518679
 44
-1185.986815611502
 45
10.95204383447483
 46
0.0000798601498432
 79
     2
 49
7.399774995313283
 49
-4560.119085052519
 53
83.25300000000003
 43
12325.57168518679
 44
-1222.863914213574
 45
10.95204383447483
 46
0.0000798601498432
 79
     2
 49
7.399774995313283
 49
-4560.119085052519
 53
83.25300000000003
 43
12325.57168518679
 44
-1259.741012815646
 45
10.95204383447483
 46
0.0000798601498432
 79
     2
 49
7.399774995313283
 49
-4560.119085052519
 53
83.25300000000003
 43
12325.57168518679
 44
-1296.618111417718
 45
10.95204383447483
 46
0.0000798601498432
 79
     2
 49
7.399774995313283
 49
-4560.119085052519
 53
83.25300000000003
 43
12325.57168518679
 44
-1333.49521001979
 45
10.95204383447483
 46
0.0000798601498432
 79
     2
 49
7.399774995313283
 49
-4560.119085052519
 53
83.25300000000003
 43
12325.57168518679
 44
-1370.372308621861
 45
10.95204383447483
 46
0.0000798601498432
 79
     2
 49
7.399774995313283
 49
-4560.119085052519
 53
83.25300000000003
 43
12325.57168518679
 44
-1407.249407223933
 45
10.95204383447483
 46
0.0000798601498432
 79
     2
 49
7.399774995313283
 49
-4560.119085052519
 53
83.25300000000003
 43
12325.57168518679
 44
-1444.126505826005
 45
10.95204383447483
 46
0.0000798601498432
 79
     2
 49
7.399774995313283
 49
-4560.119085052519
 53
83.25300000000003
 43
12325.57168518679
 44
-1481.003604428073
 45
10.95204383447483
 46
0.0000798601498432
 79
     2
 49
7.399774995313283
 49
-4560.119085052519
 53
83.25300000000003
 43
12325.57168518679
 44
-1517.880703030148
 45
10.95204383447483
 46
0.0000798601498432
 79
     2
 49
7.399774995313283
 49
-4560.119085052519
 53
83.25300000000003
 43
12325.57168518679
 44
-1554.75780163222
 45
10.95204383447483
 46
0.0000798601498432
 79
     2
 49
7.399774995313283
 49
-4560.119085052519
 53
83.25300000000003
 43
12325.57168518679
 44
-1591.634900234288
 45
10.95204383447483
 46
0.0000798601498432
 79
     2
 49
7.399774995313283
 49
-4560.119085052519
 53
83.25300000000003
 43
12325.57168518679
 44
-1628.51199883636
 45
10.95204383447483
 46
0.0000798601498432
 79
     2
 49
7.399774995313283
 49
-4560.119085052519
 53
83.25300000000003
 43
12325.57168518679
 44
-1665.389097438432
 45
10.95204383447483
 46
0.0000798601498432
 79
     2
 49
7.399774995313283
 49
-4560.119085052519
 53
83.25300000000003
 43
12325.57168518679
 44
-1702.269474004826
 45
10.95204383447483
 46
0.0000798601498432
 79
     2
 49
7.399774995313283
 49
-4560.119085052519
 53
83.25300000000003
 43
12325.57168518679
 44
-1739.146572606898
 45
10.95204383447483
 46
0.0000798601498432
 79
     2
 49
7.399774995313283
 49
-4560.119085052519
 53
83.25300000000003
 43
12325.57168518679
 44
-1776.02367120897
 45
10.95204383447483
 46
0.0000798601498432
 79
     2
 49
7.399774995313283
 49
-4560.119085052519
 53
83.25300000000003
 43
12325.57168518679
 44
-1812.900769811038
 45
10.95204383447483
 46
0.0000798601498432
 79
     2
 49
7.399774995313283
 49
-4560.119085052519
 53
83.25300000000003
 43
12325.57168518679
 44
-1849.77786841311
 45
10.95204383447483
 46
0.0000798601498432
 79
     2
 49
7.399774995313283
 49
-4560.119085052519
 53
83.25300000000003
 43
12325.57168518679
 44
-1886.654967015185
 45
10.95204383447483
 46
0.0000798601498432
 79
     2
 49
7.399774995313283
 49
-4560.119085052519
 53
83.25300000000003
 43
12325.57168518679
 44
-1923.532065617257
 45
10.95204383447483
 46
0.0000798601498432
 79
     2
 49
7.399774995313283
 49
-4560.119085052519
 53
83.25300000000003
 43
12325.57168518679
 44
-1960.409164219329
 45
10.95204383447483
 46
0.0000798601498432
 79
     2
 49
7.399774995313283
 49
-4560.119085052519
 53
83.25300000000003
 43
12325.57168518679
 44
-1997.2862628214
 45
10.95204383447483
 46
0.0000798601498432
 79
     2
 49
7.399774995313283
 49
-4560.119085052519
 53
83.25300000000003
 43
12325.57168518679
 44
-2034.163361423469
 45
10.95204383447483
 46
0.0000798601498432
 79
     2
 49
7.399774995313283
 49
-4560.119085052519
 53
83.25300000000003
 43
12325.57168518679
 44
-2071.040460025541
 45
10.95204383447483
 46
0.0000798601498432
 79
     2
 49
7.399774995313283
 49
-4560.119085052519
 53
83.25300000000003
 43
12325.57168518679
 44
-2107.917558627616
 45
10.95204383447483
 46
0.0000798601498432
 79
     2
 49
7.399774995313283
 49
-4560.119085052519
 53
83.25300000000003
 43
12325.57168518679
 44
-2144.794657229684
 45
10.95204383447483
 46
0.0000798601498432
 79
     2
 49
7.399774995313283
 49
-4560.119085052519
 53
83.25300000000003
 43
12325.57168518679
 44
-2181.671755831756
 45
10.95204383447483
 46
0.0000798601498432
 79
     2
 49
7.399774995313283
 49
-4560.119085052519
 53
83.25300000000003
 43
12325.57168518679
 44
-2218.548854433828
 45
10.95204383447483
 46
0.0000798601498432
 79
     2
 49
7.399774995313283
 49
-4560.119085052519
 53
83.25300000000003
 43
12325.57168518679
 44
-2255.425953035899
 45
10.95204383447483
 46
0.0000798601498432
 79
     2
 49
7.399774995313283
 49
-4560.119085052519
 53
83.25300000000003
 43
12325.57168518679
 44
-2292.303051637972
 45
10.95204383447483
 46
0.0000798601498432
 79
     2
 49
7.399774995313283
 49
-4560.119085052519
 53
83.25300000000003
 43
12325.57168518679
 44
-2329.180150240043
 45
10.95204383447483
 46
0.0000798601498432
 79
     2
 49
7.399774995313283
 49
-4560.119085052519
 53
83.25300000000003
 43
12325.57168518679
 44
-2366.057248842115
 45
10.95204383447483
 46
0.0000798601498432
 79
     2
 49
7.399774995313283
 49
-4560.119085052519
 53
83.25300000000003
 43
12325.57168518679
 44
-2402.934347444187
 45
10.95204383447483
 46
0.0000798601498432
 79
     2
 49
7.399774995313283
 49
-4560.119085052519
 53
83.25300000000003
 43
12325.57168518679
 44
-2439.811446046262
 45
10.95204383447483
 46
0.0000798601498432
 79
     2
 49
7.399774995313283
 49
-4560.119085052519
 53
83.25300000000003
 43
12325.57168518679
 44
-2476.688544648331
 45
10.95204383447483
 46
0.0000798601498432
 79
     2
 49
7.399774995313283
 49
-4560.119085052519
 53
83.25300000000003
 43
12325.57168518679
 44
-2513.565643250402
 45
10.95204383447483
 46
0.0000798601498432
 79
     2
 49
7.399774995313283
 49
-4560.119085052519
 53
83.25300000000003
 43
12325.57168518679
 44
-2550.442741852474
 45
10.95204383447483
 46
0.0000798601498432
 79
     2
 49
7.399774995313283
 49
-4560.119085052519
 53
83.25300000000003
 43
12325.57168518679
 44
-2587.319840454546
 45
10.95204383447483
 46
0.0000798601498432
 79
     2
 49
7.399774995313283
 49
-4560.119085052519
 53
83.25300000000003
 43
12325.57168518679
 44
-2624.196939056617
 45
10.95204383447483
 46
0.0000798601498432
 79
     2
 49
7.399774995313283
 49
-4560.119085052519
 53
83.25300000000003
 43
12325.57168518679
 44
-2661.07403765869
 45
10.95204383447483
 46
0.0000798601498432
 79
     2
 49
7.399774995313283
 49
-4560.119085052519
 53
83.25300000000003
 43
12325.57168518679
 44
-2697.951136260757
 45
10.95204383447483
 46
0.0000798601498432
 79
     2
 49
7.399774995313283
 49
-4560.119085052519
 53
83.25300000000003
 43
12325.57168518679
 44
-2734.828234862829
 45
10.95204383447483
 46
0.0000798601498432
 79
     2
 49
7.399774995313283
 49
-4560.119085052519
 53
83.25300000000003
 43
12325.57168518679
 44
-2771.705333464904
 45
10.95204383447483
 46
0.0000798601498432
 79
     2
 49
7.399774995313283
 49
-4560.119085052519
 53
83.25300000000003
 43
12325.57168518679
 44
-2808.582432066973
 45
10.95204383447483
 46
0.0000798601498432
 79
     2
 49
7.399774995313283
 49
-4560.119085052519
 53
83.25300000000003
 43
12325.57168518679
 44
-2845.459530669045
 45
10.95204383447483
 46
0.0000798601498432
 79
     2
 49
7.399774995313283
 49
-4560.119085052519
 53
83.25300000000003
 43
12325.57168518679
 44
-2882.336629271117
 45
10.95204383447483
 46
0.0000798601498432
 79
     2
 49
7.399774995313283
 49
-4560.119085052519
 53
83.25300000000003
 43
12325.57168518679
 44
-2919.213727873188
 45
10.95204383447483
 46
0.0000798601498432
 79
     2
 49
7.399774995313283
 49
-4560.119085052519
 53
74.89100000000004
 43
12323.96823615992
 44
1576.280618403335
 45
10.95202665113163
 46
-0.000003043705463
 79
     2
 49
3.63896653076602
 49
-416.5337124354707
 53
74.89100000000004
 43
12323.96823615992
 44
1539.40351980126
 45
10.95202665113163
 46
-0.000003043705463
 79
     2
 49
3.63896653076602
 49
-416.5337124354707
 53
74.89100000000004
 43
12323.96823615992
 44
1502.526421199191
 45
10.95202665113163
 46
-0.000003043705463
 79
     2
 49
3.63896653076602
 49
-416.5337124354707
 53
74.89100000000004
 43
12323.96823615992
 44
1465.649322597116
 45
10.95202665113163
 46
-0.000003043705463
 79
     2
 49
3.63896653076602
 49
-416.5337124354707
 53
74.89100000000004
 43
12323.96823615992
 44
1428.772223995044
 45
10.95202665113163
 46
-0.000003043705463
 79
     2
 49
3.63896653076602
 49
-416.5337124354707
 53
74.89100000000004
 43
12323.96823615992
 44
1391.895125392973
 45
10.95202665113163
 46
-0.000003043705463
 79
     2
 49
3.63896653076602
 49
-416.5337124354707
 53
74.89100000000004
 43
12323.96823615992
 44
1355.018026790904
 45
10.95202665113163
 46
-0.000003043705463
 79
     2
 49
3.63896653076602
 49
-416.5337124354707
 53
74.89100000000004
 43
12323.96823615992
 44
1318.140928188829
 45
10.95202665113163
 46
-0.000003043705463
 79
     2
 49
3.63896653076602
 49
-416.5337124354707
 53
74.89100000000004
 43
12323.96823615992
 44
1281.264812976059
 45
10.95202665113163
 46
-0.000003043705463
 79
     2
 49
3.63896653076602
 49
-416.5337124354707
 53
74.89100000000004
 43
12323.96823615992
 44
1244.387714373984
 45
10.95202665113163
 46
-0.000003043705463
 79
     2
 49
3.63896653076602
 49
-416.5337124354707
 53
74.89100000000004
 43
12323.96823615992
 44
1207.510615771912
 45
10.95202665113163
 46
-0.000003043705463
 79
     2
 49
3.63896653076602
 49
-416.5337124354707
 53
67.06200000000002
 43
12326.44273864559
 44
1587.142448195048
 45
10.95204222691618
 46
0.0000810236171289
 79
     2
 49
8.386475035331908
 49
-1593.356600854788
 53
67.06200000000002
 43
12326.44273864559
 44
1550.265382372624
 45
10.95204222691618
 46
0.0000810236171289
 79
     2
 49
8.386475035331908
 49
-1593.356600854788
 53
67.06200000000002
 43
12326.44273864559
 44
1513.388283770552
 45
10.95204222691618
 46
0.0000810236171289
 79
     2
 49
8.386475035331908
 49
-1593.356600854788
 53
67.06200000000002
 43
12326.44273864559
 44
1476.51118516848
 45
10.95204222691618
 46
0.0000810236171289
 79
     2
 49
8.386475035331908
 49
-1593.356600854788
 53
67.06200000000002
 43
12326.44273864559
 44
1439.634086566405
 45
10.95204222691618
 46
0.0000810236171289
 79
     2
 49
8.386475035331908
 49
-1593.356600854788
 53
67.06200000000002
 43
12326.44273864559
 44
1402.756987964337
 45
10.95204222691618
 46
0.0000810236171289
 79
     2
 49
8.386475035331908
 49
-1593.356600854788
 53
67.06200000000002
 43
12326.44273864559
 44
1365.879889362265
 45
10.95204222691618
 46
0.0000810236171289
 79
     2
 49
8.386475035331908
 49
-1593.356600854788
 53
67.06200000000002
 43
12326.44273864559
 44
1329.002790760193
 45
10.95204222691618
 46
0.0000810236171289
 79
     2
 49
8.386475035331908
 49
-1593.356600854788
 53
67.06200000000002
 43
12326.44273864559
 44
1292.125692158125
 45
10.95204222691618
 46
0.0000810236171289
 79
     2
 49
8.386475035331908
 49
-1593.356600854788
 53
67.06200000000002
 43
12326.44273864559
 44
1255.247610166752
 45
10.95204222691618
 46
0.0000810236171289
 79
     2
 49
8.386475035331908
 49
-1593.356600854788
 53
67.06200000000002
 43
12326.44273864559
 44
1218.370511564683
 45
10.95204222691618
 46
0.0000810236171289
 79
     2
 49
8.386475035331908
 49
-1593.356600854788
 53
67.06200000000002
 43
12326.44273864559
 44
1181.493412962608
 45
10.95204222691618
 46
0.0000810236171289
 79
     2
 49
8.386475035331908
 49
-1593.356600854788
 53
67.06200000000002
 43
12326.44273864559
 44
1144.61631436054
 45
10.95204222691618
 46
0.0000810236171289
 79
     2
 49
8.386475035331908
 49
-1593.356600854788
 53
67.06200000000002
 43
12326.44273864559
 44
1107.739215758472
 45
10.95204222691618
 46
0.0000810236171289
 79
     2
 49
8.386475035331908
 49
-1593.356600854788
 53
67.06200000000002
 43
12326.44273864559
 44
1070.862117156396
 45
10.95204222691618
 46
0.0000810236171289
 79
     2
 49
8.386475035331908
 49
-1593.356600854788
 53
67.06200000000002
 43
12326.44273864559
 44
1033.985018554328
 45
10.95204222691618
 46
0.0000810236171289
 79
     2
 49
8.386475035331908
 49
-1593.356600854788
 53
67.06200000000002
 43
12326.44273864559
 44
997.1079199522527
 45
10.95204222691618
 46
0.0000810236171289
 79
     2
 49
8.386475035331908
 49
-1593.356600854788
 53
67.06200000000002
 43
12326.44273864559
 44
960.2308213501773
 45
10.95204222691618
 46
0.0000810236171289
 79
     2
 49
8.386475035331908
 49
-1593.356600854788
 53
67.06200000000002
 43
12326.44273864559
 44
923.3537227481091
 45
10.95204222691618
 46
0.0000810236171289
 79
     2
 49
8.386475035331908
 49
-1593.356600854788
 53
67.06200000000002
 43
12326.44273864559
 44
886.4766241460412
 45
10.95204222691618
 46
0.0000810236171289
 79
     2
 49
8.386475035331908
 49
-1593.356600854788
 53
67.06200000000002
 43
12326.44273864559
 44
849.5995255439657
 45
10.95204222691618
 46
0.0000810236171289
 79
     2
 49
8.386475035331908
 49
-1593.356600854788
 53
67.06200000000002
 43
12326.44273864559
 44
812.7224269418938
 45
10.95204222691618
 46
0.0000810236171289
 79
     2
 49
8.386475035331908
 49
-1593.356600854788
 53
67.06200000000002
 43
12326.44273864559
 44
775.8453283398221
 45
10.95204222691618
 46
0.0000810236171289
 79
     2
 49
8.386475035331908
 49
-1593.356600854788
 53
67.06200000000002
 43
12326.44273864559
 44
738.9682297377503
 45
10.95204222691618
 46
0.0000810236171289
 79
     2
 49
8.386475035331908
 49
-1593.356600854788
 53
67.06200000000002
 43
12326.44273864559
 44
702.0911311356822
 45
10.95204222691618
 46
0.0000810236171289
 79
     2
 49
8.386475035331908
 49
-1593.356600854788
 53
67.06200000000002
 43
12326.44273864559
 44
665.2140325336103
 45
10.95204222691618
 46
0.0000810236171289
 79
     2
 49
8.386475035331908
 49
-1593.356600854788
 53
67.06200000000002
 43
12326.44273864559
 44
628.3369339315349
 45
10.95204222691618
 46
0.0000810236171289
 79
     2
 49
8.386475035331908
 49
-1593.356600854788
 53
67.06200000000002
 43
12326.44273864559
 44
591.4598353294668
 45
10.95204222691618
 46
0.0000810236171289
 79
     2
 49
8.386475035331908
 49
-1593.356600854788
 53
67.06200000000002
 43
12326.44273864559
 44
554.582736727395
 45
10.95204222691618
 46
0.0000810236171289
 79
     2
 49
8.386475035331908
 49
-1593.356600854788
 53
67.06200000000002
 43
12326.44273864559
 44
517.7056381253232
 45
10.95204222691618
 46
0.0000810236171289
 79
     2
 49
8.386475035331908
 49
-1593.356600854788
 53
67.06200000000002
 43
12326.44273864559
 44
480.8285395232478
 45
10.95204222691618
 46
0.0000810236171289
 79
     2
 49
8.386475035331908
 49
-1593.356600854788
 53
67.06200000000002
 43
12326.44273864559
 44
443.9514409211796
 45
10.95204222691618
 46
0.0000810236171289
 79
     2
 49
8.386475035331908
 49
-1593.356600854788
 53
67.06200000000002
 43
12326.44273864559
 44
407.0743423191079
 45
10.95204222691618
 46
0.0000810236171289
 79
     2
 49
8.386475035331908
 49
-1593.356600854788
 53
67.06200000000002
 43
12326.44273864559
 44
370.1972437170362
 45
10.95204222691618
 46
0.0000810236171289
 79
     2
 49
8.386475035331908
 49
-1593.356600854788
 53
67.06200000000002
 43
12326.44273864559
 44
333.3201451149644
 45
10.95204222691618
 46
0.0000810236171289
 79
     2
 49
8.386475035331908
 49
-1593.356600854788
 53
67.06200000000002
 43
12326.44273864559
 44
296.4430465128926
 45
10.95204222691618
 46
0.0000810236171289
 79
     2
 49
8.386475035331908
 49
-1593.356600854788
 53
67.06200000000002
 43
12326.44273864559
 44
259.5659479108199
 45
10.95204222691618
 46
0.0000810236171289
 79
     2
 49
8.386475035331908
 49
-1593.356600854788
 53
67.06200000000002
 43
12326.44273864559
 44
222.6888493087518
 45
10.95204222691618
 46
0.0000810236171289
 79
     2
 49
8.386475035331908
 49
-1593.356600854788
 53
67.06200000000002
 43
12326.44273864559
 44
185.8117507066799
 45
10.95204222691618
 46
0.0000810236171289
 79
     2
 49
8.386475035331908
 49
-1593.356600854788
 53
67.06200000000002
 43
12326.44273864559
 44
148.9346521046045
 45
10.95204222691618
 46
0.0000810236171289
 79
     2
 49
8.386475035331908
 49
-1593.356600854788
 53
52.43499999999998
 43
12319.91445471731
 44
1602.880184353761
 45
10.95203172552474
 46
-0.000054871588512
 79
     2
 49
4.503300162712174
 49
-1809.889024393906
 53
52.43499999999998
 43
12319.91445471731
 44
1566.003216870263
 45
10.95203172552474
 46
-0.000054871588512
 79
     2
 49
4.503300162712174
 49
-1809.889024393906
 53
52.43499999999998
 43
12319.91445471731
 44
1529.126118268187
 45
10.95203172552474
 46
-0.000054871588512
 79
     2
 49
4.503300162712174
 49
-1809.889024393906
 53
52.43499999999998
 43
12319.91445471731
 44
1492.249019666112
 45
10.95203172552474
 46
-0.000054871588512
 79
     2
 49
4.503300162712174
 49
-1809.889024393906
 53
52.43499999999998
 43
12319.91445471731
 44
1455.371921064044
 45
10.95203172552474
 46
-0.000054871588512
 79
     2
 49
4.503300162712174
 49
-1809.889024393906
 53
52.43499999999998
 43
12319.91445471731
 44
1418.494822461975
 45
10.95203172552474
 46
-0.000054871588512
 79
     2
 49
4.503300162712174
 49
-1809.889024393906
 53
52.43499999999998
 43
12319.91445471731
 44
1381.617723859904
 45
10.95203172552474
 46
-0.000054871588512
 79
     2
 49
4.503300162712174
 49
-1809.889024393906
 53
52.43499999999998
 43
12319.91445471731
 44
1344.740625257832
 45
10.95203172552474
 46
-0.000054871588512
 79
     2
 49
4.503300162712174
 49
-1809.889024393906
 53
52.43499999999998
 43
12319.91445471731
 44
1307.863526655757
 45
10.95203172552474
 46
-0.000054871588512
 79
     2
 49
4.503300162712174
 49
-1809.889024393906
 53
52.43499999999998
 43
12319.91445471731
 44
1270.985116867955
 45
10.95203172552474
 46
-0.000054871588512
 79
     2
 49
4.503300162712174
 49
-1809.889024393906
 53
52.43499999999998
 43
12319.91445471731
 44
1234.108018265887
 45
10.95203172552474
 46
-0.000054871588512
 79
     2
 49
4.503300162712174
 49
-1809.889024393906
 53
52.43499999999998
 43
12319.91445471731
 44
1197.230919663819
 45
10.95203172552474
 46
-0.000054871588512
 79
     2
 49
4.503300162712174
 49
-1809.889024393906
 53
52.43499999999998
 43
12319.91445471731
 44
1160.353821061743
 45
10.95203172552474
 46
-0.000054871588512
 79
     2
 49
4.503300162712174
 49
-1809.889024393906
 53
52.43499999999998
 43
12319.91445471731
 44
1123.476722459668
 45
10.95203172552474
 46
-0.000054871588512
 79
     2
 49
4.503300162712174
 49
-1809.889024393906
 53
52.43499999999998
 43
12319.91445471731
 44
1086.5996238576
 45
10.95203172552474
 46
-0.000054871588512
 79
     2
 49
4.503300162712174
 49
-1809.889024393906
 53
52.43499999999998
 43
12319.91445471731
 44
1049.722525255532
 45
10.95203172552474
 46
-0.000054871588512
 79
     2
 49
4.503300162712174
 49
-1809.889024393906
 53
52.43499999999998
 43
12319.91445471731
 44
1012.845426653456
 45
10.95203172552474
 46
-0.000054871588512
 79
     2
 49
4.503300162712174
 49
-1809.889024393906
 53
52.43499999999998
 43
12319.91445471731
 44
975.9683280513881
 45
10.95203172552474
 46
-0.000054871588512
 79
     2
 49
4.503300162712174
 49
-1809.889024393906
 53
52.43499999999998
 43
12319.91445471731
 44
939.0912294493128
 45
10.95203172552474
 46
-0.000054871588512
 79
     2
 49
4.503300162712174
 49
-1809.889024393906
 53
52.43499999999998
 43
12319.91445471731
 44
902.2141308472447
 45
10.95203172552474
 46
-0.000054871588512
 79
     2
 49
4.503300162712174
 49
-1809.889024393906
 53
52.43499999999998
 43
12319.91445471731
 44
865.3370322451765
 45
10.95203172552474
 46
-0.000054871588512
 79
     2
 49
4.503300162712174
 49
-1809.889024393906
 53
52.43499999999998
 43
12319.91445471731
 44
828.4599336431011
 45
10.95203172552474
 46
-0.000054871588512
 79
     2
 49
4.503300162712174
 49
-1809.889024393906
 53
52.43499999999998
 43
12319.91445471731
 44
791.5828350410256
 45
10.95203172552474
 46
-0.000054871588512
 79
     2
 49
4.503300162712174
 49
-1809.889024393906
 53
52.43499999999998
 43
12319.91445471731
 44
754.7057364389575
 45
10.95203172552474
 46
-0.000054871588512
 79
     2
 49
4.503300162712174
 49
-1809.889024393906
 53
52.43499999999998
 43
12319.91445471731
 44
717.828637836882
 45
10.95203172552474
 46
-0.000054871588512
 79
     2
 49
4.503300162712174
 49
-1809.889024393906
 53
52.43499999999998
 43
12319.91445471731
 44
680.9515392348139
 45
10.95203172552474
 46
-0.000054871588512
 79
     2
 49
4.503300162712174
 49
-1809.889024393906
 53
52.43499999999998
 43
12319.91445471731
 44
644.0744406327385
 45
10.95203172552474
 46
-0.000054871588512
 79
     2
 49
4.503300162712174
 49
-1809.889024393906
 53
52.43499999999998
 43
12319.91445471731
 44
607.1973420306703
 45
10.95203172552474
 46
-0.000054871588512
 79
     2
 49
4.503300162712174
 49
-1809.889024393906
 53
52.43499999999998
 43
12319.91445471731
 44
570.3202434285985
 45
10.95203172552474
 46
-0.000054871588512
 79
     2
 49
4.503300162712174
 49
-1809.889024393906
 53
52.43499999999998
 43
12319.91445471731
 44
533.4431448265267
 45
10.95203172552474
 46
-0.000054871588512
 79
     2
 49
4.503300162712174
 49
-1809.889024393906
 53
52.43499999999998
 43
12319.91445471731
 44
496.5660462244549
 45
10.95203172552474
 46
-0.000054871588512
 79
     2
 49
4.503300162712174
 49
-1809.889024393906
 53
52.43499999999998
 43
12319.91445471731
 44
459.6889476223832
 45
10.95203172552474
 46
-0.000054871588512
 79
     2
 49
4.503300162712174
 49
-1809.889024393906
 53
52.43499999999998
 43
12319.91445471731
 44
422.8118490203151
 45
10.95203172552474
 46
-0.000054871588512
 79
     2
 49
4.503300162712174
 49
-1809.889024393906
 53
52.43499999999998
 43
12319.91445471731
 44
385.9347504182397
 45
10.95203172552474
 46
-0.000054871588512
 79
     2
 49
4.503300162712174
 49
-1809.889024393906
 53
52.43499999999998
 43
12319.91445471731
 44
349.0576518161715
 45
10.95203172552474
 46
-0.000054871588512
 79
     2
 49
4.503300162712174
 49
-1809.889024393906
 53
52.43499999999998
 43
12319.91445471731
 44
312.1805532140961
 45
10.95203172552474
 46
-0.000054871588512
 79
     2
 49
4.503300162712174
 49
-1809.889024393906
 53
52.43499999999998
 43
12319.91445471731
 44
275.3034546120243
 45
10.95203172552474
 46
-0.000054871588512
 79
     2
 49
4.503300162712174
 49
-1809.889024393906
 53
52.43499999999998
 43
12319.91445471731
 44
238.4263560099516
 45
10.95203172552474
 46
-0.000054871588512
 79
     2
 49
4.503300162712174
 49
-1809.889024393906
 53
52.43499999999998
 43
12319.91445471731
 44
201.5492574078835
 45
10.95203172552474
 46
-0.000054871588512
 79
     2
 49
4.503300162712174
 49
-1809.889024393906
 53
25.04599999999999
 43
12319.76788545969
 44
1574.31810116484
 45
10.95203652759968
 46
0.0000881814618674
 79
     2
 49
4.636287175181988
 49
-2957.102061108971
 53
25.04599999999999
 43
12319.76788545969
 44
1537.441002562768
 45
10.95203652759968
 46
0.0000881814618674
 79
     2
 49
4.636287175181988
 49
-2957.102061108971
 53
25.04599999999999
 43
12319.76788545969
 44
1500.563903960693
 45
10.95203652759968
 46
0.0000881814618674
 79
     2
 49
4.636287175181988
 49
-2957.102061108971
 53
25.04599999999999
 43
12319.76788545969
 44
1463.686805358625
 45
10.95203652759968
 46
0.0000881814618674
 79
     2
 49
4.636287175181988
 49
-2957.102061108971
 53
25.04599999999999
 43
12319.76788545969
 44
1426.809706756549
 45
10.95203652759968
 46
0.0000881814618674
 79
     2
 49
4.636287175181988
 49
-2957.102061108971
 53
25.04599999999999
 43
12319.76788545969
 44
1389.932608154481
 45
10.95203652759968
 46
0.0000881814618674
 79
     2
 49
4.636287175181988
 49
-2957.102061108971
 53
25.04599999999999
 43
12319.76788545969
 44
1353.055509552409
 45
10.95203652759968
 46
0.0000881814618674
 79
     2
 49
4.636287175181988
 49
-2957.102061108971
 53
25.04599999999999
 43
12319.76788545969
 44
1316.178410950338
 45
10.95203652759968
 46
0.0000881814618674
 79
     2
 49
4.636287175181988
 49
-2957.102061108971
 53
25.04599999999999
 43
12319.76788545969
 44
1279.301312348262
 45
10.95203652759968
 46
0.0000881814618674
 79
     2
 49
4.636287175181988
 49
-2957.102061108971
 53
25.04599999999999
 43
12319.76788545969
 44
1242.424213746194
 45
10.95203652759968
 46
0.0000881814618674
 79
     2
 49
4.636287175181988
 49
-2957.102061108971
 53
25.04599999999999
 43
12319.76788545969
 44
1205.547115144119
 45
10.95203652759968
 46
0.0000881814618674
 79
     2
 49
4.636287175181988
 49
-2957.102061108971
 53
25.04599999999999
 43
12319.76788545969
 44
1168.67001654205
 45
10.95203652759968
 46
0.0000881814618674
 79
     2
 49
4.636287175181988
 49
-2957.102061108971
 53
25.04599999999999
 43
12319.76788545969
 44
1131.792917939982
 45
10.95203652759968
 46
0.0000881814618674
 79
     2
 49
4.636287175181988
 49
-2957.102061108971
 53
25.04599999999999
 43
12319.76788545969
 44
1094.915819337907
 45
10.95203652759968
 46
0.0000881814618674
 79
     2
 49
4.636287175181988
 49
-2957.102061108971
 53
25.04599999999999
 43
12319.76788545969
 44
1058.038720735839
 45
10.95203652759968
 46
0.0000881814618674
 79
     2
 49
4.636287175181988
 49
-2957.102061108971
 53
25.04599999999999
 43
12319.76788545969
 44
1021.161622133763
 45
10.95203652759968
 46
0.0000881814618674
 79
     2
 49
4.636287175181988
 49
-2957.102061108971
 53
25.04599999999999
 43
12319.76788545969
 44
984.2845235316881
 45
10.95203652759968
 46
0.0000881814618674
 79
     2
 49
4.636287175181988
 49
-2957.102061108971
 53
25.04599999999999
 43
12319.76788545969
 44
947.4074249296199
 45
10.95203652759968
 46
0.0000881814618674
 79
     2
 49
4.636287175181988
 49
-2957.102061108971
 53
25.04599999999999
 43
12319.76788545969
 44
910.5303263275517
 45
10.95203652759968
 46
0.0000881814618674
 79
     2
 49
4.636287175181988
 49
-2957.102061108971
 53
25.04599999999999
 43
12319.76788545969
 44
873.6532277254765
 45
10.95203652759968
 46
0.0000881814618674
 79
     2
 49
4.636287175181988
 49
-2957.102061108971
 53
25.04599999999999
 43
12319.76788545969
 44
836.7761291234083
 45
10.95203652759968
 46
0.0000881814618674
 79
     2
 49
4.636287175181988
 49
-2957.102061108971
 53
25.04599999999999
 43
12319.76788545969
 44
799.8990305213328
 45
10.95203652759968
 46
0.0000881814618674
 79
     2
 49
4.636287175181988
 49
-2957.102061108971
 53
25.04599999999999
 43
12319.76788545969
 44
763.0219319192611
 45
10.95203652759968
 46
0.0000881814618674
 79
     2
 49
4.636287175181988
 49
-2957.102061108971
 53
25.04599999999999
 43
12319.76788545969
 44
726.1448333171929
 45
10.95203652759968
 46
0.0000881814618674
 79
     2
 49
4.636287175181988
 49
-2957.102061108971
 53
25.04599999999999
 43
12319.76788545969
 44
689.2677347151211
 45
10.95203652759968
 46
0.0000881814618674
 79
     2
 49
4.636287175181988
 49
-2957.102061108971
 53
25.04599999999999
 43
12319.76788545969
 44
652.3906361130457
 45
10.95203652759968
 46
0.0000881814618674
 79
     2
 49
4.636287175181988
 49
-2957.102061108971
 53
25.04599999999999
 43
12319.76788545969
 44
615.5135375109775
 45
10.95203652759968
 46
0.0000881814618674
 79
     2
 49
4.636287175181988
 49
-2957.102061108971
 53
25.04599999999999
 43
12319.76788545969
 44
578.6364389089057
 45
10.95203652759968
 46
0.0000881814618674
 79
     2
 49
4.636287175181988
 49
-2957.102061108971
 53
25.04599999999999
 43
12319.76788545969
 44
541.759340306834
 45
10.95203652759968
 46
0.0000881814618674
 79
     2
 49
4.636287175181988
 49
-2957.102061108971
 53
25.04599999999999
 43
12319.76788545969
 44
504.8822417047586
 45
10.95203652759968
 46
0.0000881814618674
 79
     2
 49
4.636287175181988
 49
-2957.102061108971
 53
25.04599999999999
 43
12319.76788545969
 44
468.0051431026904
 45
10.95203652759968
 46
0.0000881814618674
 79
     2
 49
4.636287175181988
 49
-2957.102061108971
 53
25.04599999999999
 43
12319.76788545969
 44
431.1280445006186
 45
10.95203652759968
 46
0.0000881814618674
 79
     2
 49
4.636287175181988
 49
-2957.102061108971
 53
25.04599999999999
 43
12319.76788545969
 44
394.2509458985469
 45
10.95203652759968
 46
0.0000881814618674
 79
     2
 49
4.636287175181988
 49
-2957.102061108971
 53
25.04599999999999
 43
12319.76788545969
 44
357.3738472964751
 45
10.95203652759968
 46
0.0000881814618674
 79
     2
 49
4.636287175181988
 49
-2957.102061108971
 53
14.07599999999998
 43
12322.65996126416
 44
1606.449756379868
 45
10.95202660951167
 46
-0.0000805056871684
 79
     2
 49
2.663936043727242
 49
-1058.697838380728
 53
14.07599999999998
 43
12322.65996126416
 44
1569.572592218507
 45
10.95202660951167
 46
-0.0000805056871684
 79
     2
 49
2.663936043727242
 49
-1058.697838380728
 53
14.07599999999998
 43
12322.65996126416
 44
1532.695493616436
 45
10.95202660951167
 46
-0.0000805056871684
 79
     2
 49
2.663936043727242
 49
-1058.697838380728
 53
14.07599999999998
 43
12322.65996126416
 44
1495.818395014367
 45
10.95202660951167
 46
-0.0000805056871684
 79
     2
 49
2.663936043727242
 49
-1058.697838380728
 53
14.07599999999998
 43
12322.65996126416
 44
1458.941296412292
 45
10.95202660951167
 46
-0.0000805056871684
 79
     2
 49
2.663936043727242
 49
-1058.697838380728
 53
14.07599999999998
 43
12322.65996126416
 44
1422.064197810217
 45
10.95202660951167
 46
-0.0000805056871684
 79
     2
 49
2.663936043727242
 49
-1058.697838380728
 53
14.07599999999998
 43
12322.65996126416
 44
1385.187099208148
 45
10.95202660951167
 46
-0.0000805056871684
 79
     2
 49
2.663936043727242
 49
-1058.697838380728
 98
        1
 10
1844.502415478826
 20
443.5851379771584
  0
POLYLINE
  5
7BB9
330
67
100
AcDbEntity
  8
F_01 sichtbar
370
    13
100
AcDb2dPolyline
 66
     1
 10
0.0
 20
0.0
 30
0.0
  0
VERTEX
  5
7BBA
330
7BB9
100
AcDbEntity
  8
F_01 sichtbar
370
    13
100
AcDbVertex
100
AcDb2dVertex
 10
278.239935284073
 20
327.8670234695046
 30
0.0
  0
VERTEX
  5
7BBB
330
7BB9
100
AcDbEntity
  8
F_01 sichtbar
370
    13
100
AcDbVertex
100
AcDb2dVertex
 10
440.1835878478959
 20
327.8670234695046
 30
0.0
  0
VERTEX
  5
7BBC
330
7BB9
100
AcDbEntity
  8
F_01 sichtbar
370
    13
100
AcDbVertex
100
AcDb2dVertex
 10
440.1835878478959
 20
315.8670234695046
 30
0.0
  0
VERTEX
  5
7BBD
330
7BB9
100
AcDbEntity
  8
F_01 sichtbar
370
    13
100
AcDbVertex
100
AcDb2dVertex
 10
278.239935284073
 20
315.8670234695046
 30
0.0
  0
SEQEND
  5
7BBE
330
7BB9
100
AcDbEntity
  8
F_01 sichtbar
370
    13
  0
POLYLINE
  5
7BBF
330
67
100
AcDbEntity
  8
F_01 sichtbar
370
    13
100
AcDb2dPolyline
 66
     1
 10
0.0
 20
0.0
 30
0.0
  0
VERTEX
  5
7BC0
330
7BBF
100
AcDbEntity
  8
F_01 sichtbar
370
    13
100
AcDbVertex
100
AcDb2dVertex
 10
278.239935284073
 20
330.8670234695046
 30
0.0
  0
VERTEX
  5
7BC1
330
7BBF
100
AcDbEntity
  8
F_01 sichtbar
370
    13
100
AcDbVertex
100
AcDb2dVertex
 10
440.1835878478959
 20
330.8670234695082
 30
0.0
  0
VERTEX
  5
7BC2
330
7BBF
100
AcDbEntity
  8
F_01 sichtbar
370
    13
100
AcDbVertex
100
AcDb2dVertex
 10
440.1835878478959
 20
530.8670234695045
 30
0.0
  0
VERTEX
  5
7BC3
330
7BBF
100
AcDbEntity
  8
F_01 sichtbar
370
    13
100
AcDbVertex
100
AcDb2dVertex
 10
278.239935284073
 20
530.8670234695045
 30
0.0
  0
SEQEND
  5
7BC4
330
7BBF
100
AcDbEntity
  8
F_01 sichtbar
370
    13
  0
POLYLINE
  5
7BC5
330
67
100
AcDbEntity
  8
F_01 sichtbar
370
    13
100
AcDb2dPolyline
 66
     1
 10
0.0
 20
0.0
 30
0.0
  0
VERTEX
  5
7BC6
330
7BC5
100
AcDbEntity
  8
F_01 sichtbar
370
    13
100
AcDbVertex
100
AcDb2dVertex
 10
278.239935284073
 20
533.8670234695046
 30
0.0
  0
VERTEX
  5
7BC7
330
7BC5
100
AcDbEntity
  8
F_01 sichtbar
370
    13
100
AcDbVertex
100
AcDb2dVertex
 10
440.1835878479032
 20
533.8670234695046
 30
0.0
  0
VERTEX
  5
7BC8
330
7BC5
100
AcDbEntity
  8
F_01 sichtbar
370
    13
100
AcDbVertex
100
AcDb2dVertex
 10
440.1835878479105
 20
653.8670234695046
 30
0.0
  0
VERTEX
  5
7BC9
330
7BC5
100
AcDbEntity
  8
F_01 sichtbar
370
    13
100
AcDbVertex
100
AcDb2dVertex
 10
278.239935284073
 20
653.8670234695046
 30
0.0
  0
SEQEND
  5
7BCA
330
7BC5
100
AcDbEntity
  8
F_01 sichtbar
370
    13
  0
POLYLINE
  5
7BCB
330
67
100
AcDbEntity
  8
F_01 sichtbar
370
    13
100
AcDb2dPolyline
 66
     1
 10
0.0
 20
0.0
 30
0.0
  0
VERTEX
  5
7BCC
330
7BCB
100
AcDbEntity
  8
F_01 sichtbar
370
    13
100
AcDbVertex
100
AcDb2dVertex
 10
440.1835878479032
 20
563.8670234695045
 30
0.0
  0
VERTEX
  5
7BCD
330
7BCB
100
AcDbEntity
  8
F_01 sichtbar
370
    13
100
AcDbVertex
100
AcDb2dVertex
 10
278.239935284073
 20
563.8670234695045
 30
0.0
  0
SEQEND
  5
7BCE
330
7BCB
100
AcDbEntity
  8
F_01 sichtbar
370
    13
  0
LINE
  5
7BCF
330
67
100
AcDbEntity
  8
F_01 sichtbar
370
    13
100
AcDbLine
 10
679.0259324905055
 20
353.3670597355149
 30
0.0
 11
477.6837489793178
 21
353.3670597355185
 31
0.0
  0
LINE
  5
7BD0
330
67
100
AcDbEntity
  8
F_02 unsichtbar
370
    13
100
AcDbLine
 10
440.1835878479105
 20
532.3670234695046
 30
0.0
 11
278.2399352840803
 21
532.3670234695046
 31
0.0
  0
LINE
  5
7BD1
330
67
100
AcDbEntity
  8
F_02 unsichtbar
370
    13
100
AcDbLine
 10
440.1835878479105
 20
329.3670234695046
 30
0.0
 11
278.2399352840803
 21
329.3670234695046
 31
0.0
  0
LINE
  5
7BD2
330
67
100
AcDbEntity
  8
F_01 sichtbar
370
    13
100
AcDbLine
 10
450.1835878479396
 20
321.3781639416911
 30
0.0
 11
679.0259324905055
 21
321.3781639416875
 31
0.0
  0
LINE
  5
7BD3
330
67
100
AcDbEntity
  8
F_01 sichtbar
370
    13
100
AcDbLine
 10
508.1835878479396
 20
321.3781639416911
 30
0.0
 11
508.1835878479396
 21
353.3670597355185
 31
0.0
  0
HATCH
  5
7BD4
330
67
100
AcDbEntity
  8
F_18 Schr-Holz hell
370
    13
100
AcDbHatch
 10
0.0
 20
0.0
 30
0.0
210
0.0
220
0.0
230
1.0
  2
SOLID
 70
     1
 71
     0
 91
        1
 92
        1
 93
       10
 72
     1
 10
447.6835649456043
 20
653.867023334441
 11
472.6842901001582
 21
653.8670234695046
 72
     1
 10
472.6842901001582
 20
653.8670234695046
 11
472.6835681949232
 21
356.867026097515
 72
     1
 10
472.6835681949232
 20
356.867026097515
 11
468.6835827964095
 21
356.8670256770301
 72
     1
 10
468.6835827964095
 20
356.8670256770301
 11
468.6835819554398
 21
364.8670256770301
 72
     1
 10
468.6835819554398
 20
364.8670256770301
 11
464.6835819554398
 21
364.8670466829599
 72
     1
 10
464.6835819554398
 20
364.8670466829599
 11
464.6835824810477
 21
356.8669932992516
 72
     1
 10
464.6835824810477
 20
356.8669932992516
 11
459.6835650197099
 21
356.867026097515
 72
     1
 10
459.6835650197099
 20
356.867026097515
 11
459.6835653363596
 21
352.8669796819531
 72
     1
 10
459.6835653363596
 20
352.866979681955
 11
447.6835806316012
 21
352.866979681955
 72
     1
 10
447.6835806316012
 20
352.866979681955
 11
447.6835649456043
 21
653.8670233344427
 97
        0
 75
     0
 76
     1
 98
        1
 10
-37893.2240605573
 20
-14070.18137076521
450
        0
451
        0
460
0.0
461
0.0
452
        1
462
1.0
453
        2
463
0.0
 63
     5
421
      255
463
1.0
 63
     7
421
 16777215
470
LINEAR
1001
ACAD
1010
0.0
1020
0.0
1030
0.0
  0
HATCH
  5
7BD5
330
67
100
AcDbEntity
  8
F_18 Schr-Holz hell
370
    13
100
AcDbHatch
 10
0.0
 20
0.0
 30
0.0
210
0.0
220
0.0
230
1.0
  2
SOLID
 70
     1
 71
     0
 91
        1
 92
        7
 72
     1
 73
     1
 93
       67
 10
467.7835827286762
 20
357.5113631497179
 42
0.0
 10
467.7835825073271
 20
359.6170255824209
 42
-0.4142135623735426
 10
468.0335824810462
 20
359.8670256087016
 42
0.0
 10
468.6835824810478
 20
359.8670256770301
 42
0.0
 10
468.6835823969523
 20
360.6670256770294
 42
0.0
 10
468.0335823969435
 20
360.6670256087009
 42
-0.414213562374175
 10
467.7835823706628
 20
360.9170255824238
 42
0.0
 10
467.7835821919652
 20
362.6170255824245
 42
-0.4142135623721543
 10
468.0335821656845
 20
362.8670256087016
 42
0.0
 10
468.6835821656786
 20
362.8670256770301
 42
0.0
 10
468.6835820815831
 20
363.6670256770294
 42
0.0
 10
468.033582081589
 20
363.6670256087009
 42
-0.4142135623679057
 10
467.7835820553082
 20
363.9170255824165
 42
0.0
 10
467.7835820342806
 20
364.1170255824245
 42
0.4142135623680808
 10
467.5335820079999
 20
364.3670255561401
 42
0.0
 10
466.6835820080014
 20
364.3670254667877
 42
0.0
 10
465.8335820080028
 20
364.3670253774353
 42
0.4142135623674541
 10
465.5835820342836
 20
364.1170253511618
 42
0.0
 10
465.5835820553038
 20
363.9170253511502
 42
-0.4142135623676283
 10
465.3335820815846
 20
363.6670253248731
 42
0.0
 10
464.6835820342821
 20
363.6670252565445
 42
0.0
 10
464.6835820868436
 20
362.8670252565453
 42
0.0
 10
465.3335821656801
 20
362.8670253248738
 42
-0.4142135623738475
 10
465.5835821919608
 20
362.6170253511582
 42
0.0
 10
465.5835823706657
 20
360.9170253511538
 42
-0.4142135623732691
 10
465.3335823969464
 20
360.6670253248731
 42
0.0
 10
464.6835822313805
 20
360.6670252565446
 42
0.0
 10
464.683582283942
 20
359.8670252565453
 42
0.0
 10
465.3335824810419
 20
359.8670253248738
 42
-0.4142135623737132
 10
465.5835825073227
 20
359.6170253511545
 42
0.0
 10
465.5835827286718
 20
357.5113629184516
 42
-0.2679491924300826
 10
465.4585827514311
 20
357.2948565543657
 42
0.0
 10
464.7755700909983
 20
356.9005189152695
 42
-0.0981035276021723
 10
464.6835824809023
 20
356.8692144772604
 42
0.0
 10
464.6835824810477
 20
356.8669932992516
 42
0.0
 10
461.1835827964096
 20
356.8670162579538
 42
0.0
 10
461.1835829015253
 20
355.8670248886183
 42
0.0
 10
464.1835486853524
 20
352.8670597355185
 42
0.0
 10
465.3734741410008
 20
352.8670597355149
 42
0.3381943251868642
 10
464.9160063977178
 20
353.265972908116
 42
0.0
 10
462.7417304915943
 20
355.4402483571203
 42
-0.6681786379188932
 10
462.9185071420216
 20
355.8670250709974
 42
0.0
 10
466.0460806872797
 20
355.8670253997725
 42
-0.3394542588692275
 10
466.1426732776963
 20
355.7929073144396
 42
0.0
 10
466.1833382837139
 20
355.6411435096952
 42
0.4063349011664043
 10
466.3031981750537
 20
355.569769924673
 42
0.4063349011344664
 10
466.4230580513758
 20
355.6411435348846
 42
0.0
 10
466.4637230254957
 20
355.7929073481928
 42
-0.3394542588510407
 10
466.5603156003271
 20
355.8670254538292
 42
0.0
 10
466.6835829015326
 20
355.8670254667877
 42
0.0
 10
466.8068502027381
 20
355.8670254797462
 42
-0.3394542588693957
 10
466.9034427931546
 20
355.7929073944097
 42
0.0
 10
466.9441077991723
 20
355.6411435896689
 42
0.4063349011541482
 10
467.0639676905047
 20
355.569770004643
 42
0.4063349011467209
 10
467.1838275668342
 20
355.6411436148583
 42
0.0
 10
467.2244925409541
 20
355.7929074281665
 42
-0.3394542588528786
 10
467.3210851157855
 20
355.8670255338029
 42
0.0
 10
470.4486586610364
 20
355.867025862578
 42
-0.6681786379191406
 10
470.6254354011981
 20
355.4402491858664
 42
0.0
 10
468.0522464918467
 20
352.8670597355149
 42
0.0
 10
469.1836172228067
 20
352.8670597355149
 42
0.0
 10
472.1835829015254
 20
355.8670260449535
 42
0.0
 10
472.1835827964095
 20
356.8670260449571
 42
0.0
 10
468.6835827964095
 20
356.8670256770301
 42
0.0
 10
468.6835827961767
 20
356.8692149397457
 42
-0.0981032064795054
 10
468.5915954947777
 20
356.9005193164148
 42
0.0
 10
467.9085827514354
 20
357.2948568119127
 42
-0.2679491924307705
 97
        0
 75
     0
 76
     1
 47
0.0244302893764967
 98
        1
 10
466.7783906219993
 20
357.329261429556
450
        0
451
        0
460
0.0
461
0.0
452
        1
462
1.0
453
        2
463
0.0
 63
     5
421
      255
463
1.0
 63
     7
421
 16777215
470
LINEAR
1001
ACAD
1010
0.0
1020
0.0
1030
0.0
  0
POLYLINE
  5
7BD6
330
67
100
AcDbEntity
  8
F_01 sichtbar
370
    13
100
AcDb2dPolyline
 66
     1
 10
0.0
 20
0.0
 30
0.0
 70
     1
  0
VERTEX
  5
7BD7
330
7BD6
100
AcDbEntity
  8
F_01 sichtbar
370
    13
100
AcDbVertex
100
AcDb2dVertex
 10
447.6835649456043
 20
653.867023334441
 30
0.0
  0
VERTEX
  5
7BD8
330
7BD6
100
AcDbEntity
  8
F_01 sichtbar
370
    13
100
AcDbVertex
100
AcDb2dVertex
 10
472.6842901001582
 20
653.8670234695046
 30
0.0
  0
VERTEX
  5
7BD9
330
7BD6
100
AcDbEntity
  8
F_01 sichtbar
370
    13
100
AcDbVertex
100
AcDb2dVertex
 10
472.6835681949232
 20
356.867026097515
 30
0.0
  0
VERTEX
  5
7BDA
330
7BD6
100
AcDbEntity
  8
F_01 sichtbar
370
    13
100
AcDbVertex
100
AcDb2dVertex
 10
468.6835827964095
 20
356.8670256770301
 30
0.0
  0
VERTEX
  5
7BDB
330
7BD6
100
AcDbEntity
  8
F_01 sichtbar
370
    13
100
AcDbVertex
100
AcDb2dVertex
 10
468.6835819554398
 20
364.8670256770301
 30
0.0
  0
VERTEX
  5
7BDC
330
7BD6
100
AcDbEntity
  8
F_01 sichtbar
370
    13
100
AcDbVertex
100
AcDb2dVertex
 10
464.6835819554398
 20
364.8670466829599
 30
0.0
  0
VERTEX
  5
7BDD
330
7BD6
100
AcDbEntity
  8
F_01 sichtbar
370
    13
100
AcDbVertex
100
AcDb2dVertex
 10
464.6835824810477
 20
356.8669932992516
 30
0.0
  0
VERTEX
  5
7BDE
330
7BD6
100
AcDbEntity
  8
F_01 sichtbar
370
    13
100
AcDbVertex
100
AcDb2dVertex
 10
459.6835650197099
 20
356.867026097515
 30
0.0
  0
VERTEX
  5
7BDF
330
7BD6
100
AcDbEntity
  8
F_01 sichtbar
370
    13
100
AcDbVertex
100
AcDb2dVertex
 10
459.6835653363596
 20
352.866979681955
 30
0.0
  0
VERTEX
  5
7BE0
330
7BD6
100
AcDbEntity
  8
F_01 sichtbar
370
    13
100
AcDbVertex
100
AcDb2dVertex
 10
447.6835806316012
 20
352.866979681955
 30
0.0
  0
SEQEND
  5
7BE1
330
7BD6
100
AcDbEntity
  8
F_01 sichtbar
370
    13
  0
POLYLINE
  5
7BE2
330
67
100
AcDbEntity
  8
F_01 sichtbar
370
    13
100
AcDb2dPolyline
 66
     1
 10
0.0
 20
0.0
 30
0.0
 70
     1
  0
VERTEX
  5
7BE3
330
7BE2
100
AcDbEntity
  8
F_01 sichtbar
370
    13
100
AcDbVertex
100
AcDb2dVertex
 10
679.0259324905055
 20
316.3670597355185
 30
0.0
  0
VERTEX
  5
7BE4
330
7BE2
100
AcDbEntity
  8
F_01 sichtbar
370
    13
100
AcDbVertex
100
AcDb2dVertex
 10
679.0259324905055
 20
358.3668118379092
 30
0.0
  0
VERTEX
  5
7BE5
330
7BE2
100
AcDbEntity
  8
F_01 sichtbar
370
    13
100
AcDbVertex
100
AcDb2dVertex
 10
477.6837489755853
 20
358.3668116900435
 30
0.0
  0
VERTEX
  5
7BE6
330
7BE2
100
AcDbEntity
  8
F_01 sichtbar
370
    13
100
AcDbVertex
100
AcDb2dVertex
 10
477.6837489755853
 20
352.8670597355149
 30
0.0
  0
VERTEX
  5
7BE7
330
7BE2
100
AcDbEntity
  8
F_01 sichtbar
370
    13
100
AcDbVertex
100
AcDb2dVertex
 10
451.7830238247698
 20
352.8670597355185
 30
0.0
  0
VERTEX
  5
7BE8
330
7BE2
100
AcDbEntity
  8
F_01 sichtbar
370
    13
100
AcDbVertex
100
AcDb2dVertex
 10
450.1835878479396
 20
321.3781639416911
 30
0.0
  0
VERTEX
  5
7BE9
330
7BE2
100
AcDbEntity
  8
F_01 sichtbar
370
    13
100
AcDbVertex
100
AcDb2dVertex
 10
450.1835878479396
 20
316.3670597355149
 30
0.0
  0
SEQEND
  5
7BEA
330
7BE2
100
AcDbEntity
  8
F_01 sichtbar
370
    13
  0
POLYLINE
  5
7BEB
330
67
100
AcDbEntity
  8
F_31 Ansichtsfenster
370
    13
100
AcDb2dPolyline
 66
     1
 10
0.0
 20
0.0
 30
0.0
  0
VERTEX
  5
7BEC
330
7BEB
100
AcDbEntity
  8
F_31 Ansichtsfenster
370
    13
100
AcDbVertex
100
AcDb2dVertex
 10
278.239935284073
 20
315.8670234695046
 30
0.0
  0
VERTEX
  5
7BED
330
7BEB
100
AcDbEntity
  8
F_31 Ansichtsfenster
370
    13
100
AcDbVertex
100
AcDb2dVertex
 10
278.239935284073
 20
653.8670234695046
 30
0.0
  0
SEQEND
  5
7BEE
330
7BEB
100
AcDbEntity
  8
F_31 Ansichtsfenster
370
    13
  0
LINE
  5
7BEF
330
67
100
AcDbEntity
  8
F_01 sichtbar
370
    13
100
AcDbLine
 10
472.6842901001582
 20
653.8670234695046
 30
0.0
 11
679.0259324905055
 21
653.8670234695046
 31
0.0
  0
HATCH
  5
7BF0
330
67
100
AcDbEntity
  8
F_01 sichtbar
370
    13
100
AcDbHatch
 10
0.0
 20
0.0
 30
0.0
210
0.0
220
0.0
230
1.0
  2
JIS_WOOD
 70
     0
 71
     0
 91
        1
 92
        1
 93
       10
 72
     1
 10
449.1835743422925
 20
653.8670233425464
 11
471.1835743422925
 21
653.8670234613991
 72
     1
 10
471.1835743422925
 20
653.8670234613991
 11
471.1835602348001
 21
356.8670259398104
 72
     1
 10
471.1835602348001
 20
356.8670259398086
 11
468.6835632816801
 21
356.8670256770083
 72
     1
 10
468.6835632816801
 20
356.8670256770083
 11
468.6835675916518
 21
364.8670247309155
 72
     1
 10
468.6835675916518
 20
364.8670247309155
 11
464.6835675916518
 21
364.8670247309155
 72
     1
 10
464.6835675916518
 20
364.8670247309155
 11
464.6835632816801
 21
356.8670252565234
 72
     1
 10
464.6835632816801
 20
356.8670252565234
 11
459.6835650197172
 21
356.8669796819531
 72
     1
 10
459.6835650197172
 20
356.8669796819549
 11
459.6835653363523
 21
352.8670597355222
 72
     1
 10
459.6835653363523
 20
352.8670597355222
 11
449.183574029128
 21
352.866979681955
 72
     1
 10
449.183574029128
 20
352.866979681955
 11
449.1835743422925
 21
653.8670233425464
 97
        0
 75
     0
 76
     1
 52
315.0
 41
30.0
 77
     0
 78
     1
 53
0.0
 43
-23261.13734480435
 44
-14160.67368961017
 45
0.0000000000000071
 46
21.2132034
 79
     0
 98
        1
 10
-23261.13734480435
 20
-14160.67368961017
1001
ACAD
1010
0.0
1020
0.0
1030
0.0
  0
HATCH
  5
7BF1
330
67
100
AcDbEntity
  8
F_01 sichtbar
370
    13
100
AcDbHatch
 10
0.0
 20
0.0
 30
0.0
210
0.0
220
0.0
230
1.0
  2
JIS_WOOD
 70
     0
 71
     0
 91
        1
 92
        1
 93
        6
 72
     1
 10
508.1835878479396
 20
321.3671057445126
 11
508.1836525831022
 21
353.3670597355185
 72
     1
 10
508.1836525831022
 20
353.3670597355185
 11
478.1529443417094
 21
353.3671057445126
 72
     1
 10
478.1529443417094
 20
353.3671057445126
 11
478.1515126304511
 21
352.8671057445126
 72
     1
 10
478.1515126304511
 20
352.8671057445126
 11
451.7678352667571
 21
352.8670597355185
 72
     1
 10
451.7678352667571
 20
352.8670597355185
 11
450.1678352667586
 21
321.3670597355185
 72
     1
 10
450.1678352667659
 20
321.3670597355185
 11
508.1835878479469
 21
321.3671057445126
 97
        0
 75
     0
 76
     1
 52
0.0
 41
15.0
 77
     0
 78
     1
 53
45.0
 43
-32702.95250543397
 44
-14070.18137076545
 45
-7.499999987414763
 46
7.499999987414764
 79
     0
 98
        1
 10
514.6219199057449
 20
344.3901807638895
1001
ACAD
1010
0.0
1020
0.0
1030
0.0
  0
LWPOLYLINE
  5
7BF2
330
67
100
AcDbEntity
  8
F_01 sichtbar
370
    13
100
AcDbPolyline
 90
       59
 70
     1
 43
0.0
 10
469.0017812875376
 20
352.6852237620142
 10
470.3476710789472
 20
351.3393342535701
 42
-2.295511712501342
 10
469.7006205003926
 20
350.9964353064924
 10
468.0525172231064
 20
352.6445382372758
 42
0.4142135623730925
 10
467.911095866868
 20
352.644538222411
 10
467.5335832799683
 20
352.2670255561416
 10
466.6835832799624
 20
352.2670254667855
 10
465.8335832799711
 20
352.2670253774331
 10
465.3813010352896
 20
352.7193075270252
 42
-0.8501016268507996
 10
464.396500369934
 20
352.6541080957059
 10
461.1835829015253
 20
355.8670248886183
 10
461.1835827438481
 20
357.3670248886183
 10
461.6103594840097
 20
356.9402482381875
 42
0.198912367379658
 10
461.7871361869983
 20
356.8670249520646
 10
464.6505700945199
 20
356.8670252530746
 42
0.1316524975873961
 10
464.7755700909983
 20
356.9005189152695
 10
465.4585827514311
 20
357.2948565543657
 42
0.2679491924311224
 10
465.5835827286718
 20
357.5113629184516
 10
465.5835825073227
 20
359.6170253511545
 42
0.4142135623730951
 10
465.3335824810419
 20
359.8670253248738
 10
464.3335824810419
 20
359.8670252197508
 42
-0.5773502691896217
 10
464.1170760906752
 20
360.2420251969915
 10
464.3624499104117
 20
360.6670252227877
 10
465.3335823969464
 20
360.6670253248731
 42
0.4142135623730951
 10
465.5835823706657
 20
360.9170253511538
 10
465.5835821919608
 20
362.6170253511546
 42
0.4142135623730951
 10
465.3335821656874
 20
362.8670253248738
 10
464.3335821656874
 20
362.8670252197508
 42
-0.577350269189623
 10
464.1170757753207
 20
363.2420251969916
 10
464.3624495950425
 20
363.6670252227877
 10
465.3335820815846
 20
363.6670253248731
 42
0.4142135623730951
 10
465.5835820553038
 20
363.9170253511538
 10
465.5835820342836
 20
364.1170253511546
 42
-0.4142135623730951
 10
465.8335820080028
 20
364.3670253774353
 10
466.6835820080014
 20
364.3670254667877
 10
467.5335820079999
 20
364.3670255561401
 42
-0.4142135623730951
 10
467.7835820342806
 20
364.1170255824209
 10
467.7835820553082
 20
363.9170255824201
 42
0.4142135623730951
 10
468.033582081589
 20
363.6670256087009
 10
469.0047145681237
 20
363.6670257107862
 10
469.2500884772089
 20
363.2420257365802
 42
-0.5773502691896199
 10
469.0335821656844
 20
362.867025713821
 10
468.0335821656845
 20
362.8670256087016
 42
0.4142135623730951
 10
467.7835821919652
 20
362.6170255824209
 10
467.7835823706628
 20
360.9170255824202
 42
0.4142135623730951
 10
468.0335823969435
 20
360.6670256087009
 10
469.0047148834928
 20
360.6670257107862
 10
469.2500887925707
 20
360.2420257365802
 42
-0.5773502691896196
 10
469.0335824810463
 20
359.867025713821
 10
468.0335824810462
 20
359.8670256087016
 42
0.4142135623730951
 10
467.7835825073271
 20
359.6170255824209
 10
467.7835827286762
 20
357.5113631497179
 42
0.2679491924311216
 10
467.9085827514354
 20
357.2948568119127
 10
468.5915954947777
 20
356.9005193164148
 42
0.1316524975873966
 10
468.7165954982993
 20
356.8670256805008
 10
471.5800294058208
 20
356.8670259815072
 42
0.198912367379658
 10
471.7568060934208
 20
356.9402493047955
 10
472.183582743848
 20
357.3670260449535
 10
472.1835829015254
 20
355.8670260449535
  0
HATCH
  5
7BF3
330
67
100
AcDbEntity
  8
F_01 sichtbar
370
    13
100
AcDbHatch
 10
0.0
 20
0.0
 30
0.0
210
0.0
220
0.0
230
1.0
  2
BATT_INSULATION
 70
     0
 71
     0
 91
        1
 92
        1
 93
        4
 72
     1
 10
440.1835878479032
 20
563.8670234695045
 11
440.1835878479032
 21
533.8670234695046
 72
     1
 10
440.1835878479032
 20
533.8670234695046
 11
278.239935284073
 21
533.8670234695046
 72
     1
 10
278.239935284073
 20
533.8670234695046
 11
278.239935284073
 21
563.8670234695064
 72
     1
 10
278.239935284073
 20
563.8670234695082
 11
440.1835878479032
 21
563.8670234695064
 97
        0
 75
     0
 76
     2
 52
180.0
 41
32.77964320184142
 77
     0
 78
   528
 53
0.000000000000007
 43
12095.37812130773
 44
1821.695163500901
 45
10.95203936981043
 46
-36.87709860207159
 79
     2
 49
0.0
 49
-10.95203936981043
 53
345.9236
 43
12089.902085233
 44
1817.59770810067
 45
10.95202660980681
 46
0.000004046117522
 79
     2
 49
2.663936043727233
 49
-1058.697838380723
 53
345.9236
 43
12089.902085233
 44
1780.720609498595
 45
10.95202660980681
 46
0.000004046117522
 79
     2
 49
2.663936043727233
 49
-1058.697838380723
 53
345.9236
 43
12089.902085233
 44
1743.843510896527
 45
10.95202660980681
 46
0.000004046117522
 79
     2
 49
2.663936043727233
 49
-1058.697838380723
 53
345.9236
 43
12089.902085233
 44
1706.966412294451
 45
10.95202660980681
 46
0.000004046117522
 79
     2
 49
2.663936043727233
 49
-1058.697838380723
 53
345.9236
 43
12089.902085233
 44
1670.089313692383
 45
10.95202660980681
 46
0.000004046117522
 79
     2
 49
2.663936043727233
 49
-1058.697838380723
 53
345.9236
 43
12089.902085233
 44
1633.212215090315
 45
10.95202660980681
 46
0.000004046117522
 79
     2
 49
2.663936043727233
 49
-1058.697838380723
 53
345.9236
 43
12089.902085233
 44
1596.33511648824
 45
10.95202660980681
 46
0.000004046117522
 79
     2
 49
2.663936043727233
 49
-1058.697838380723
 53
334.9544
 43
12091.17777060748
 44
1786.780582137325
 45
10.9520365279484
 46
-0.0000117218229823
 79
     2
 49
4.636287175181993
 49
-2957.102061108975
 53
334.9544
 43
12091.17777060748
 44
1749.90348353525
 45
10.9520365279484
 46
-0.0000117218229823
 79
     2
 49
4.636287175181993
 49
-2957.102061108975
 53
334.9544
 43
12091.17777060748
 44
1713.026384933181
 45
10.9520365279484
 46
-0.0000117218229823
 79
     2
 49
4.636287175181993
 49
-2957.102061108975
 53
334.9544
 43
12091.17777060748
 44
1676.149286331106
 45
10.9520365279484
 46
-0.0000117218229823
 79
     2
 49
4.636287175181993
 49
-2957.102061108975
 53
334.9544
 43
12091.17777060748
 44
1639.272187729034
 45
10.9520365279484
 46
-0.0000117218229823
 79
     2
 49
4.636287175181993
 49
-2957.102061108975
 53
334.9544
 43
12091.17777060748
 44
1602.395089126962
 45
10.9520365279484
 46
-0.0000117218229823
 79
     2
 49
4.636287175181993
 49
-2957.102061108975
 53
334.9544
 43
12091.17777060748
 44
1565.517990524894
 45
10.9520365279484
 46
-0.0000117218229823
 79
     2
 49
4.636287175181993
 49
-2957.102061108975
 53
334.9544
 43
12091.17777060748
 44
1528.640891922819
 45
10.9520365279484
 46
-0.0000117218229823
 79
     2
 49
4.636287175181993
 49
-2957.102061108975
 53
334.9544
 43
12091.17777060748
 44
1491.764776710049
 45
10.9520365279484
 46
-0.0000117218229823
 79
     2
 49
4.636287175181993
 49
-2957.102061108975
 53
334.9544
 43
12091.17777060748
 44
1454.887678107973
 45
10.9520365279484
 46
-0.0000117218229823
 79
     2
 49
4.636287175181993
 49
-2957.102061108975
 53
334.9544
 43
12091.17777060748
 44
1418.010579505901
 45
10.9520365279484
 46
-0.0000117218229823
 79
     2
 49
4.636287175181993
 49
-2957.102061108975
 53
334.9544
 43
12091.17777060748
 44
1381.13348090383
 45
10.9520365279484
 46
-0.0000117218229823
 79
     2
 49
4.636287175181993
 49
-2957.102061108975
 53
334.9544
 43
12091.17777060748
 44
1344.256382301758
 45
10.9520365279484
 46
-0.0000117218229823
 79
     2
 49
4.636287175181993
 49
-2957.102061108975
 53
334.9544
 43
12091.17777060748
 44
1307.37928369969
 45
10.9520365279484
 46
-0.0000117218229823
 79
     2
 49
4.636287175181993
 49
-2957.102061108975
 53
334.9544
 43
12091.17777060748
 44
1270.502185097618
 45
10.9520365279484
 46
-0.0000117218229823
 79
     2
 49
4.636287175181993
 49
-2957.102061108975
 53
334.9544
 43
12091.17777060748
 44
1233.625086495543
 45
10.9520365279484
 46
-0.0000117218229823
 79
     2
 49
4.636287175181993
 49
-2957.102061108975
 53
334.9544
 43
12091.17777060748
 44
1196.747987893474
 45
10.9520365279484
 46
-0.0000117218229823
 79
     2
 49
4.636287175181993
 49
-2957.102061108975
 53
334.9544
 43
12091.17777060748
 44
1159.870889291403
 45
10.9520365279484
 46
-0.0000117218229823
 79
     2
 49
4.636287175181993
 49
-2957.102061108975
 53
334.9544
 43
12091.17777060748
 44
1122.993790689331
 45
10.9520365279484
 46
-0.0000117218229823
 79
     2
 49
4.636287175181993
 49
-2957.102061108975
 53
334.9544
 43
12091.17777060748
 44
1086.116692087255
 45
10.9520365279484
 46
-0.0000117218229823
 79
     2
 49
4.636287175181993
 49
-2957.102061108975
 53
334.9544
 43
12091.17777060748
 44
1049.239593485187
 45
10.9520365279484
 46
-0.0000117218229823
 79
     2
 49
4.636287175181993
 49
-2957.102061108975
 53
334.9544
 43
12091.17777060748
 44
1012.362494883116
 45
10.9520365279484
 46
-0.0000117218229823
 79
     2
 49
4.636287175181993
 49
-2957.102061108975
 53
334.9544
 43
12091.17777060748
 44
975.485396281044
 45
10.9520365279484
 46
-0.0000117218229823
 79
     2
 49
4.636287175181993
 49
-2957.102061108975
 53
334.9544
 43
12091.17777060748
 44
938.6082976789685
 45
10.9520365279484
 46
-0.0000117218229823
 79
     2
 49
4.636287175181993
 49
-2957.102061108975
 53
334.9544
 43
12091.17777060748
 44
901.7311990769004
 45
10.9520365279484
 46
-0.0000117218229823
 79
     2
 49
4.636287175181993
 49
-2957.102061108975
 53
334.9544
 43
12091.17777060748
 44
864.8541004748322
 45
10.9520365279484
 46
-0.0000117218229823
 79
     2
 49
4.636287175181993
 49
-2957.102061108975
 53
334.9544
 43
12091.17777060748
 44
827.9770018727568
 45
10.9520365279484
 46
-0.0000117218229823
 79
     2
 49
4.636287175181993
 49
-2957.102061108975
 53
334.9544
 43
12091.17777060748
 44
791.0999032706886
 45
10.9520365279484
 46
-0.0000117218229823
 79
     2
 49
4.636287175181993
 49
-2957.102061108975
 53
334.9544
 43
12091.17777060748
 44
754.2228046686132
 45
10.9520365279484
 46
-0.0000117218229823
 79
     2
 49
4.636287175181993
 49
-2957.102061108975
 53
334.9544
 43
12091.17777060748
 44
717.3457060665377
 45
10.9520365279484
 46
-0.0000117218229823
 79
     2
 49
4.636287175181993
 49
-2957.102061108975
 53
334.9544
 43
12091.17777060748
 44
680.4686074644696
 45
10.9520365279484
 46
-0.0000117218229823
 79
     2
 49
4.636287175181993
 49
-2957.102061108975
 53
334.9544
 43
12091.17777060748
 44
643.5915088624015
 45
10.9520365279484
 46
-0.0000117218229823
 79
     2
 49
4.636287175181993
 49
-2957.102061108975
 53
334.9544
 43
12091.17777060748
 44
606.714410260326
 45
10.9520365279484
 46
-0.0000117218229823
 79
     2
 49
4.636287175181993
 49
-2957.102061108975
 53
334.9544
 43
12091.17777060748
 44
569.8373116582542
 45
10.9520365279484
 46
-0.0000117218229823
 79
     2
 49
4.636287175181993
 49
-2957.102061108975
 53
307.5647
 43
12092.48603894731
 44
1816.949720113857
 45
10.95203172566192
 46
-0.0000024731155069
 79
     2
 49
4.503300162712156
 49
-1809.889024393901
 53
307.5647
 43
12092.48603894731
 44
1780.072555952497
 45
10.95203172566192
 46
-0.0000024731155069
 79
     2
 49
4.503300162712156
 49
-1809.889024393901
 53
307.5647
 43
12092.48603894731
 44
1743.195457350425
 45
10.95203172566192
 46
-0.0000024731155069
 79
     2
 49
4.503300162712156
 49
-1809.889024393901
 53
307.5647
 43
12092.48603894731
 44
1706.318358748357
 45
10.95203172566192
 46
-0.0000024731155069
 79
     2
 49
4.503300162712156
 49
-1809.889024393901
 53
307.5647
 43
12092.48603894731
 44
1669.441260146282
 45
10.95203172566192
 46
-0.0000024731155069
 79
     2
 49
4.503300162712156
 49
-1809.889024393901
 53
307.5647
 43
12092.48603894731
 44
1632.564161544206
 45
10.95203172566192
 46
-0.0000024731155069
 79
     2
 49
4.503300162712156
 49
-1809.889024393901
 53
307.5647
 43
12092.48603894731
 44
1595.687062942138
 45
10.95203172566192
 46
-0.0000024731155069
 79
     2
 49
4.503300162712156
 49
-1809.889024393901
 53
307.5647
 43
12092.48603894731
 44
1558.80996434007
 45
10.95203172566192
 46
-0.0000024731155069
 79
     2
 49
4.503300162712156
 49
-1809.889024393901
 53
307.5647
 43
12092.48603894731
 44
1521.932865737994
 45
10.95203172566192
 46
-0.0000024731155069
 79
     2
 49
4.503300162712156
 49
-1809.889024393901
 53
307.5647
 43
12092.48603894731
 44
1485.054783746628
 45
10.95203172566192
 46
-0.0000024731155069
 79
     2
 49
4.503300162712156
 49
-1809.889024393901
 53
307.5647
 43
12092.48603894731
 44
1448.17768514456
 45
10.95203172566192
 46
-0.0000024731155069
 79
     2
 49
4.503300162712156
 49
-1809.889024393901
 53
307.5647
 43
12092.48603894731
 44
1411.300586542485
 45
10.95203172566192
 46
-0.0000024731155069
 79
     2
 49
4.503300162712156
 49
-1809.889024393901
 53
307.5647
 43
12092.48603894731
 44
1374.423487940409
 45
10.95203172566192
 46
-0.0000024731155069
 79
     2
 49
4.503300162712156
 49
-1809.889024393901
 53
307.5647
 43
12092.48603894731
 44
1337.546389338341
 45
10.95203172566192
 46
-0.0000024731155069
 79
     2
 49
4.503300162712156
 49
-1809.889024393901
 53
307.5647
 43
12092.48603894731
 44
1300.669290736273
 45
10.95203172566192
 46
-0.0000024731155069
 79
     2
 49
4.503300162712156
 49
-1809.889024393901
 53
307.5647
 43
12092.48603894731
 44
1263.792192134198
 45
10.95203172566192
 46
-0.0000024731155069
 79
     2
 49
4.503300162712156
 49
-1809.889024393901
 53
307.5647
 43
12092.48603894731
 44
1226.915093532126
 45
10.95203172566192
 46
-0.0000024731155069
 79
     2
 49
4.503300162712156
 49
-1809.889024393901
 53
307.5647
 43
12092.48603894731
 44
1190.037994930054
 45
10.95203172566192
 46
-0.0000024731155069
 79
     2
 49
4.503300162712156
 49
-1809.889024393901
 53
307.5647
 43
12092.48603894731
 44
1153.160896327986
 45
10.95203172566192
 46
-0.0000024731155069
 79
     2
 49
4.503300162712156
 49
-1809.889024393901
 53
307.5647
 43
12092.48603894731
 44
1116.28379772591
 45
10.95203172566192
 46
-0.0000024731155069
 79
     2
 49
4.503300162712156
 49
-1809.889024393901
 53
307.5647
 43
12092.48603894731
 44
1079.406699123842
 45
10.95203172566192
 46
-0.0000024731155069
 79
     2
 49
4.503300162712156
 49
-1809.889024393901
 53
307.5647
 43
12092.48603894731
 44
1042.529600521767
 45
10.95203172566192
 46
-0.0000024731155069
 79
     2
 49
4.503300162712156
 49
-1809.889024393901
 53
307.5647
 43
12092.48603894731
 44
1005.652501919699
 45
10.95203172566192
 46
-0.0000024731155069
 79
     2
 49
4.503300162712156
 49
-1809.889024393901
 53
307.5647
 43
12092.48603894731
 44
968.775403317627
 45
10.95203172566192
 46
-0.0000024731155069
 79
     2
 49
4.503300162712156
 49
-1809.889024393901
 53
307.5647
 43
12092.48603894731
 44
931.8983047155553
 45
10.95203172566192
 46
-0.0000024731155069
 79
     2
 49
4.503300162712156
 49
-1809.889024393901
 53
307.5647
 43
12092.48603894731
 44
895.0212061134799
 45
10.95203172566192
 46
-0.0000024731155069
 79
     2
 49
4.503300162712156
 49
-1809.889024393901
 53
307.5647
 43
12092.48603894731
 44
858.1441075114117
 45
10.95203172566192
 46
-0.0000024731155069
 79
     2
 49
4.503300162712156
 49
-1809.889024393901
 53
307.5647
 43
12092.48603894731
 44
821.2670089093435
 45
10.95203172566192
 46
-0.0000024731155069
 79
     2
 49
4.503300162712156
 49
-1809.889024393901
 53
307.5647
 43
12092.48603894731
 44
784.3899103072681
 45
10.95203172566192
 46
-0.0000024731155069
 79
     2
 49
4.503300162712156
 49
-1809.889024393901
 53
307.5647
 43
12092.48603894731
 44
747.5128117051963
 45
10.95203172566192
 46
-0.0000024731155069
 79
     2
 49
4.503300162712156
 49
-1809.889024393901
 53
307.5647
 43
12092.48603894731
 44
710.6357131031245
 45
10.95203172566192
 46
-0.0000024731155069
 79
     2
 49
4.503300162712156
 49
-1809.889024393901
 53
307.5647
 43
12092.48603894731
 44
673.7586145010491
 45
10.95203172566192
 46
-0.0000024731155069
 79
     2
 49
4.503300162712156
 49
-1809.889024393901
 53
307.5647
 43
12092.48603894731
 44
636.8815158989846
 45
10.95203172566192
 46
-0.0000024731155069
 79
     2
 49
4.503300162712156
 49
-1809.889024393901
 53
307.5647
 43
12092.48603894731
 44
600.0044172969128
 45
10.95203172566192
 46
-0.0000024731155069
 79
     2
 49
4.503300162712156
 49
-1809.889024393901
 53
307.5647
 43
12092.48603894731
 44
563.1273186948374
 45
10.95203172566192
 46
-0.0000024731155069
 79
     2
 49
4.503300162712156
 49
-1809.889024393901
 53
307.5647
 43
12092.48603894731
 44
526.2502200927692
 45
10.95203172566192
 46
-0.0000024731155069
 79
     2
 49
4.503300162712156
 49
-1809.889024393901
 53
307.5647
 43
12092.48603894731
 44
489.3731214906974
 45
10.95203172566192
 46
-0.0000024731155069
 79
     2
 49
4.503300162712156
 49
-1809.889024393901
 53
307.5647
 43
12092.48603894731
 44
452.4960228886256
 45
10.95203172566192
 46
-0.0000024731155069
 79
     2
 49
4.503300162712156
 49
-1809.889024393901
 53
307.5647
 43
12092.48603894731
 44
415.6189242865539
 45
10.95203172566192
 46
-0.0000024731155069
 79
     2
 49
4.503300162712156
 49
-1809.889024393901
 53
292.9384
 43
12085.43512130477
 44
1805.365885900973
 45
10.95204222721493
 46
-0.0000045639384487
 79
     2
 49
8.386475035331912
 49
-1593.356600854789
 53
292.9384
 43
12085.43512130477
 44
1768.48888563783
 45
10.95204222721493
 46
-0.0000045639384487
 79
     2
 49
8.386475035331912
 49
-1593.356600854789
 53
292.9384
 43
12085.43512130477
 44
1731.611787035754
 45
10.95204222721493
 46
-0.0000045639384487
 79
     2
 49
8.386475035331912
 49
-1593.356600854789
 53
292.9384
 43
12085.43512130477
 44
1694.734688433686
 45
10.95204222721493
 46
-0.0000045639384487
 79
     2
 49
8.386475035331912
 49
-1593.356600854789
 53
292.9384
 43
12085.43512130477
 44
1657.857589831618
 45
10.95204222721493
 46
-0.0000045639384487
 79
     2
 49
8.386475035331912
 49
-1593.356600854789
 53
292.9384
 43
12085.43512130477
 44
1620.980491229543
 45
10.95204222721493
 46
-0.0000045639384487
 79
     2
 49
8.386475035331912
 49
-1593.356600854789
 53
292.9384
 43
12085.43512130477
 44
1584.103392627471
 45
10.95204222721493
 46
-0.0000045639384487
 79
     2
 49
8.386475035331912
 49
-1593.356600854789
 53
292.9384
 43
12085.43512130477
 44
1547.226294025399
 45
10.95204222721493
 46
-0.0000045639384487
 79
     2
 49
8.386475035331912
 49
-1593.356600854789
 53
292.9384
 43
12085.43512130477
 44
1510.349195423331
 45
10.95204222721493
 46
-0.0000045639384487
 79
     2
 49
8.386475035331912
 49
-1593.356600854789
 53
292.9384
 43
12085.43512130477
 44
1473.470457839098
 45
10.95204222721493
 46
-0.0000045639384487
 79
     2
 49
8.386475035331912
 49
-1593.356600854789
 53
292.9384
 43
12085.43512130477
 44
1436.593359237027
 45
10.95204222721493
 46
-0.0000045639384487
 79
     2
 49
8.386475035331912
 49
-1593.356600854789
 53
292.9384
 43
12085.43512130477
 44
1399.716260634951
 45
10.95204222721493
 46
-0.0000045639384487
 79
     2
 49
8.386475035331912
 49
-1593.356600854789
 53
292.9384
 43
12085.43512130477
 44
1362.839162032883
 45
10.95204222721493
 46
-0.0000045639384487
 79
     2
 49
8.386475035331912
 49
-1593.356600854789
 53
292.9384
 43
12085.43512130477
 44
1325.962063430815
 45
10.95204222721493
 46
-0.0000045639384487
 79
     2
 49
8.386475035331912
 49
-1593.356600854789
 53
292.9384
 43
12085.43512130477
 44
1289.084964828739
 45
10.95204222721493
 46
-0.0000045639384487
 79
     2
 49
8.386475035331912
 49
-1593.356600854789
 53
292.9384
 43
12085.43512130477
 44
1252.207866226668
 45
10.95204222721493
 46
-0.0000045639384487
 79
     2
 49
8.386475035331912
 49
-1593.356600854789
 53
292.9384
 43
12085.43512130477
 44
1215.330767624596
 45
10.95204222721493
 46
-0.0000045639384487
 79
     2
 49
8.386475035331912
 49
-1593.356600854789
 53
292.9384
 43
12085.43512130477
 44
1178.453669022524
 45
10.95204222721493
 46
-0.0000045639384487
 79
     2
 49
8.386475035331912
 49
-1593.356600854789
 53
292.9384
 43
12085.43512130477
 44
1141.576570420456
 45
10.95204222721493
 46
-0.0000045639384487
 79
     2
 49
8.386475035331912
 49
-1593.356600854789
 53
292.9384
 43
12085.43512130477
 44
1104.699471818384
 45
10.95204222721493
 46
-0.0000045639384487
 79
     2
 49
8.386475035331912
 49
-1593.356600854789
 53
292.9384
 43
12085.43512130477
 44
1067.822373216309
 45
10.95204222721493
 46
-0.0000045639384487
 79
     2
 49
8.386475035331912
 49
-1593.356600854789
 53
292.9384
 43
12085.43512130477
 44
1030.94527461424
 45
10.95204222721493
 46
-0.0000045639384487
 79
     2
 49
8.386475035331912
 49
-1593.356600854789
 53
292.9384
 43
12085.43512130477
 44
994.0681760121687
 45
10.95204222721493
 46
-0.0000045639384487
 79
     2
 49
8.386475035331912
 49
-1593.356600854789
 53
292.9384
 43
12085.43512130477
 44
957.191077410097
 45
10.95204222721493
 46
-0.0000045639384487
 79
     2
 49
8.386475035331912
 49
-1593.356600854789
 53
292.9384
 43
12085.43512130477
 44
920.3139788080216
 45
10.95204222721493
 46
-0.0000045639384487
 79
     2
 49
8.386475035331912
 49
-1593.356600854789
 53
292.9384
 43
12085.43512130477
 44
883.4368802059534
 45
10.95204222721493
 46
-0.0000045639384487
 79
     2
 49
8.386475035331912
 49
-1593.356600854789
 53
292.9384
 43
12085.43512130477
 44
846.559781603878
 45
10.95204222721493
 46
-0.0000045639384487
 79
     2
 49
8.386475035331912
 49
-1593.356600854789
 53
292.9384
 43
12085.43512130477
 44
809.6826830018098
 45
10.95204222721493
 46
-0.0000045639384487
 79
     2
 49
8.386475035331912
 49
-1593.356600854789
 53
292.9384
 43
12085.43512130477
 44
772.8055843997345
 45
10.95204222721493
 46
-0.0000045639384487
 79
     2
 49
8.386475035331912
 49
-1593.356600854789
 53
292.9384
 43
12085.43512130477
 44
735.9284857976663
 45
10.95204222721493
 46
-0.0000045639384487
 79
     2
 49
8.386475035331912
 49
-1593.356600854789
 53
292.9384
 43
12085.43512130477
 44
699.0513871955982
 45
10.95204222721493
 46
-0.0000045639384487
 79
     2
 49
8.386475035331912
 49
-1593.356600854789
 53
292.9384
 43
12085.43512130477
 44
662.1742885935227
 45
10.95204222721493
 46
-0.0000045639384487
 79
     2
 49
8.386475035331912
 49
-1593.356600854789
 53
292.9384
 43
12085.43512130477
 44
625.2971899914509
 45
10.95204222721493
 46
-0.0000045639384487
 79
     2
 49
8.386475035331912
 49
-1593.356600854789
 53
292.9384
 43
12085.43512130477
 44
588.4200913893791
 45
10.95204222721493
 46
-0.0000045639384487
 79
     2
 49
8.386475035331912
 49
-1593.356600854789
 53
292.9384
 43
12085.43512130477
 44
551.5429927873074
 45
10.95204222721493
 46
-0.0000045639384487
 79
     2
 49
8.386475035331912
 49
-1593.356600854789
 53
292.9384
 43
12085.43512130477
 44
514.6658941852356
 45
10.95204222721493
 46
-0.0000045639384487
 79
     2
 49
8.386475035331912
 49
-1593.356600854789
 53
292.9384
 43
12085.43512130477
 44
477.7887955831674
 45
10.95204222721493
 46
-0.0000045639384487
 79
     2
 49
8.386475035331912
 49
-1593.356600854789
 53
292.9384
 43
12085.43512130477
 44
440.9116969810956
 45
10.95204222721493
 46
-0.0000045639384487
 79
     2
 49
8.386475035331912
 49
-1593.356600854789
 53
292.9384
 43
12085.43512130477
 44
404.0345983790202
 45
10.95204222721493
 46
-0.0000045639384487
 79
     2
 49
8.386475035331912
 49
-1593.356600854789
 53
292.9384
 43
12085.43512130477
 44
367.1574997769521
 45
10.95204222721493
 46
-0.0000045639384487
 79
     2
 49
8.386475035331912
 49
-1593.356600854789
 53
285.109
 43
12090.22988166502
 44
1790.294068193913
 45
0.0000000992044029
 46
-36.87707611878427
 79
     2
 49
3.638966530766021
 49
-416.5337124354709
 53
285.109
 43
12101.18192103483
 44
1790.294068193913
 45
0.0000000992044029
 46
-36.87707611878427
 79
     2
 49
3.638966530766021
 49
-416.5337124354709
 53
285.109
 43
12112.13396040464
 44
1790.294068193913
 45
0.0000000992044029
 46
-36.87707611878427
 79
     2
 49
3.638966530766021
 49
-416.5337124354709
 53
285.109
 43
12123.08606533373
 44
1790.294068193913
 45
0.0000000992044029
 46
-36.87707611878427
 79
     2
 49
3.638966530766021
 49
-416.5337124354709
 53
285.109
 43
12134.0380719239
 44
1790.294068193913
 45
0.0000000992044029
 46
-36.87707611878427
 79
     2
 49
3.638966530766021
 49
-416.5337124354709
 53
285.109
 43
12144.99007851407
 44
1790.294068193913
 45
0.0000000992044029
 46
-36.87707611878427
 79
     2
 49
3.638966530766021
 49
-416.5337124354709
 53
285.109
 43
12155.94208510424
 44
1790.294068193913
 45
0.0000000992044029
 46
-36.87707611878427
 79
     2
 49
3.638966530766021
 49
-416.5337124354709
 53
285.109
 43
12166.8940916944
 44
1790.294068193913
 45
0.0000000992044029
 46
-36.87707611878427
 79
     2
 49
3.638966530766021
 49
-416.5337124354709
 53
285.109
 43
12177.84609828457
 44
1790.294068193913
 45
0.0000000992044029
 46
-36.87707611878427
 79
     2
 49
3.638966530766021
 49
-416.5337124354709
 53
285.109
 43
12188.79810487474
 44
1790.294068193913
 45
0.0000000992044029
 46
-36.87707611878427
 79
     2
 49
3.638966530766021
 49
-416.5337124354709
 53
276.7473999999999
 43
12088.70326812182
 44
1797.642411929038
 45
0.0000035818718473
 46
-36.87716375543
 79
     2
 49
7.399774995313284
 49
-4560.119085052519
 53
276.7473999999999
 43
12099.65530749163
 44
1797.642411929038
 45
0.0000035818718473
 46
-36.87716375543
 79
     2
 49
7.399774995313284
 49
-4560.119085052519
 53
276.7473999999999
 43
12110.60734686144
 44
1797.642411929038
 45
0.0000035818718473
 46
-36.87716375543
 79
     2
 49
7.399774995313284
 49
-4560.119085052519
 53
276.7473999999999
 43
12121.55951734983
 44
1797.642411929038
 45
0.0000035818718473
 46
-36.87716375543
 79
     2
 49
7.399774995313284
 49
-4560.119085052519
 53
276.7473999999999
 43
12132.51152393999
 44
1797.642411929038
 45
0.0000035818718473
 46
-36.87716375543
 79
     2
 49
7.399774995313284
 49
-4560.119085052519
 53
276.7473999999999
 43
12143.46353053016
 44
1797.642411929038
 45
0.0000035818718473
 46
-36.87716375543
 79
     2
 49
7.399774995313284
 49
-4560.119085052519
 53
276.7473999999999
 43
12154.41553712033
 44
1797.642411929038
 45
0.0000035818718473
 46
-36.87716375543
 79
     2
 49
7.399774995313284
 49
-4560.119085052519
 53
276.7473999999999
 43
12165.3675437105
 44
1797.642411929038
 45
0.0000035818718473
 46
-36.87716375543
 79
     2
 49
7.399774995313284
 49
-4560.119085052519
 53
276.7473999999999
 43
12176.31955030066
 44
1797.642411929038
 45
0.0000035818718473
 46
-36.87716375543
 79
     2
 49
7.399774995313284
 49
-4560.119085052519
 53
276.7473999999999
 43
12187.27155689083
 44
1797.642411929038
 45
0.0000035818718473
 46
-36.87716375543
 79
     2
 49
7.399774995313284
 49
-4560.119085052519
 53
276.7473999999999
 43
12198.223563481
 44
1797.642411929038
 45
0.0000035818718473
 46
-36.87716375543
 79
     2
 49
7.399774995313284
 49
-4560.119085052519
 53
276.7473999999999
 43
12209.17557007116
 44
1797.642411929038
 45
0.0000035818718473
 46
-36.87716375543
 79
     2
 49
7.399774995313284
 49
-4560.119085052519
 53
276.7473999999999
 43
12220.12757666133
 44
1797.642411929038
 45
0.0000035818718473
 46
-36.87716375543
 79
     2
 49
7.399774995313284
 49
-4560.119085052519
 53
276.7473999999999
 43
12231.0795832515
 44
1797.642411929038
 45
0.0000035818718473
 46
-36.87716375543
 79
     2
 49
7.399774995313284
 49
-4560.119085052519
 53
276.7473999999999
 43
12242.0319176381
 44
1797.642411929038
 45
0.0000035818718473
 46
-36.87716375543
 79
     2
 49
7.399774995313284
 49
-4560.119085052519
 53
276.7473999999999
 43
12252.98392422827
 44
1797.642411929038
 45
0.0000035818718473
 46
-36.87716375543
 79
     2
 49
7.399774995313284
 49
-4560.119085052519
 53
276.7473999999999
 43
12263.93593081843
 44
1797.642411929038
 45
0.0000035818718473
 46
-36.87716375543
 79
     2
 49
7.399774995313284
 49
-4560.119085052519
 53
276.7473999999999
 43
12274.8879374086
 44
1797.642411929038
 45
0.0000035818718473
 46
-36.87716375543
 79
     2
 49
7.399774995313284
 49
-4560.119085052519
 53
276.7473999999999
 43
12285.83994399876
 44
1797.642411929038
 45
0.0000035818718473
 46
-36.87716375543
 79
     2
 49
7.399774995313284
 49
-4560.119085052519
 53
276.7473999999999
 43
12296.79195058893
 44
1797.642411929038
 45
0.0000035818718473
 46
-36.87716375543
 79
     2
 49
7.399774995313284
 49
-4560.119085052519
 53
276.7473999999999
 43
12307.7439571791
 44
1797.642411929038
 45
0.0000035818718473
 46
-36.87716375543
 79
     2
 49
7.399774995313284
 49
-4560.119085052519
 53
276.7473999999999
 43
12318.69596376927
 44
1797.642411929038
 45
0.0000035818718473
 46
-36.87716375543
 79
     2
 49
7.399774995313284
 49
-4560.119085052519
 53
276.7473999999999
 43
12329.64797035944
 44
1797.642411929038
 45
0.0000035818718473
 46
-36.87716375543
 79
     2
 49
7.399774995313284
 49
-4560.119085052519
 53
276.7473999999999
 43
12340.5999769496
 44
1797.642411929038
 45
0.0000035818718473
 46
-36.87716375543
 79
     2
 49
7.399774995313284
 49
-4560.119085052519
 53
276.7473999999999
 43
12351.5523113362
 44
1797.642411929038
 45
0.0000035818718473
 46
-36.87716375543
 79
     2
 49
7.399774995313284
 49
-4560.119085052519
 53
276.7473999999999
 43
12362.50431792637
 44
1797.642411929038
 45
0.0000035818718473
 46
-36.87716375543
 79
     2
 49
7.399774995313284
 49
-4560.119085052519
 53
276.7473999999999
 43
12373.45632451654
 44
1797.642411929038
 45
0.0000035818718473
 46
-36.87716375543
 79
     2
 49
7.399774995313284
 49
-4560.119085052519
 53
276.7473999999999
 43
12384.40833110671
 44
1797.642411929038
 45
0.0000035818718473
 46
-36.87716375543
 79
     2
 49
7.399774995313284
 49
-4560.119085052519
 53
276.7473999999999
 43
12395.36033769687
 44
1797.642411929038
 45
0.0000035818718473
 46
-36.87716375543
 79
     2
 49
7.399774995313284
 49
-4560.119085052519
 53
276.7473999999999
 43
12406.31234428704
 44
1797.642411929038
 45
0.0000035818718473
 46
-36.87716375543
 79
     2
 49
7.399774995313284
 49
-4560.119085052519
 53
276.7473999999999
 43
12417.26402308077
 44
1797.642411929038
 45
0.0000035818718473
 46
-36.87716375543
 79
     2
 49
7.399774995313284
 49
-4560.119085052519
 53
276.7473999999999
 43
12428.21570187451
 44
1797.642411929038
 45
0.0000035818718473
 46
-36.87716375543
 79
     2
 49
7.399774995313284
 49
-4560.119085052519
 53
276.7473999999999
 43
12439.16738066824
 44
1797.642411929038
 45
0.0000035818718473
 46
-36.87716375543
 79
     2
 49
7.399774995313284
 49
-4560.119085052519
 53
276.7473999999999
 43
12450.11905946197
 44
1797.642411929038
 45
0.0000035818718473
 46
-36.87716375543
 79
     2
 49
7.399774995313284
 49
-4560.119085052519
 53
276.7473999999999
 43
12461.07401622004
 44
1797.642411929038
 45
0.0000035818718473
 46
-36.87716375543
 79
     2
 49
7.399774995313284
 49
-4560.119085052519
 53
276.7473999999999
 43
12472.02569501377
 44
1797.642411929038
 45
0.0000035818718473
 46
-36.87716375543
 79
     2
 49
7.399774995313284
 49
-4560.119085052519
 53
276.7473999999999
 43
12482.9773738075
 44
1797.642411929038
 45
0.0000035818718473
 46
-36.87716375543
 79
     2
 49
7.399774995313284
 49
-4560.119085052519
 53
276.7473999999999
 43
12493.92905260124
 44
1797.642411929038
 45
0.0000035818718473
 46
-36.87716375543
 79
     2
 49
7.399774995313284
 49
-4560.119085052519
 53
276.7473999999999
 43
12504.88073139497
 44
1797.642411929038
 45
0.0000035818718473
 46
-36.87716375543
 79
     2
 49
7.399774995313284
 49
-4560.119085052519
 53
276.7473999999999
 43
12515.83241018871
 44
1797.642411929038
 45
0.0000035818718473
 46
-36.87716375543
 79
     2
 49
7.399774995313284
 49
-4560.119085052519
 53
276.7473999999999
 43
12526.78408898244
 44
1797.642411929038
 45
0.0000035818718473
 46
-36.87716375543
 79
     2
 49
7.399774995313284
 49
-4560.119085052519
 53
276.7473999999999
 43
12537.73576777618
 44
1797.642411929038
 45
0.0000035818718473
 46
-36.87716375543
 79
     2
 49
7.399774995313284
 49
-4560.119085052519
 53
276.7473999999999
 43
12548.68744656991
 44
1797.642411929038
 45
0.0000035818718473
 46
-36.87716375543
 79
     2
 49
7.399774995313284
 49
-4560.119085052519
 53
276.7473999999999
 43
12559.64240332797
 44
1797.642411929038
 45
0.0000035818718473
 46
-36.87716375543
 79
     2
 49
7.399774995313284
 49
-4560.119085052519
 53
276.7473999999999
 43
12570.59408212171
 44
1797.642411929038
 45
0.0000035818718473
 46
-36.87716375543
 79
     2
 49
7.399774995313284
 49
-4560.119085052519
 53
276.7473999999999
 43
12581.54576091544
 44
1797.642411929038
 45
0.0000035818718473
 46
-36.87716375543
 79
     2
 49
7.399774995313284
 49
-4560.119085052519
 53
276.7473999999999
 43
12592.49743970918
 44
1797.642411929038
 45
0.0000035818718473
 46
-36.87716375543
 79
     2
 49
7.399774995313284
 49
-4560.119085052519
 53
276.7473999999999
 43
12603.44911850291
 44
1797.642411929038
 45
0.0000035818718473
 46
-36.87716375543
 79
     2
 49
7.399774995313284
 49
-4560.119085052519
 53
276.7473999999999
 43
12614.40079729665
 44
1797.642411929038
 45
0.0000035818718473
 46
-36.87716375543
 79
     2
 49
7.399774995313284
 49
-4560.119085052519
 53
276.1416
 43
12084.57265119554
 44
1813.380148087751
 45
-0.0000356891682921
 46
-36.87700042616381
 79
     2
 49
8.060547042976009
 49
-2551.147945737283
 53
276.1416
 43
12095.52467909248
 44
1813.380148087751
 45
-0.0000356891682921
 46
-36.87700042616381
 79
     2
 49
8.060547042976009
 49
-2551.147945737283
 53
276.1416
 43
12106.4767184623
 44
1813.380148087751
 45
-0.0000356891682921
 46
-36.87700042616381
 79
     2
 49
8.060547042976009
 49
-2551.147945737283
 53
276.1416
 43
12117.42862671353
 44
1813.380148087751
 45
-0.0000356891682921
 46
-36.87700042616381
 79
     2
 49
8.060547042976009
 49
-2551.147945737283
 53
276.1416
 43
12128.38096110013
 44
1813.380148087751
 45
-0.0000356891682921
 46
-36.87700042616381
 79
     2
 49
8.060547042976009
 49
-2551.147945737283
 53
276.1416
 43
12139.33296769029
 44
1813.380148087751
 45
-0.0000356891682921
 46
-36.87700042616381
 79
     2
 49
8.060547042976009
 49
-2551.147945737283
 53
276.1416
 43
12150.28497428046
 44
1813.380148087751
 45
-0.0000356891682921
 46
-36.87700042616381
 79
     2
 49
8.060547042976009
 49
-2551.147945737283
 53
276.1416
 43
12161.23698087063
 44
1813.380148087751
 45
-0.0000356891682921
 46
-36.87700042616381
 79
     2
 49
8.060547042976009
 49
-2551.147945737283
 53
276.1416
 43
12172.18898746079
 44
1813.380148087751
 45
-0.0000356891682921
 46
-36.87700042616381
 79
     2
 49
8.060547042976009
 49
-2551.147945737283
 53
276.1416
 43
12183.14099405097
 44
1813.380148087751
 45
-0.0000356891682921
 46
-36.87700042616381
 79
     2
 49
8.060547042976009
 49
-2551.147945737283
 53
276.1416
 43
12194.09300064113
 44
1813.380148087751
 45
-0.0000356891682921
 46
-36.87700042616381
 79
     2
 49
8.060547042976009
 49
-2551.147945737283
 53
276.1416
 43
12205.0450072313
 44
1813.380148087751
 45
-0.0000356891682921
 46
-36.87700042616381
 79
     2
 49
8.060547042976009
 49
-2551.147945737283
 53
276.1416
 43
12215.99701382147
 44
1813.380148087751
 45
-0.0000356891682921
 46
-36.87700042616381
 79
     2
 49
8.060547042976009
 49
-2551.147945737283
 53
276.1416
 43
12226.94902041163
 44
1813.380148087751
 45
-0.0000356891682921
 46
-36.87700042616381
 79
     2
 49
8.060547042976009
 49
-2551.147945737283
 53
276.1416
 43
12237.9010270018
 44
1813.380148087751
 45
-0.0000356891682921
 46
-36.87700042616381
 79
     2
 49
8.060547042976009
 49
-2551.147945737283
 53
276.1416
 43
12248.8533613884
 44
1813.380148087751
 45
-0.0000356891682921
 46
-36.87700042616381
 79
     2
 49
8.060547042976009
 49
-2551.147945737283
 53
276.1416
 43
12259.80536797857
 44
1813.380148087751
 45
-0.0000356891682921
 46
-36.87700042616381
 79
     2
 49
8.060547042976009
 49
-2551.147945737283
 53
276.1416
 43
12270.75737456873
 44
1813.380148087751
 45
-0.0000356891682921
 46
-36.87700042616381
 79
     2
 49
8.060547042976009
 49
-2551.147945737283
 53
276.1416
 43
12281.7093811589
 44
1813.380148087751
 45
-0.0000356891682921
 46
-36.87700042616381
 79
     2
 49
8.060547042976009
 49
-2551.147945737283
 53
276.1416
 43
12292.66138774907
 44
1813.380148087751
 45
-0.0000356891682921
 46
-36.87700042616381
 79
     2
 49
8.060547042976009
 49
-2551.147945737283
 53
276.1416
 43
12303.61339433923
 44
1813.380148087751
 45
-0.0000356891682921
 46
-36.87700042616381
 79
     2
 49
8.060547042976009
 49
-2551.147945737283
 53
276.1416
 43
12314.5654009294
 44
1813.380148087751
 45
-0.0000356891682921
 46
-36.87700042616381
 79
     2
 49
8.060547042976009
 49
-2551.147945737283
 53
276.1416
 43
12325.51740751957
 44
1813.380148087751
 45
-0.0000356891682921
 46
-36.87700042616381
 79
     2
 49
8.060547042976009
 49
-2551.147945737283
 53
276.1416
 43
12336.46941410974
 44
1813.380148087751
 45
-0.0000356891682921
 46
-36.87700042616381
 79
     2
 49
8.060547042976009
 49
-2551.147945737283
 53
276.1416
 43
12347.42142069991
 44
1813.380148087751
 45
-0.0000356891682921
 46
-36.87700042616381
 79
     2
 49
8.060547042976009
 49
-2551.147945737283
 53
83.85800000000008
 43
12094.36906555104
 44
1805.365885900973
 45
10.9520277214346
 46
-0.0000684758235829
 79
     2
 49
8.060547042975896
 49
-2551.147945737254
 53
83.85800000000008
 43
12094.36906555104
 44
1768.48888563783
 45
10.9520277214346
 46
-0.0000684758235829
 79
     2
 49
8.060547042975896
 49
-2551.147945737254
 53
83.85800000000008
 43
12094.36906555104
 44
1731.611787035754
 45
10.9520277214346
 46
-0.0000684758235829
 79
     2
 49
8.060547042975896
 49
-2551.147945737254
 53
83.85800000000008
 43
12094.36906555104
 44
1694.734688433686
 45
10.9520277214346
 46
-0.0000684758235829
 79
     2
 49
8.060547042975896
 49
-2551.147945737254
 53
83.85800000000008
 43
12094.36906555104
 44
1657.857589831618
 45
10.9520277214346
 46
-0.0000684758235829
 79
     2
 49
8.060547042975896
 49
-2551.147945737254
 53
83.85800000000008
 43
12094.36906555104
 44
1620.980491229543
 45
10.9520277214346
 46
-0.0000684758235829
 79
     2
 49
8.060547042975896
 49
-2551.147945737254
 53
83.85800000000008
 43
12094.36906555104
 44
1584.103392627471
 45
10.9520277214346
 46
-0.0000684758235829
 79
     2
 49
8.060547042975896
 49
-2551.147945737254
 53
83.85800000000008
 43
12094.36906555104
 44
1547.226294025399
 45
10.9520277214346
 46
-0.0000684758235829
 79
     2
 49
8.060547042975896
 49
-2551.147945737254
 53
83.85800000000008
 43
12094.36906555104
 44
1510.349195423331
 45
10.9520277214346
 46
-0.0000684758235829
 79
     2
 49
8.060547042975896
 49
-2551.147945737254
 53
83.85800000000008
 43
12094.36906555104
 44
1473.470457839098
 45
10.9520277214346
 46
-0.0000684758235829
 79
     2
 49
8.060547042975896
 49
-2551.147945737254
 53
83.85800000000008
 43
12094.36906555104
 44
1436.593359237027
 45
10.9520277214346
 46
-0.0000684758235829
 79
     2
 49
8.060547042975896
 49
-2551.147945737254
 53
83.85800000000008
 43
12094.36906555104
 44
1399.716260634951
 45
10.9520277214346
 46
-0.0000684758235829
 79
     2
 49
8.060547042975896
 49
-2551.147945737254
 53
83.85800000000008
 43
12094.36906555104
 44
1362.839162032883
 45
10.9520277214346
 46
-0.0000684758235829
 79
     2
 49
8.060547042975896
 49
-2551.147945737254
 53
83.85800000000008
 43
12094.36906555104
 44
1325.962063430815
 45
10.9520277214346
 46
-0.0000684758235829
 79
     2
 49
8.060547042975896
 49
-2551.147945737254
 53
83.85800000000008
 43
12094.36906555104
 44
1289.084964828739
 45
10.9520277214346
 46
-0.0000684758235829
 79
     2
 49
8.060547042975896
 49
-2551.147945737254
 53
83.85800000000008
 43
12094.36906555104
 44
1252.207866226668
 45
10.9520277214346
 46
-0.0000684758235829
 79
     2
 49
8.060547042975896
 49
-2551.147945737254
 53
83.85800000000008
 43
12094.36906555104
 44
1215.330767624596
 45
10.9520277214346
 46
-0.0000684758235829
 79
     2
 49
8.060547042975896
 49
-2551.147945737254
 53
83.85800000000008
 43
12094.36906555104
 44
1178.453669022524
 45
10.9520277214346
 46
-0.0000684758235829
 79
     2
 49
8.060547042975896
 49
-2551.147945737254
 53
83.85800000000008
 43
12094.36906555104
 44
1141.576570420456
 45
10.9520277214346
 46
-0.0000684758235829
 79
     2
 49
8.060547042975896
 49
-2551.147945737254
 53
83.85800000000008
 43
12094.36906555104
 44
1104.699471818384
 45
10.9520277214346
 46
-0.0000684758235829
 79
     2
 49
8.060547042975896
 49
-2551.147945737254
 53
83.85800000000008
 43
12094.36906555104
 44
1067.822373216309
 45
10.9520277214346
 46
-0.0000684758235829
 79
     2
 49
8.060547042975896
 49
-2551.147945737254
 53
83.85800000000008
 43
12094.36906555104
 44
1030.94527461424
 45
10.9520277214346
 46
-0.0000684758235829
 79
     2
 49
8.060547042975896
 49
-2551.147945737254
 53
83.85800000000008
 43
12094.36906555104
 44
994.0681760121687
 45
10.9520277214346
 46
-0.0000684758235829
 79
     2
 49
8.060547042975896
 49
-2551.147945737254
 53
83.85800000000008
 43
12094.36906555104
 44
957.191077410097
 45
10.9520277214346
 46
-0.0000684758235829
 79
     2
 49
8.060547042975896
 49
-2551.147945737254
 53
83.85800000000008
 43
12094.36906555104
 44
920.3139788080216
 45
10.9520277214346
 46
-0.0000684758235829
 79
     2
 49
8.060547042975896
 49
-2551.147945737254
 53
83.85800000000008
 43
12094.36906555104
 44
883.4368802059534
 45
10.9520277214346
 46
-0.0000684758235829
 79
     2
 49
8.060547042975896
 49
-2551.147945737254
 53
83.85800000000008
 43
12094.36906555104
 44
846.559781603878
 45
10.9520277214346
 46
-0.0000684758235829
 79
     2
 49
8.060547042975896
 49
-2551.147945737254
 53
83.85800000000008
 43
12094.36906555104
 44
809.6826830018098
 45
10.9520277214346
 46
-0.0000684758235829
 79
     2
 49
8.060547042975896
 49
-2551.147945737254
 53
83.85800000000008
 43
12094.36906555104
 44
772.8055843997345
 45
10.9520277214346
 46
-0.0000684758235829
 79
     2
 49
8.060547042975896
 49
-2551.147945737254
 53
83.85800000000008
 43
12094.36906555104
 44
735.9284857976663
 45
10.9520277214346
 46
-0.0000684758235829
 79
     2
 49
8.060547042975896
 49
-2551.147945737254
 53
83.85800000000008
 43
12094.36906555104
 44
699.0513871955982
 45
10.9520277214346
 46
-0.0000684758235829
 79
     2
 49
8.060547042975896
 49
-2551.147945737254
 53
83.85800000000008
 43
12094.36906555104
 44
662.1742885935227
 45
10.9520277214346
 46
-0.0000684758235829
 79
     2
 49
8.060547042975896
 49
-2551.147945737254
 53
83.85800000000008
 43
12094.36906555104
 44
625.2971899914509
 45
10.9520277214346
 46
-0.0000684758235829
 79
     2
 49
8.060547042975896
 49
-2551.147945737254
 53
83.85800000000008
 43
12094.36906555104
 44
588.4200913893791
 45
10.9520277214346
 46
-0.0000684758235829
 79
     2
 49
8.060547042975896
 49
-2551.147945737254
 53
83.85800000000008
 43
12094.36906555104
 44
551.5429927873074
 45
10.9520277214346
 46
-0.0000684758235829
 79
     2
 49
8.060547042975896
 49
-2551.147945737254
 53
83.85800000000008
 43
12094.36906555104
 44
514.6658941852356
 45
10.9520277214346
 46
-0.0000684758235829
 79
     2
 49
8.060547042975896
 49
-2551.147945737254
 53
83.85800000000008
 43
12094.36906555104
 44
477.7887955831674
 45
10.9520277214346
 46
-0.0000684758235829
 79
     2
 49
8.060547042975896
 49
-2551.147945737254
 53
83.85800000000008
 43
12094.36906555104
 44
440.9116969810956
 45
10.9520277214346
 46
-0.0000684758235829
 79
     2
 49
8.060547042975896
 49
-2551.147945737254
 53
83.85800000000008
 43
12094.36906555104
 44
404.0345983790202
 45
10.9520277214346
 46
-0.0000684758235829
 79
     2
 49
8.060547042975896
 49
-2551.147945737254
 53
83.85800000000008
 43
12094.36906555104
 44
367.1574997769521
 45
10.9520277214346
 46
-0.0000684758235829
 79
     2
 49
8.060547042975896
 49
-2551.147945737254
 53
83.85800000000008
 43
12094.36906555104
 44
330.2804011748804
 45
10.9520277214346
 46
-0.0000684758235829
 79
     2
 49
8.060547042975896
 49
-2551.147945737254
 53
83.85800000000008
 43
12094.36906555104
 44
293.4033025728086
 45
10.9520277214346
 46
-0.0000684758235829
 79
     2
 49
8.060547042975896
 49
-2551.147945737254
 53
83.85800000000008
 43
12094.36906555104
 44
256.5262039707359
 45
10.9520277214346
 46
-0.0000684758235829
 79
     2
 49
8.060547042975896
 49
-2551.147945737254
 53
83.85800000000008
 43
12094.36906555104
 44
219.6491053686641
 45
10.9520277214346
 46
-0.0000684758235829
 79
     2
 49
8.060547042975896
 49
-2551.147945737254
 53
83.85800000000008
 43
12094.36906555104
 44
182.7720067665923
 45
10.9520277214346
 46
-0.0000684758235829
 79
     2
 49
8.060547042975896
 49
-2551.147945737254
 53
83.85800000000008
 43
12094.36906555104
 44
145.8949081645205
 45
10.9520277214346
 46
-0.0000684758235829
 79
     2
 49
8.060547042975896
 49
-2551.147945737254
 53
83.85800000000008
 43
12094.36906555104
 44
109.0178095624487
 45
10.9520277214346
 46
-0.0000684758235829
 79
     2
 49
8.060547042975896
 49
-2551.147945737254
 53
83.85800000000008
 43
12094.36906555104
 44
72.14071096037333
 45
10.9520277214346
 46
-0.0000684758235829
 79
     2
 49
8.060547042975896
 49
-2551.147945737254
 53
83.85800000000008
 43
12094.36906555104
 44
35.26361235830882
 45
10.9520277214346
 46
-0.0000684758235829
 79
     2
 49
8.060547042975896
 49
-2551.147945737254
 53
83.85800000000008
 43
12094.36906555104
 44
-1.613486243762963
 45
10.9520277214346
 46
-0.0000684758235829
 79
     2
 49
8.060547042975896
 49
-2551.147945737254
 53
83.85800000000008
 43
12094.36906555104
 44
-38.49058484583839
 45
10.9520277214346
 46
-0.0000684758235829
 79
     2
 49
8.060547042975896
 49
-2551.147945737254
 53
83.85800000000008
 43
12094.36906555104
 44
-75.36768344791017
 45
10.9520277214346
 46
-0.0000684758235829
 79
     2
 49
8.060547042975896
 49
-2551.147945737254
 53
83.85800000000008
 43
12094.36906555104
 44
-112.2447820499819
 45
10.9520277214346
 46
-0.0000684758235829
 79
     2
 49
8.060547042975896
 49
-2551.147945737254
 53
83.85800000000008
 43
12094.36906555104
 44
-149.1218806520537
 45
10.9520277214346
 46
-0.0000684758235829
 79
     2
 49
8.060547042975896
 49
-2551.147945737254
 53
83.85800000000008
 43
12094.36906555104
 44
-185.9989792541218
 45
10.9520277214346
 46
-0.0000684758235829
 79
     2
 49
8.060547042975896
 49
-2551.147945737254
 53
83.85800000000008
 43
12094.36906555104
 44
-222.8760778561936
 45
10.9520277214346
 46
-0.0000684758235829
 79
     2
 49
8.060547042975896
 49
-2551.147945737254
 53
83.85800000000008
 43
12094.36906555104
 44
-259.7531764582691
 45
10.9520277214346
 46
-0.0000684758235829
 79
     2
 49
8.060547042975896
 49
-2551.147945737254
 53
83.85800000000008
 43
12094.36906555104
 44
-296.6302750603372
 45
10.9520277214346
 46
-0.0000684758235829
 79
     2
 49
8.060547042975896
 49
-2551.147945737254
 53
83.85800000000008
 43
12094.36906555104
 44
-333.507373662409
 45
10.9520277214346
 46
-0.0000684758235829
 79
     2
 49
8.060547042975896
 49
-2551.147945737254
 53
83.85800000000008
 43
12094.36906555104
 44
-370.3844722644808
 45
10.9520277214346
 46
-0.0000684758235829
 79
     2
 49
8.060547042975896
 49
-2551.147945737254
 53
83.85800000000008
 43
12094.36906555104
 44
-407.2615708665526
 45
10.9520277214346
 46
-0.0000684758235829
 79
     2
 49
8.060547042975896
 49
-2551.147945737254
 53
83.85800000000008
 43
12094.36906555104
 44
-444.1386694686243
 45
10.9520277214346
 46
-0.0000684758235829
 79
     2
 49
8.060547042975896
 49
-2551.147945737254
 53
83.85800000000008
 43
12094.36906555104
 44
-481.0157680706961
 45
10.9520277214346
 46
-0.0000684758235829
 79
     2
 49
8.060547042975896
 49
-2551.147945737254
 53
83.85800000000008
 43
12094.36906555104
 44
-517.8928666727679
 45
10.9520277214346
 46
-0.0000684758235829
 79
     2
 49
8.060547042975896
 49
-2551.147945737254
 53
83.85800000000008
 43
12094.36906555104
 44
-554.7699652748397
 45
10.9520277214346
 46
-0.0000684758235829
 79
     2
 49
8.060547042975896
 49
-2551.147945737254
 53
83.85800000000008
 43
12094.36906555104
 44
-591.6470638769151
 45
10.9520277214346
 46
-0.0000684758235829
 79
     2
 49
8.060547042975896
 49
-2551.147945737254
 53
83.85800000000008
 43
12094.36906555104
 44
-628.5241624789833
 45
10.9520277214346
 46
-0.0000684758235829
 79
     2
 49
8.060547042975896
 49
-2551.147945737254
 53
83.85800000000008
 43
12094.36906555104
 44
-665.4012610810513
 45
10.9520277214346
 46
-0.0000684758235829
 79
     2
 49
8.060547042975896
 49
-2551.147945737254
 53
83.85800000000008
 43
12094.36906555104
 44
-702.2783596831268
 45
10.9520277214346
 46
-0.0000684758235829
 79
     2
 49
8.060547042975896
 49
-2551.147945737254
 53
83.25300000000003
 43
12090.22988166502
 44
1790.294068193913
 45
10.95204383447483
 46
0.0000798601498432
 79
     2
 49
7.399774995313283
 49
-4560.119085052519
 53
83.25300000000003
 43
12090.22988166502
 44
1753.417133490055
 45
10.95204383447483
 46
0.0000798601498432
 79
     2
 49
7.399774995313283
 49
-4560.119085052519
 53
83.25300000000003
 43
12090.22988166502
 44
1716.540034887984
 45
10.95204383447483
 46
0.0000798601498432
 79
     2
 49
7.399774995313283
 49
-4560.119085052519
 53
83.25300000000003
 43
12090.22988166502
 44
1679.662936285912
 45
10.95204383447483
 46
0.0000798601498432
 79
     2
 49
7.399774995313283
 49
-4560.119085052519
 53
83.25300000000003
 43
12090.22988166502
 44
1642.785837683844
 45
10.95204383447483
 46
0.0000798601498432
 79
     2
 49
7.399774995313283
 49
-4560.119085052519
 53
83.25300000000003
 43
12090.22988166502
 44
1605.908739081772
 45
10.95204383447483
 46
0.0000798601498432
 79
     2
 49
7.399774995313283
 49
-4560.119085052519
 53
83.25300000000003
 43
12090.22988166502
 44
1569.031640479697
 45
10.95204383447483
 46
0.0000798601498432
 79
     2
 49
7.399774995313283
 49
-4560.119085052519
 53
83.25300000000003
 43
12090.22988166502
 44
1532.154541877629
 45
10.95204383447483
 46
0.0000798601498432
 79
     2
 49
7.399774995313283
 49
-4560.119085052519
 53
83.25300000000003
 43
12090.22988166502
 44
1495.277443275553
 45
10.95204383447483
 46
0.0000798601498432
 79
     2
 49
7.399774995313283
 49
-4560.119085052519
 53
83.25300000000003
 43
12090.22988166502
 44
1458.401655859211
 45
10.95204383447483
 46
0.0000798601498432
 79
     2
 49
7.399774995313283
 49
-4560.119085052519
 53
83.25300000000003
 43
12090.22988166502
 44
1421.524557257143
 45
10.95204383447483
 46
0.0000798601498432
 79
     2
 49
7.399774995313283
 49
-4560.119085052519
 53
83.25300000000003
 43
12090.22988166502
 44
1384.647458655067
 45
10.95204383447483
 46
0.0000798601498432
 79
     2
 49
7.399774995313283
 49
-4560.119085052519
 53
83.25300000000003
 43
12090.22988166502
 44
1347.770360052999
 45
10.95204383447483
 46
0.0000798601498432
 79
     2
 49
7.399774995313283
 49
-4560.119085052519
 53
83.25300000000003
 43
12090.22988166502
 44
1310.893261450924
 45
10.95204383447483
 46
0.0000798601498432
 79
     2
 49
7.399774995313283
 49
-4560.119085052519
 53
83.25300000000003
 43
12090.22988166502
 44
1274.016162848848
 45
10.95204383447483
 46
0.0000798601498432
 79
     2
 49
7.399774995313283
 49
-4560.119085052519
 53
83.25300000000003
 43
12090.22988166502
 44
1237.13906424678
 45
10.95204383447483
 46
0.0000798601498432
 79
     2
 49
7.399774995313283
 49
-4560.119085052519
 53
83.25300000000003
 43
12090.22988166502
 44
1200.261965644712
 45
10.95204383447483
 46
0.0000798601498432
 79
     2
 49
7.399774995313283
 49
-4560.119085052519
 53
83.25300000000003
 43
12090.22988166502
 44
1163.384867042637
 45
10.95204383447483
 46
0.0000798601498432
 79
     2
 49
7.399774995313283
 49
-4560.119085052519
 53
83.25300000000003
 43
12090.22988166502
 44
1126.507768440565
 45
10.95204383447483
 46
0.0000798601498432
 79
     2
 49
7.399774995313283
 49
-4560.119085052519
 53
83.25300000000003
 43
12090.22988166502
 44
1089.630669838493
 45
10.95204383447483
 46
0.0000798601498432
 79
     2
 49
7.399774995313283
 49
-4560.119085052519
 53
83.25300000000003
 43
12090.22988166502
 44
1052.753571236425
 45
10.95204383447483
 46
0.0000798601498432
 79
     2
 49
7.399774995313283
 49
-4560.119085052519
 53
83.25300000000003
 43
12090.22988166502
 44
1015.876472634357
 45
10.95204383447483
 46
0.0000798601498432
 79
     2
 49
7.399774995313283
 49
-4560.119085052519
 53
83.25300000000003
 43
12090.22988166502
 44
978.9993740322815
 45
10.95204383447483
 46
0.0000798601498432
 79
     2
 49
7.399774995313283
 49
-4560.119085052519
 53
83.25300000000003
 43
12090.22988166502
 44
942.1222754302062
 45
10.95204383447483
 46
0.0000798601498432
 79
     2
 49
7.399774995313283
 49
-4560.119085052519
 53
83.25300000000003
 43
12090.22988166502
 44
905.2451768281381
 45
10.95204383447483
 46
0.0000798601498432
 79
     2
 49
7.399774995313283
 49
-4560.119085052519
 53
83.25300000000003
 43
12090.22988166502
 44
868.3680782260662
 45
10.95204383447483
 46
0.0000798601498432
 79
     2
 49
7.399774995313283
 49
-4560.119085052519
 53
83.25300000000003
 43
12090.22988166502
 44
831.4909796239945
 45
10.95204383447483
 46
0.0000798601498432
 79
     2
 49
7.399774995313283
 49
-4560.119085052519
 53
83.25300000000003
 43
12090.22988166502
 44
794.6138810219227
 45
10.95204383447483
 46
0.0000798601498432
 79
     2
 49
7.399774995313283
 49
-4560.119085052519
 53
83.25300000000003
 43
12090.22988166502
 44
757.7367824198509
 45
10.95204383447483
 46
0.0000798601498432
 79
     2
 49
7.399774995313283
 49
-4560.119085052519
 53
83.25300000000003
 43
12090.22988166502
 44
720.8596838177791
 45
10.95204383447483
 46
0.0000798601498432
 79
     2
 49
7.399774995313283
 49
-4560.119085052519
 53
83.25300000000003
 43
12090.22988166502
 44
683.9825852157073
 45
10.95204383447483
 46
0.0000798601498432
 79
     2
 49
7.399774995313283
 49
-4560.119085052519
 53
83.25300000000003
 43
12090.22988166502
 44
647.1054866136356
 45
10.95204383447483
 46
0.0000798601498432
 79
     2
 49
7.399774995313283
 49
-4560.119085052519
 53
83.25300000000003
 43
12090.22988166502
 44
610.2283880115638
 45
10.95204383447483
 46
0.0000798601498432
 79
     2
 49
7.399774995313283
 49
-4560.119085052519
 53
83.25300000000003
 43
12090.22988166502
 44
573.3512894094956
 45
10.95204383447483
 46
0.0000798601498432
 79
     2
 49
7.399774995313283
 49
-4560.119085052519
 53
83.25300000000003
 43
12090.22988166502
 44
536.4741908074238
 45
10.95204383447483
 46
0.0000798601498432
 79
     2
 49
7.399774995313283
 49
-4560.119085052519
 53
83.25300000000003
 43
12090.22988166502
 44
499.597092205352
 45
10.95204383447483
 46
0.0000798601498432
 79
     2
 49
7.399774995313283
 49
-4560.119085052519
 53
83.25300000000003
 43
12090.22988166502
 44
462.7199936032766
 45
10.95204383447483
 46
0.0000798601498432
 79
     2
 49
7.399774995313283
 49
-4560.119085052519
 53
83.25300000000003
 43
12090.22988166502
 44
425.8428950012085
 45
10.95204383447483
 46
0.0000798601498432
 79
     2
 49
7.399774995313283
 49
-4560.119085052519
 53
83.25300000000003
 43
12090.22988166502
 44
388.9657963991331
 45
10.95204383447483
 46
0.0000798601498432
 79
     2
 49
7.399774995313283
 49
-4560.119085052519
 53
83.25300000000003
 43
12090.22988166502
 44
352.0886977970649
 45
10.95204383447483
 46
0.0000798601498432
 79
     2
 49
7.399774995313283
 49
-4560.119085052519
 53
83.25300000000003
 43
12090.22988166502
 44
315.2115991949931
 45
10.95204383447483
 46
0.0000798601498432
 79
     2
 49
7.399774995313283
 49
-4560.119085052519
 53
83.25300000000003
 43
12090.22988166502
 44
278.3345005929214
 45
10.95204383447483
 46
0.0000798601498432
 79
     2
 49
7.399774995313283
 49
-4560.119085052519
 53
83.25300000000003
 43
12090.22988166502
 44
241.4574019908487
 45
10.95204383447483
 46
0.0000798601498432
 79
     2
 49
7.399774995313283
 49
-4560.119085052519
 53
83.25300000000003
 43
12090.22988166502
 44
204.5803033887769
 45
10.95204383447483
 46
0.0000798601498432
 79
     2
 49
7.399774995313283
 49
-4560.119085052519
 53
83.25300000000003
 43
12090.22988166502
 44
167.7032047867051
 45
10.95204383447483
 46
0.0000798601498432
 79
     2
 49
7.399774995313283
 49
-4560.119085052519
 53
83.25300000000003
 43
12090.22988166502
 44
130.8261061846333
 45
10.95204383447483
 46
0.0000798601498432
 79
     2
 49
7.399774995313283
 49
-4560.119085052519
 53
83.25300000000003
 43
12090.22988166502
 44
93.94900758256516
 45
10.95204383447483
 46
0.0000798601498432
 79
     2
 49
7.399774995313283
 49
-4560.119085052519
 53
83.25300000000003
 43
12090.22988166502
 44
57.07190898048975
 45
10.95204383447483
 46
0.0000798601498432
 79
     2
 49
7.399774995313283
 49
-4560.119085052519
 53
83.25300000000003
 43
12090.22988166502
 44
20.19481037841797
 45
10.95204383447483
 46
0.0000798601498432
 79
     2
 49
7.399774995313283
 49
-4560.119085052519
 53
83.25300000000003
 43
12090.22988166502
 44
-16.68228822365381
 45
10.95204383447483
 46
0.0000798601498432
 79
     2
 49
7.399774995313283
 49
-4560.119085052519
 53
83.25300000000003
 43
12090.22988166502
 44
-53.5593868257256
 45
10.95204383447483
 46
0.0000798601498432
 79
     2
 49
7.399774995313283
 49
-4560.119085052519
 53
83.25300000000003
 43
12090.22988166502
 44
-90.43648542779374
 45
10.95204383447483
 46
0.0000798601498432
 79
     2
 49
7.399774995313283
 49
-4560.119085052519
 53
83.25300000000003
 43
12090.22988166502
 44
-127.3135840298655
 45
10.95204383447483
 46
0.0000798601498432
 79
     2
 49
7.399774995313283
 49
-4560.119085052519
 53
83.25300000000003
 43
12090.22988166502
 44
-164.1906826319373
 45
10.95204383447483
 46
0.0000798601498432
 79
     2
 49
7.399774995313283
 49
-4560.119085052519
 53
83.25300000000003
 43
12090.22988166502
 44
-201.0677812340127
 45
10.95204383447483
 46
0.0000798601498432
 79
     2
 49
7.399774995313283
 49
-4560.119085052519
 53
83.25300000000003
 43
12090.22988166502
 44
-237.9448798360809
 45
10.95204383447483
 46
0.0000798601498432
 79
     2
 49
7.399774995313283
 49
-4560.119085052519
 53
83.25300000000003
 43
12090.22988166502
 44
-274.8219784381563
 45
10.95204383447483
 46
0.0000798601498432
 79
     2
 49
7.399774995313283
 49
-4560.119085052519
 53
83.25300000000003
 43
12090.22988166502
 44
-311.6990770402245
 45
10.95204383447483
 46
0.0000798601498432
 79
     2
 49
7.399774995313283
 49
-4560.119085052519
 53
83.25300000000003
 43
12090.22988166502
 44
-348.5761756422962
 45
10.95204383447483
 46
0.0000798601498432
 79
     2
 49
7.399774995313283
 49
-4560.119085052519
 53
83.25300000000003
 43
12090.22988166502
 44
-385.453274244368
 45
10.95204383447483
 46
0.0000798601498432
 79
     2
 49
7.399774995313283
 49
-4560.119085052519
 53
83.25300000000003
 43
12090.22988166502
 44
-422.3303728464397
 45
10.95204383447483
 46
0.0000798601498432
 79
     2
 49
7.399774995313283
 49
-4560.119085052519
 53
83.25300000000003
 43
12090.22988166502
 44
-459.2074714485115
 45
10.95204383447483
 46
0.0000798601498432
 79
     2
 49
7.399774995313283
 49
-4560.119085052519
 53
83.25300000000003
 43
12090.22988166502
 44
-496.0845700505833
 45
10.95204383447483
 46
0.0000798601498432
 79
     2
 49
7.399774995313283
 49
-4560.119085052519
 53
83.25300000000003
 43
12090.22988166502
 44
-532.9616686526551
 45
10.95204383447483
 46
0.0000798601498432
 79
     2
 49
7.399774995313283
 49
-4560.119085052519
 53
83.25300000000003
 43
12090.22988166502
 44
-569.8387672547268
 45
10.95204383447483
 46
0.0000798601498432
 79
     2
 49
7.399774995313283
 49
-4560.119085052519
 53
83.25300000000003
 43
12090.22988166502
 44
-606.715865856795
 45
10.95204383447483
 46
0.0000798601498432
 79
     2
 49
7.399774995313283
 49
-4560.119085052519
 53
83.25300000000003
 43
12090.22988166502
 44
-643.5929644588704
 45
10.95204383447483
 46
0.0000798601498432
 79
     2
 49
7.399774995313283
 49
-4560.119085052519
 53
83.25300000000003
 43
12090.22988166502
 44
-680.4700630609422
 45
10.95204383447483
 46
0.0000798601498432
 79
     2
 49
7.399774995313283
 49
-4560.119085052519
 53
83.25300000000003
 43
12090.22988166502
 44
-717.347161663014
 45
10.95204383447483
 46
0.0000798601498432
 79
     2
 49
7.399774995313283
 49
-4560.119085052519
 53
83.25300000000003
 43
12090.22988166502
 44
-754.2242602650822
 45
10.95204383447483
 46
0.0000798601498432
 79
     2
 49
7.399774995313283
 49
-4560.119085052519
 53
83.25300000000003
 43
12090.22988166502
 44
-791.1013588671539
 45
10.95204383447483
 46
0.0000798601498432
 79
     2
 49
7.399774995313283
 49
-4560.119085052519
 53
83.25300000000003
 43
12090.22988166502
 44
-827.9784574692257
 45
10.95204383447483
 46
0.0000798601498432
 79
     2
 49
7.399774995313283
 49
-4560.119085052519
 53
83.25300000000003
 43
12090.22988166502
 44
-864.8555560713012
 45
10.95204383447483
 46
0.0000798601498432
 79
     2
 49
7.399774995313283
 49
-4560.119085052519
 53
83.25300000000003
 43
12090.22988166502
 44
-901.7326546733693
 45
10.95204383447483
 46
0.0000798601498432
 79
     2
 49
7.399774995313283
 49
-4560.119085052519
 53
83.25300000000003
 43
12090.22988166502
 44
-938.6097532754375
 45
10.95204383447483
 46
0.0000798601498432
 79
     2
 49
7.399774995313283
 49
-4560.119085052519
 53
83.25300000000003
 43
12090.22988166502
 44
-975.4868518775129
 45
10.95204383447483
 46
0.0000798601498432
 79
     2
 49
7.399774995313283
 49
-4560.119085052519
 53
83.25300000000003
 43
12090.22988166502
 44
-1012.363950479584
 45
10.95204383447483
 46
0.0000798601498432
 79
     2
 49
7.399774995313283
 49
-4560.119085052519
 53
83.25300000000003
 43
12090.22988166502
 44
-1049.241049081656
 45
10.95204383447483
 46
0.0000798601498432
 79
     2
 49
7.399774995313283
 49
-4560.119085052519
 53
83.25300000000003
 43
12090.22988166502
 44
-1086.118147683728
 45
10.95204383447483
 46
0.0000798601498432
 79
     2
 49
7.399774995313283
 49
-4560.119085052519
 53
83.25300000000003
 43
12090.22988166502
 44
-1122.9952462858
 45
10.95204383447483
 46
0.0000798601498432
 79
     2
 49
7.399774995313283
 49
-4560.119085052519
 53
83.25300000000003
 43
12090.22988166502
 44
-1159.872344887872
 45
10.95204383447483
 46
0.0000798601498432
 79
     2
 49
7.399774995313283
 49
-4560.119085052519
 53
83.25300000000003
 43
12090.22988166502
 44
-1196.749443489943
 45
10.95204383447483
 46
0.0000798601498432
 79
     2
 49
7.399774995313283
 49
-4560.119085052519
 53
83.25300000000003
 43
12090.22988166502
 44
-1233.626542092015
 45
10.95204383447483
 46
0.0000798601498432
 79
     2
 49
7.399774995313283
 49
-4560.119085052519
 53
83.25300000000003
 43
12090.22988166502
 44
-1270.503640694083
 45
10.95204383447483
 46
0.0000798601498432
 79
     2
 49
7.399774995313283
 49
-4560.119085052519
 53
83.25300000000003
 43
12090.22988166502
 44
-1307.380739296159
 45
10.95204383447483
 46
0.0000798601498432
 79
     2
 49
7.399774995313283
 49
-4560.119085052519
 53
83.25300000000003
 43
12090.22988166502
 44
-1344.257837898231
 45
10.95204383447483
 46
0.0000798601498432
 79
     2
 49
7.399774995313283
 49
-4560.119085052519
 53
83.25300000000003
 43
12090.22988166502
 44
-1381.134936500299
 45
10.95204383447483
 46
0.0000798601498432
 79
     2
 49
7.399774995313283
 49
-4560.119085052519
 53
83.25300000000003
 43
12090.22988166502
 44
-1418.012035102371
 45
10.95204383447483
 46
0.0000798601498432
 79
     2
 49
7.399774995313283
 49
-4560.119085052519
 53
83.25300000000003
 43
12090.22988166502
 44
-1454.889133704442
 45
10.95204383447483
 46
0.0000798601498432
 79
     2
 49
7.399774995313283
 49
-4560.119085052519
 53
83.25300000000003
 43
12090.22988166502
 44
-1491.769510270836
 45
10.95204383447483
 46
0.0000798601498432
 79
     2
 49
7.399774995313283
 49
-4560.119085052519
 53
83.25300000000003
 43
12090.22988166502
 44
-1528.646608872908
 45
10.95204383447483
 46
0.0000798601498432
 79
     2
 49
7.399774995313283
 49
-4560.119085052519
 53
83.25300000000003
 43
12090.22988166502
 44
-1565.52370747498
 45
10.95204383447483
 46
0.0000798601498432
 79
     2
 49
7.399774995313283
 49
-4560.119085052519
 53
83.25300000000003
 43
12090.22988166502
 44
-1602.400806077048
 45
10.95204383447483
 46
0.0000798601498432
 79
     2
 49
7.399774995313283
 49
-4560.119085052519
 53
83.25300000000003
 43
12090.22988166502
 44
-1639.27790467912
 45
10.95204383447483
 46
0.0000798601498432
 79
     2
 49
7.399774995313283
 49
-4560.119085052519
 53
83.25300000000003
 43
12090.22988166502
 44
-1676.155003281196
 45
10.95204383447483
 46
0.0000798601498432
 79
     2
 49
7.399774995313283
 49
-4560.119085052519
 53
83.25300000000003
 43
12090.22988166502
 44
-1713.032101883267
 45
10.95204383447483
 46
0.0000798601498432
 79
     2
 49
7.399774995313283
 49
-4560.119085052519
 53
83.25300000000003
 43
12090.22988166502
 44
-1749.909200485339
 45
10.95204383447483
 46
0.0000798601498432
 79
     2
 49
7.399774995313283
 49
-4560.119085052519
 53
83.25300000000003
 43
12090.22988166502
 44
-1786.786299087411
 45
10.95204383447483
 46
0.0000798601498432
 79
     2
 49
7.399774995313283
 49
-4560.119085052519
 53
83.25300000000003
 43
12090.22988166502
 44
-1823.663397689479
 45
10.95204383447483
 46
0.0000798601498432
 79
     2
 49
7.399774995313283
 49
-4560.119085052519
 53
83.25300000000003
 43
12090.22988166502
 44
-1860.540496291551
 45
10.95204383447483
 46
0.0000798601498432
 79
     2
 49
7.399774995313283
 49
-4560.119085052519
 53
83.25300000000003
 43
12090.22988166502
 44
-1897.417594893626
 45
10.95204383447483
 46
0.0000798601498432
 79
     2
 49
7.399774995313283
 49
-4560.119085052519
 53
83.25300000000003
 43
12090.22988166502
 44
-1934.294693495694
 45
10.95204383447483
 46
0.0000798601498432
 79
     2
 49
7.399774995313283
 49
-4560.119085052519
 53
83.25300000000003
 43
12090.22988166502
 44
-1971.171792097766
 45
10.95204383447483
 46
0.0000798601498432
 79
     2
 49
7.399774995313283
 49
-4560.119085052519
 53
83.25300000000003
 43
12090.22988166502
 44
-2008.048890699838
 45
10.95204383447483
 46
0.0000798601498432
 79
     2
 49
7.399774995313283
 49
-4560.119085052519
 53
83.25300000000003
 43
12090.22988166502
 44
-2044.92598930191
 45
10.95204383447483
 46
0.0000798601498432
 79
     2
 49
7.399774995313283
 49
-4560.119085052519
 53
83.25300000000003
 43
12090.22988166502
 44
-2081.803087903982
 45
10.95204383447483
 46
0.0000798601498432
 79
     2
 49
7.399774995313283
 49
-4560.119085052519
 53
83.25300000000003
 43
12090.22988166502
 44
-2118.680186506054
 45
10.95204383447483
 46
0.0000798601498432
 79
     2
 49
7.399774995313283
 49
-4560.119085052519
 53
83.25300000000003
 43
12090.22988166502
 44
-2155.557285108125
 45
10.95204383447483
 46
0.0000798601498432
 79
     2
 49
7.399774995313283
 49
-4560.119085052519
 53
83.25300000000003
 43
12090.22988166502
 44
-2192.434383710197
 45
10.95204383447483
 46
0.0000798601498432
 79
     2
 49
7.399774995313283
 49
-4560.119085052519
 53
83.25300000000003
 43
12090.22988166502
 44
-2229.311482312272
 45
10.95204383447483
 46
0.0000798601498432
 79
     2
 49
7.399774995313283
 49
-4560.119085052519
 53
83.25300000000003
 43
12090.22988166502
 44
-2266.188580914341
 45
10.95204383447483
 46
0.0000798601498432
 79
     2
 49
7.399774995313283
 49
-4560.119085052519
 53
83.25300000000003
 43
12090.22988166502
 44
-2303.065679516413
 45
10.95204383447483
 46
0.0000798601498432
 79
     2
 49
7.399774995313283
 49
-4560.119085052519
 53
83.25300000000003
 43
12090.22988166502
 44
-2339.942778118484
 45
10.95204383447483
 46
0.0000798601498432
 79
     2
 49
7.399774995313283
 49
-4560.119085052519
 53
83.25300000000003
 43
12090.22988166502
 44
-2376.819876720556
 45
10.95204383447483
 46
0.0000798601498432
 79
     2
 49
7.399774995313283
 49
-4560.119085052519
 53
83.25300000000003
 43
12090.22988166502
 44
-2413.696975322628
 45
10.95204383447483
 46
0.0000798601498432
 79
     2
 49
7.399774995313283
 49
-4560.119085052519
 53
83.25300000000003
 43
12090.22988166502
 44
-2450.5740739247
 45
10.95204383447483
 46
0.0000798601498432
 79
     2
 49
7.399774995313283
 49
-4560.119085052519
 53
83.25300000000003
 43
12090.22988166502
 44
-2487.451172526768
 45
10.95204383447483
 46
0.0000798601498432
 79
     2
 49
7.399774995313283
 49
-4560.119085052519
 53
83.25300000000003
 43
12090.22988166502
 44
-2524.328271128839
 45
10.95204383447483
 46
0.0000798601498432
 79
     2
 49
7.399774995313283
 49
-4560.119085052519
 53
83.25300000000003
 43
12090.22988166502
 44
-2561.205369730915
 45
10.95204383447483
 46
0.0000798601498432
 79
     2
 49
7.399774995313283
 49
-4560.119085052519
 53
83.25300000000003
 43
12090.22988166502
 44
-2598.082468332983
 45
10.95204383447483
 46
0.0000798601498432
 79
     2
 49
7.399774995313283
 49
-4560.119085052519
 53
83.25300000000003
 43
12090.22988166502
 44
-2634.959566935055
 45
10.95204383447483
 46
0.0000798601498432
 79
     2
 49
7.399774995313283
 49
-4560.119085052519
 53
83.25300000000003
 43
12090.22988166502
 44
-2671.836665537127
 45
10.95204383447483
 46
0.0000798601498432
 79
     2
 49
7.399774995313283
 49
-4560.119085052519
 53
83.25300000000003
 43
12090.22988166502
 44
-2708.713764139198
 45
10.95204383447483
 46
0.0000798601498432
 79
     2
 49
7.399774995313283
 49
-4560.119085052519
 53
74.89100000000004
 43
12088.62643263815
 44
1786.780582137325
 45
10.95202665113163
 46
-0.000003043705463
 79
     2
 49
3.63896653076602
 49
-416.5337124354707
 53
74.89100000000004
 43
12088.62643263815
 44
1749.90348353525
 45
10.95202665113163
 46
-0.000003043705463
 79
     2
 49
3.63896653076602
 49
-416.5337124354707
 53
74.89100000000004
 43
12088.62643263815
 44
1713.026384933181
 45
10.95202665113163
 46
-0.000003043705463
 79
     2
 49
3.63896653076602
 49
-416.5337124354707
 53
74.89100000000004
 43
12088.62643263815
 44
1676.149286331106
 45
10.95202665113163
 46
-0.000003043705463
 79
     2
 49
3.63896653076602
 49
-416.5337124354707
 53
74.89100000000004
 43
12088.62643263815
 44
1639.272187729034
 45
10.95202665113163
 46
-0.000003043705463
 79
     2
 49
3.63896653076602
 49
-416.5337124354707
 53
74.89100000000004
 43
12088.62643263815
 44
1602.395089126962
 45
10.95202665113163
 46
-0.000003043705463
 79
     2
 49
3.63896653076602
 49
-416.5337124354707
 53
74.89100000000004
 43
12088.62643263815
 44
1565.517990524894
 45
10.95202665113163
 46
-0.000003043705463
 79
     2
 49
3.63896653076602
 49
-416.5337124354707
 53
74.89100000000004
 43
12088.62643263815
 44
1528.640891922819
 45
10.95202665113163
 46
-0.000003043705463
 79
     2
 49
3.63896653076602
 49
-416.5337124354707
 53
74.89100000000004
 43
12088.62643263815
 44
1491.764776710049
 45
10.95202665113163
 46
-0.000003043705463
 79
     2
 49
3.63896653076602
 49
-416.5337124354707
 53
74.89100000000004
 43
12088.62643263815
 44
1454.887678107973
 45
10.95202665113163
 46
-0.000003043705463
 79
     2
 49
3.63896653076602
 49
-416.5337124354707
 53
74.89100000000004
 43
12088.62643263815
 44
1418.010579505901
 45
10.95202665113163
 46
-0.000003043705463
 79
     2
 49
3.63896653076602
 49
-416.5337124354707
 53
67.06200000000002
 43
12091.10093512382
 44
1797.642411929038
 45
10.95204222691618
 46
0.0000810236171289
 79
     2
 49
8.386475035331908
 49
-1593.356600854788
 53
67.06200000000002
 43
12091.10093512382
 44
1760.765346106614
 45
10.95204222691618
 46
0.0000810236171289
 79
     2
 49
8.386475035331908
 49
-1593.356600854788
 53
67.06200000000002
 43
12091.10093512382
 44
1723.888247504542
 45
10.95204222691618
 46
0.0000810236171289
 79
     2
 49
8.386475035331908
 49
-1593.356600854788
 53
67.06200000000002
 43
12091.10093512382
 44
1687.01114890247
 45
10.95204222691618
 46
0.0000810236171289
 79
     2
 49
8.386475035331908
 49
-1593.356600854788
 53
67.06200000000002
 43
12091.10093512382
 44
1650.134050300395
 45
10.95204222691618
 46
0.0000810236171289
 79
     2
 49
8.386475035331908
 49
-1593.356600854788
 53
67.06200000000002
 43
12091.10093512382
 44
1613.256951698327
 45
10.95204222691618
 46
0.0000810236171289
 79
     2
 49
8.386475035331908
 49
-1593.356600854788
 53
67.06200000000002
 43
12091.10093512382
 44
1576.379853096255
 45
10.95204222691618
 46
0.0000810236171289
 79
     2
 49
8.386475035331908
 49
-1593.356600854788
 53
67.06200000000002
 43
12091.10093512382
 44
1539.502754494183
 45
10.95204222691618
 46
0.0000810236171289
 79
     2
 49
8.386475035331908
 49
-1593.356600854788
 53
67.06200000000002
 43
12091.10093512382
 44
1502.625655892115
 45
10.95204222691618
 46
0.0000810236171289
 79
     2
 49
8.386475035331908
 49
-1593.356600854788
 53
67.06200000000002
 43
12091.10093512382
 44
1465.747573900741
 45
10.95204222691618
 46
0.0000810236171289
 79
     2
 49
8.386475035331908
 49
-1593.356600854788
 53
67.06200000000002
 43
12091.10093512382
 44
1428.870475298673
 45
10.95204222691618
 46
0.0000810236171289
 79
     2
 49
8.386475035331908
 49
-1593.356600854788
 53
67.06200000000002
 43
12091.10093512382
 44
1391.993376696598
 45
10.95204222691618
 46
0.0000810236171289
 79
     2
 49
8.386475035331908
 49
-1593.356600854788
 53
67.06200000000002
 43
12091.10093512382
 44
1355.11627809453
 45
10.95204222691618
 46
0.0000810236171289
 79
     2
 49
8.386475035331908
 49
-1593.356600854788
 53
67.06200000000002
 43
12091.10093512382
 44
1318.239179492461
 45
10.95204222691618
 46
0.0000810236171289
 79
     2
 49
8.386475035331908
 49
-1593.356600854788
 53
67.06200000000002
 43
12091.10093512382
 44
1281.362080890386
 45
10.95204222691618
 46
0.0000810236171289
 79
     2
 49
8.386475035331908
 49
-1593.356600854788
 53
67.06200000000002
 43
12091.10093512382
 44
1244.484982288318
 45
10.95204222691618
 46
0.0000810236171289
 79
     2
 49
8.386475035331908
 49
-1593.356600854788
 53
67.06200000000002
 43
12091.10093512382
 44
1207.607883686242
 45
10.95204222691618
 46
0.0000810236171289
 79
     2
 49
8.386475035331908
 49
-1593.356600854788
 53
67.06200000000002
 43
12091.10093512382
 44
1170.730785084167
 45
10.95204222691618
 46
0.0000810236171289
 79
     2
 49
8.386475035331908
 49
-1593.356600854788
 53
67.06200000000002
 43
12091.10093512382
 44
1133.853686482099
 45
10.95204222691618
 46
0.0000810236171289
 79
     2
 49
8.386475035331908
 49
-1593.356600854788
 53
67.06200000000002
 43
12091.10093512382
 44
1096.976587880031
 45
10.95204222691618
 46
0.0000810236171289
 79
     2
 49
8.386475035331908
 49
-1593.356600854788
 53
67.06200000000002
 43
12091.10093512382
 44
1060.099489277955
 45
10.95204222691618
 46
0.0000810236171289
 79
     2
 49
8.386475035331908
 49
-1593.356600854788
 53
67.06200000000002
 43
12091.10093512382
 44
1023.222390675883
 45
10.95204222691618
 46
0.0000810236171289
 79
     2
 49
8.386475035331908
 49
-1593.356600854788
 53
67.06200000000002
 43
12091.10093512382
 44
986.3452920738119
 45
10.95204222691618
 46
0.0000810236171289
 79
     2
 49
8.386475035331908
 49
-1593.356600854788
 53
67.06200000000002
 43
12091.10093512382
 44
949.46819347174
 45
10.95204222691618
 46
0.0000810236171289
 79
     2
 49
8.386475035331908
 49
-1593.356600854788
 53
67.06200000000002
 43
12091.10093512382
 44
912.5910948696718
 45
10.95204222691618
 46
0.0000810236171289
 79
     2
 49
8.386475035331908
 49
-1593.356600854788
 53
67.06200000000002
 43
12091.10093512382
 44
875.7139962676001
 45
10.95204222691618
 46
0.0000810236171289
 79
     2
 49
8.386475035331908
 49
-1593.356600854788
 53
67.06200000000002
 43
12091.10093512382
 44
838.8368976655247
 45
10.95204222691618
 46
0.0000810236171289
 79
     2
 49
8.386475035331908
 49
-1593.356600854788
 53
67.06200000000002
 43
12091.10093512382
 44
801.9597990634565
 45
10.95204222691618
 46
0.0000810236171289
 79
     2
 49
8.386475035331908
 49
-1593.356600854788
 53
67.06200000000002
 43
12091.10093512382
 44
765.0827004613847
 45
10.95204222691618
 46
0.0000810236171289
 79
     2
 49
8.386475035331908
 49
-1593.356600854788
 53
67.06200000000002
 43
12091.10093512382
 44
728.205601859313
 45
10.95204222691618
 46
0.0000810236171289
 79
     2
 49
8.386475035331908
 49
-1593.356600854788
 53
67.06200000000002
 43
12091.10093512382
 44
691.3285032572376
 45
10.95204222691618
 46
0.0000810236171289
 79
     2
 49
8.386475035331908
 49
-1593.356600854788
 53
67.06200000000002
 43
12091.10093512382
 44
654.4514046551694
 45
10.95204222691618
 46
0.0000810236171289
 79
     2
 49
8.386475035331908
 49
-1593.356600854788
 53
67.06200000000002
 43
12091.10093512382
 44
617.5743060530976
 45
10.95204222691618
 46
0.0000810236171289
 79
     2
 49
8.386475035331908
 49
-1593.356600854788
 53
67.06200000000002
 43
12091.10093512382
 44
580.6972074510258
 45
10.95204222691618
 46
0.0000810236171289
 79
     2
 49
8.386475035331908
 49
-1593.356600854788
 53
67.06200000000002
 43
12091.10093512382
 44
543.8201088489541
 45
10.95204222691618
 46
0.0000810236171289
 79
     2
 49
8.386475035331908
 49
-1593.356600854788
 53
67.06200000000002
 43
12091.10093512382
 44
506.9430102468823
 45
10.95204222691618
 46
0.0000810236171289
 79
     2
 49
8.386475035331908
 49
-1593.356600854788
 53
67.06200000000002
 43
12091.10093512382
 44
470.0659116448105
 45
10.95204222691618
 46
0.0000810236171289
 79
     2
 49
8.386475035331908
 49
-1593.356600854788
 53
67.06200000000002
 43
12091.10093512382
 44
433.1888130427423
 45
10.95204222691618
 46
0.0000810236171289
 79
     2
 49
8.386475035331908
 49
-1593.356600854788
 53
67.06200000000002
 43
12091.10093512382
 44
396.3117144406706
 45
10.95204222691618
 46
0.0000810236171289
 79
     2
 49
8.386475035331908
 49
-1593.356600854788
 53
67.06200000000002
 43
12091.10093512382
 44
359.4346158385952
 45
10.95204222691618
 46
0.0000810236171289
 79
     2
 49
8.386475035331908
 49
-1593.356600854788
 53
52.43499999999998
 43
12084.57265119554
 44
1813.380148087751
 45
10.95203172552474
 46
-0.000054871588512
 79
     2
 49
4.503300162712174
 49
-1809.889024393906
 53
52.43499999999998
 43
12084.57265119554
 44
1776.503180604252
 45
10.95203172552474
 46
-0.000054871588512
 79
     2
 49
4.503300162712174
 49
-1809.889024393906
 53
52.43499999999998
 43
12084.57265119554
 44
1739.626082002177
 45
10.95203172552474
 46
-0.000054871588512
 79
     2
 49
4.503300162712174
 49
-1809.889024393906
 53
52.43499999999998
 43
12084.57265119554
 44
1702.748983400101
 45
10.95203172552474
 46
-0.000054871588512
 79
     2
 49
4.503300162712174
 49
-1809.889024393906
 53
52.43499999999998
 43
12084.57265119554
 44
1665.871884798033
 45
10.95203172552474
 46
-0.000054871588512
 79
     2
 49
4.503300162712174
 49
-1809.889024393906
 53
52.43499999999998
 43
12084.57265119554
 44
1628.994786195965
 45
10.95203172552474
 46
-0.000054871588512
 79
     2
 49
4.503300162712174
 49
-1809.889024393906
 53
52.43499999999998
 43
12084.57265119554
 44
1592.117687593894
 45
10.95203172552474
 46
-0.000054871588512
 79
     2
 49
4.503300162712174
 49
-1809.889024393906
 53
52.43499999999998
 43
12084.57265119554
 44
1555.240588991822
 45
10.95203172552474
 46
-0.000054871588512
 79
     2
 49
4.503300162712174
 49
-1809.889024393906
 53
52.43499999999998
 43
12084.57265119554
 44
1518.363490389746
 45
10.95203172552474
 46
-0.000054871588512
 79
     2
 49
4.503300162712174
 49
-1809.889024393906
 53
52.43499999999998
 43
12084.57265119554
 44
1481.485080601945
 45
10.95203172552474
 46
-0.000054871588512
 79
     2
 49
4.503300162712174
 49
-1809.889024393906
 53
52.43499999999998
 43
12084.57265119554
 44
1444.607981999877
 45
10.95203172552474
 46
-0.000054871588512
 79
     2
 49
4.503300162712174
 49
-1809.889024393906
 53
52.43499999999998
 43
12084.57265119554
 44
1407.730883397809
 45
10.95203172552474
 46
-0.000054871588512
 79
     2
 49
4.503300162712174
 49
-1809.889024393906
 53
52.43499999999998
 43
12084.57265119554
 44
1370.853784795733
 45
10.95203172552474
 46
-0.000054871588512
 79
     2
 49
4.503300162712174
 49
-1809.889024393906
 53
52.43499999999998
 43
12084.57265119554
 44
1333.976686193658
 45
10.95203172552474
 46
-0.000054871588512
 79
     2
 49
4.503300162712174
 49
-1809.889024393906
 53
52.43499999999998
 43
12084.57265119554
 44
1297.09958759159
 45
10.95203172552474
 46
-0.000054871588512
 79
     2
 49
4.503300162712174
 49
-1809.889024393906
 53
52.43499999999998
 43
12084.57265119554
 44
1260.222488989521
 45
10.95203172552474
 46
-0.000054871588512
 79
     2
 49
4.503300162712174
 49
-1809.889024393906
 53
52.43499999999998
 43
12084.57265119554
 44
1223.345390387446
 45
10.95203172552474
 46
-0.000054871588512
 79
     2
 49
4.503300162712174
 49
-1809.889024393906
 53
52.43499999999998
 43
12084.57265119554
 44
1186.468291785378
 45
10.95203172552474
 46
-0.000054871588512
 79
     2
 49
4.503300162712174
 49
-1809.889024393906
 53
52.43499999999998
 43
12084.57265119554
 44
1149.591193183302
 45
10.95203172552474
 46
-0.000054871588512
 79
     2
 49
4.503300162712174
 49
-1809.889024393906
 53
52.43499999999998
 43
12084.57265119554
 44
1112.714094581234
 45
10.95203172552474
 46
-0.000054871588512
 79
     2
 49
4.503300162712174
 49
-1809.889024393906
 53
52.43499999999998
 43
12084.57265119554
 44
1075.836995979166
 45
10.95203172552474
 46
-0.000054871588512
 79
     2
 49
4.503300162712174
 49
-1809.889024393906
 53
52.43499999999998
 43
12084.57265119554
 44
1038.959897377091
 45
10.95203172552474
 46
-0.000054871588512
 79
     2
 49
4.503300162712174
 49
-1809.889024393906
 53
52.43499999999998
 43
12084.57265119554
 44
1002.082798775015
 45
10.95203172552474
 46
-0.000054871588512
 79
     2
 49
4.503300162712174
 49
-1809.889024393906
 53
52.43499999999998
 43
12084.57265119554
 44
965.2057001729472
 45
10.95203172552474
 46
-0.000054871588512
 79
     2
 49
4.503300162712174
 49
-1809.889024393906
 53
52.43499999999998
 43
12084.57265119554
 44
928.3286015708718
 45
10.95203172552474
 46
-0.000054871588512
 79
     2
 49
4.503300162712174
 49
-1809.889024393906
 53
52.43499999999998
 43
12084.57265119554
 44
891.4515029688036
 45
10.95203172552474
 46
-0.000054871588512
 79
     2
 49
4.503300162712174
 49
-1809.889024393906
 53
52.43499999999998
 43
12084.57265119554
 44
854.5744043667282
 45
10.95203172552474
 46
-0.000054871588512
 79
     2
 49
4.503300162712174
 49
-1809.889024393906
 53
52.43499999999998
 43
12084.57265119554
 44
817.69730576466
 45
10.95203172552474
 46
-0.000054871588512
 79
     2
 49
4.503300162712174
 49
-1809.889024393906
 53
52.43499999999998
 43
12084.57265119554
 44
780.8202071625883
 45
10.95203172552474
 46
-0.000054871588512
 79
     2
 49
4.503300162712174
 49
-1809.889024393906
 53
52.43499999999998
 43
12084.57265119554
 44
743.9431085605165
 45
10.95203172552474
 46
-0.000054871588512
 79
     2
 49
4.503300162712174
 49
-1809.889024393906
 53
52.43499999999998
 43
12084.57265119554
 44
707.0660099584447
 45
10.95203172552474
 46
-0.000054871588512
 79
     2
 49
4.503300162712174
 49
-1809.889024393906
 53
52.43499999999998
 43
12084.57265119554
 44
670.1889113563729
 45
10.95203172552474
 46
-0.000054871588512
 79
     2
 49
4.503300162712174
 49
-1809.889024393906
 53
52.43499999999998
 43
12084.57265119554
 44
633.3118127543047
 45
10.95203172552474
 46
-0.000054871588512
 79
     2
 49
4.503300162712174
 49
-1809.889024393906
 53
52.43499999999998
 43
12084.57265119554
 44
596.4347141522294
 45
10.95203172552474
 46
-0.000054871588512
 79
     2
 49
4.503300162712174
 49
-1809.889024393906
 53
52.43499999999998
 43
12084.57265119554
 44
559.5576155501612
 45
10.95203172552474
 46
-0.000054871588512
 79
     2
 49
4.503300162712174
 49
-1809.889024393906
 53
52.43499999999998
 43
12084.57265119554
 44
522.6805169480858
 45
10.95203172552474
 46
-0.000054871588512
 79
     2
 49
4.503300162712174
 49
-1809.889024393906
 53
52.43499999999998
 43
12084.57265119554
 44
485.803418346014
 45
10.95203172552474
 46
-0.000054871588512
 79
     2
 49
4.503300162712174
 49
-1809.889024393906
 53
52.43499999999998
 43
12084.57265119554
 44
448.9263197439422
 45
10.95203172552474
 46
-0.000054871588512
 79
     2
 49
4.503300162712174
 49
-1809.889024393906
 53
52.43499999999998
 43
12084.57265119554
 44
412.049221141874
 45
10.95203172552474
 46
-0.000054871588512
 79
     2
 49
4.503300162712174
 49
-1809.889024393906
 53
25.04599999999999
 43
12084.42608193792
 44
1784.81806489883
 45
10.95203652759968
 46
0.0000881814618674
 79
     2
 49
4.636287175181987
 49
-2957.102061108971
 53
25.04599999999999
 43
12084.42608193792
 44
1747.940966296758
 45
10.95203652759968
 46
0.0000881814618674
 79
     2
 49
4.636287175181987
 49
-2957.102061108971
 53
25.04599999999999
 43
12084.42608193792
 44
1711.063867694682
 45
10.95203652759968
 46
0.0000881814618674
 79
     2
 49
4.636287175181987
 49
-2957.102061108971
 53
25.04599999999999
 43
12084.42608193792
 44
1674.186769092614
 45
10.95203652759968
 46
0.0000881814618674
 79
     2
 49
4.636287175181987
 49
-2957.102061108971
 53
25.04599999999999
 43
12084.42608193792
 44
1637.309670490539
 45
10.95203652759968
 46
0.0000881814618674
 79
     2
 49
4.636287175181987
 49
-2957.102061108971
 53
25.04599999999999
 43
12084.42608193792
 44
1600.432571888471
 45
10.95203652759968
 46
0.0000881814618674
 79
     2
 49
4.636287175181987
 49
-2957.102061108971
 53
25.04599999999999
 43
12084.42608193792
 44
1563.555473286399
 45
10.95203652759968
 46
0.0000881814618674
 79
     2
 49
4.636287175181987
 49
-2957.102061108971
 53
25.04599999999999
 43
12084.42608193792
 44
1526.678374684327
 45
10.95203652759968
 46
0.0000881814618674
 79
     2
 49
4.636287175181987
 49
-2957.102061108971
 53
25.04599999999999
 43
12084.42608193792
 44
1489.801276082252
 45
10.95203652759968
 46
0.0000881814618674
 79
     2
 49
4.636287175181987
 49
-2957.102061108971
 53
25.04599999999999
 43
12084.42608193792
 44
1452.924177480184
 45
10.95203652759968
 46
0.0000881814618674
 79
     2
 49
4.636287175181987
 49
-2957.102061108971
 53
25.04599999999999
 43
12084.42608193792
 44
1416.047078878108
 45
10.95203652759968
 46
0.0000881814618674
 79
     2
 49
4.636287175181987
 49
-2957.102061108971
 53
25.04599999999999
 43
12084.42608193792
 44
1379.16998027604
 45
10.95203652759968
 46
0.0000881814618674
 79
     2
 49
4.636287175181987
 49
-2957.102061108971
 53
25.04599999999999
 43
12084.42608193792
 44
1342.292881673972
 45
10.95203652759968
 46
0.0000881814618674
 79
     2
 49
4.636287175181987
 49
-2957.102061108971
 53
25.04599999999999
 43
12084.42608193792
 44
1305.415783071897
 45
10.95203652759968
 46
0.0000881814618674
 79
     2
 49
4.636287175181987
 49
-2957.102061108971
 53
25.04599999999999
 43
12084.42608193792
 44
1268.538684469828
 45
10.95203652759968
 46
0.0000881814618674
 79
     2
 49
4.636287175181987
 49
-2957.102061108971
 53
25.04599999999999
 43
12084.42608193792
 44
1231.661585867753
 45
10.95203652759968
 46
0.0000881814618674
 79
     2
 49
4.636287175181987
 49
-2957.102061108971
 53
25.04599999999999
 43
12084.42608193792
 44
1194.784487265678
 45
10.95203652759968
 46
0.0000881814618674
 79
     2
 49
4.636287175181987
 49
-2957.102061108971
 53
25.04599999999999
 43
12084.42608193792
 44
1157.907388663609
 45
10.95203652759968
 46
0.0000881814618674
 79
     2
 49
4.636287175181987
 49
-2957.102061108971
 53
25.04599999999999
 43
12084.42608193792
 44
1121.030290061541
 45
10.95203652759968
 46
0.0000881814618674
 79
     2
 49
4.636287175181987
 49
-2957.102061108971
 53
25.04599999999999
 43
12084.42608193792
 44
1084.153191459466
 45
10.95203652759968
 46
0.0000881814618674
 79
     2
 49
4.636287175181987
 49
-2957.102061108971
 53
25.04599999999999
 43
12084.42608193792
 44
1047.276092857398
 45
10.95203652759968
 46
0.0000881814618674
 79
     2
 49
4.636287175181987
 49
-2957.102061108971
 53
25.04599999999999
 43
12084.42608193792
 44
1010.398994255322
 45
10.95203652759968
 46
0.0000881814618674
 79
     2
 49
4.636287175181987
 49
-2957.102061108971
 53
25.04599999999999
 43
12084.42608193792
 44
973.5218956532508
 45
10.95203652759968
 46
0.0000881814618674
 79
     2
 49
4.636287175181987
 49
-2957.102061108971
 53
25.04599999999999
 43
12084.42608193792
 44
936.6447970511826
 45
10.95203652759968
 46
0.0000881814618674
 79
     2
 49
4.636287175181987
 49
-2957.102061108971
 53
25.04599999999999
 43
12084.42608193792
 44
899.7676984491109
 45
10.95203652759968
 46
0.0000881814618674
 79
     2
 49
4.636287175181987
 49
-2957.102061108971
 53
25.04599999999999
 43
12084.42608193792
 44
862.8905998470354
 45
10.95203652759968
 46
0.0000881814618674
 79
     2
 49
4.636287175181987
 49
-2957.102061108971
 53
25.04599999999999
 43
12084.42608193792
 44
826.0135012449673
 45
10.95203652759968
 46
0.0000881814618674
 79
     2
 49
4.636287175181987
 49
-2957.102061108971
 53
25.04599999999999
 43
12084.42608193792
 44
789.1364026428955
 45
10.95203652759968
 46
0.0000881814618674
 79
     2
 49
4.636287175181987
 49
-2957.102061108971
 53
25.04599999999999
 43
12084.42608193792
 44
752.2593040408237
 45
10.95203652759968
 46
0.0000881814618674
 79
     2
 49
4.636287175181987
 49
-2957.102061108971
 53
25.04599999999999
 43
12084.42608193792
 44
715.3822054387482
 45
10.95203652759968
 46
0.0000881814618674
 79
     2
 49
4.636287175181987
 49
-2957.102061108971
 53
25.04599999999999
 43
12084.42608193792
 44
678.5051068366802
 45
10.95203652759968
 46
0.0000881814618674
 79
     2
 49
4.636287175181987
 49
-2957.102061108971
 53
25.04599999999999
 43
12084.42608193792
 44
641.6280082346084
 45
10.95203652759968
 46
0.0000881814618674
 79
     2
 49
4.636287175181987
 49
-2957.102061108971
 53
25.04599999999999
 43
12084.42608193792
 44
604.7509096325366
 45
10.95203652759968
 46
0.0000881814618674
 79
     2
 49
4.636287175181987
 49
-2957.102061108971
 53
25.04599999999999
 43
12084.42608193792
 44
567.8738110304648
 45
10.95203652759968
 46
0.0000881814618674
 79
     2
 49
4.636287175181987
 49
-2957.102061108971
 53
14.07599999999998
 43
12087.31815774239
 44
1816.949720113857
 45
10.95202660951167
 46
-0.0000805056871684
 79
     2
 49
2.663936043727242
 49
-1058.697838380728
 53
14.07599999999998
 43
12087.31815774239
 44
1780.072555952497
 45
10.95202660951167
 46
-0.0000805056871684
 79
     2
 49
2.663936043727242
 49
-1058.697838380728
 53
14.07599999999998
 43
12087.31815774239
 44
1743.195457350425
 45
10.95202660951167
 46
-0.0000805056871684
 79
     2
 49
2.663936043727242
 49
-1058.697838380728
 53
14.07599999999998
 43
12087.31815774239
 44
1706.318358748357
 45
10.95202660951167
 46
-0.0000805056871684
 79
     2
 49
2.663936043727242
 49
-1058.697838380728
 53
14.07599999999998
 43
12087.31815774239
 44
1669.441260146282
 45
10.95202660951167
 46
-0.0000805056871684
 79
     2
 49
2.663936043727242
 49
-1058.697838380728
 53
14.07599999999998
 43
12087.31815774239
 44
1632.564161544206
 45
10.95202660951167
 46
-0.0000805056871684
 79
     2
 49
2.663936043727242
 49
-1058.697838380728
 53
14.07599999999998
 43
12087.31815774239
 44
1595.687062942138
 45
10.95202660951167
 46
-0.0000805056871684
 79
     2
 49
2.663936043727242
 49
-1058.697838380728
 98
        1
 10
1609.160611957057
 20
654.0851017111481
  0
LWPOLYLINE
  5
7BF4
330
67
100
AcDbEntity
  8
F_01 sichtbar
370
    13
100
AcDbPolyline
 90
       28
 70
     1
 43
0.0
 10
470.4486586610364
 20
355.867025862578
 10
467.3210851157855
 20
355.8670255338029
 42
0.3394542588633794
 10
467.2244925409541
 20
355.7929074281592
 10
467.1838275668342
 20
355.6411436148656
 42
-0.3394542588633798
 10
467.0872349920028
 20
355.5670255092218
 10
467.0407003895961
 20
355.5670255043287
 42
-0.3394542588633751
 10
466.9441077991723
 20
355.6411435896653
 10
466.9034427931546
 20
355.7929073944097
 42
0.3394542588633729
 10
466.8068502027381
 20
355.8670254797462
 10
466.6835829015326
 20
355.8670254667877
 10
466.5603156003271
 20
355.8670254538292
 42
0.3394542588633786
 10
466.4637230254957
 20
355.7929073481855
 10
466.4230580513758
 20
355.6411435348918
 42
-0.3394542588633769
 10
466.3264654765444
 20
355.5670254292481
 10
466.2799308741377
 20
355.5670254243551
 42
-0.3394542588633807
 10
466.1833382837139
 20
355.6411435096916
 10
466.1426732776963
 20
355.7929073144396
 42
0.3394542588633759
 10
466.0460806872797
 20
355.8670253997725
 10
462.9185071420216
 20
355.8670250709974
 42
0.6681786379192993
 10
462.7417304915943
 20
355.4402483571203
 10
464.9160063977178
 20
353.265972908116
 42
-0.3679559611094144
 10
465.381301025256
 20
352.8147431327588
 10
465.8335831748481
 20
353.2670253774368
 10
466.6835831748467
 20
353.2670254667892
 10
467.5335831748452
 20
353.2670255561416
 10
467.9221871126283
 20
352.8784217000602
 42
0.4142135623730948
 10
468.0636084688667
 20
352.878421714925
 10
470.6254354011981
 20
355.4402491858664
 42
0.6681786379192982
  0
POLYLINE
  5
7BF5
330
67
100
AcDbEntity
  8
F_31 Ansichtsfenster
370
    13
100
AcDb2dPolyline
 66
     1
 10
0.0
 20
0.0
 30
0.0
  0
VERTEX
  5
7BF6
330
7BF5
100
AcDbEntity
  8
F_31 Ansichtsfenster
370
    13
100
AcDbVertex
100
AcDb2dVertex
 10
679.0259324905055
 20
316.3670597355221
 30
0.0
  0
VERTEX
  5
7BF7
330
7BF5
100
AcDbEntity
  8
F_31 Ansichtsfenster
370
    13
100
AcDbVertex
100
AcDb2dVertex
 10
679.0259324905055
 20
653.8670234695046
 30
0.0
  0
SEQEND
  5
7BF8
330
7BF5
100
AcDbEntity
  8
F_31 Ansichtsfenster
370
    13
  0
LINE
  5
7BF9
330
67
100
AcDbEntity
  8
F_01 sichtbar
370
    13
100
AcDbLine
 10
389.9549892984723
 20
646.3670234695046
 30
0.0
 11
389.9549892984723
 21
323.3670234695046
 31
0.0
  0
SOLID
  5
7BFA
330
67
100
AcDbEntity
  8
F_01 sichtbar
370
    13
100
AcDbTrace
 10
387.4549892984724
 20
330.8670234695046
 30
0.0
 11
392.4549892984724
 21
330.8670234695046
 31
0.0
 12
389.9549892984723
 22
315.8670234695046
 32
0.0
 13
389.9549892984723
 23
315.8670234695046
 33
0.0
  0
SOLID
  5
7BFB
330
67
100
AcDbEntity
  8
F_01 sichtbar
370
    13
100
AcDbTrace
 10
387.4549892984724
 20
638.8670234695045
 30
0.0
 11
392.4549892984724
 21
638.8670234695045
 31
0.0
 12
389.9549892984723
 22
653.8670234695046
 32
0.0
 13
389.9549892984723
 23
653.8670234695046
 33
0.0
  0
TEXT
  5
7BFC
330
67
100
AcDbEntity
  8
F_01 sichtbar
370
    13
100
AcDbText
 10
384.9549892984724
 20
240.600010572376
 30
0.0
 40
15.0
  1
RH
 50
90.0
  7
Arial
100
AcDbText
  0
LINE
  5
7BFD
330
67
100
AcDbEntity
  8
F_01 sichtbar
370
    13
100
AcDbLine
 10
340.8665070311617
 20
646.3670234695046
 30
0.0
 11
340.8665070311617
 21
121.7790072036841
 31
0.0
  0
SOLID
  5
7BFE
330
67
100
AcDbEntity
  8
F_01 sichtbar
370
    13
100
AcDbTrace
 10
338.3665070311618
 20
638.8670234695045
 30
0.0
 11
343.3665070311617
 21
638.8670234695045
 31
0.0
 12
340.8665070311617
 22
653.8670234695046
 32
0.0
 13
340.8665070311617
 23
653.8670234695046
 33
0.0
  0
LINE
  5
7BFF
330
67
100
AcDbEntity
  8
F_01 sichtbar
370
    13
100
AcDbLine
 10
389.9549892984723
 20
308.3670234695046
 30
0.0
 11
389.9549892984723
 21
121.7790072036841
 31
0.0
  0
TEXT
  5
7C00
330
67
100
AcDbEntity
  8
F_01 sichtbar
370
    13
100
AcDbText
 10
335.4828098961007
 20
246.5827029392421
 30
0.0
 40
15.0
  1
C
 50
90.0
  7
Arial
100
AcDbText
  0
SOLID
  5
7C01
330
67
100
AcDbEntity
  8
F_01 sichtbar
370
    13
100
AcDbTrace
 10
387.4549892984724
 20
300.8670234695046
 30
0.0
 11
392.4549892984724
 21
300.8670234695046
 31
0.0
 12
389.9549892984723
 22
315.8670234695046
 32
0.0
 13
389.9549892984723
 23
315.8670234695046
 33
0.0
  0
TEXT
  5
7C02
330
67
100
AcDbEntity
  8
F_01 sichtbar
370
    13
100
AcDbText
 10
384.9549892984724
 20
477.0498338378557
 30
0.0
 40
15.0
  1
D
 50
90.0
  7
Arial
100
AcDbText
  0
LINE
  5
7C03
330
67
100
AcDbEntity
  8
F_01 sichtbar
370
    13
100
AcDbLine
 10
440.1836035339001
 20
363.322937703705
 30
0.0
 11
447.6835806315866
 21
363.322937703705
 31
0.0
  0
ARC
  5
7C04
330
67
100
AcDbEntity
  8
F_01 sichtbar
370
    13
100
AcDbCircle
 10
443.9335920827434
 20
343.8060106335606
 30
0.0
 40
9.806302779973693
100
AcDbArc
 50
67.51720730066883
 51
112.4827926993311
  0
HATCH
  5
7C05
330
67
100
AcDbEntity
  8
F_01 sichtbar
370
    13
100
AcDbHatch
 10
0.0
 20
0.0
 30
0.0
210
0.0
220
0.0
230
1.0
  2
HEX
 70
     0
 71
     0
 91
        1
 92
        7
 72
     0
 73
     1
 93
        4
 10
440.1835878479105
 20
653.8670234695046
 10
278.239935284073
 20
653.8670234695046
 10
278.239935284073
 20
563.8670234695045
 10
440.1835878479032
 20
563.8670234695045
 97
        0
 75
     0
 76
     1
 52
0.0
 41
2.0
 77
     0
 78
     3
 53
0.0
 43
-37893.2240605573
 44
-14070.18137076521
 45
0.0
 46
10.99852
 79
     2
 49
6.349999999999999
 49
-12.7
 53
120.0
 43
-37893.2240605573
 44
-14070.18137076521
 45
-9.524997724031223
 46
-5.499259999999996
 79
     2
 49
6.349999999999994
 49
-12.69999999999999
 53
60.0
 43
-37886.87406055731
 44
-14070.18137076521
 45
-9.524997724031223
 46
5.49926
 79
     2
 49
6.349999999999999
 49
-12.7
 47
0.536036505142345
 98
        1
 10
362.4356685025123
 20
608.2860479974615
1001
ACAD
1010
0.0
1020
0.0
1030
0.0
  0
LINE
  5
7C06
330
67
100
AcDbEntity
  8
F_01 sichtbar
370
    13
100
AcDbLine
 10
449.1835743422998
 20
352.866979681955
 30
0.0
 11
449.1835743422925
 21
653.8670233425464
 31
0.0
  0
LINE
  5
7C07
330
67
100
AcDbEntity
  8
F_01 sichtbar
370
    13
100
AcDbLine
 10
471.1835743422925
 20
653.8670234613991
 30
0.0
 11
471.1835743422925
 21
356.8670259398341
 31
0.0
  0
HATCH
  5
7C08
330
67
100
AcDbEntity
  8
F_01 sichtbar
370
    13
100
AcDbHatch
 10
0.0
 20
0.0
 30
0.0
210
0.0
220
0.0
230
1.0
  2
CROSS
 70
     0
 71
     0
 91
        1
 92
        1
 93
        4
 72
     1
 10
278.239935284073
 20
315.8670234695046
 11
440.1835878478959
 21
315.8670234695046
 72
     1
 10
440.1835878478959
 20
315.8670234695046
 11
440.1835878478959
 21
327.8669871453467
 72
     1
 10
440.1835878478959
 20
327.8669871453485
 11
278.239935284073
 21
327.8669875034075
 72
     1
 10
278.239935284073
 20
327.8669875034057
 11
278.239935284073
 21
315.8670234695046
 97
        0
 75
     0
 76
     1
 52
0.0
 41
1.0
 77
     0
 78
     2
 53
0.0
 43
-33454.19251055573
 44
-14082.18140645246
 45
6.349999999999999
 46
6.349999999999999
 79
     2
 49
3.174999999999999
 49
-9.525
 53
90.0
 43
-33452.60501055573
 44
-14083.76890645246
 45
-6.349999999999999
 46
6.349999999999999
 79
     2
 49
3.174999999999999
 49
-9.525
 98
        2
 10
299.917197039591
 20
318.8859903005859
 10
272.0479095563205
 20
318.2600402984199
1001
ACAD
1010
0.0
1020
0.0
1030
0.0
  0
MTEXT
  5
7C09
330
67
100
AcDbEntity
  8
F_01 sichtbar
370
    13
100
AcDbMText
 10
328.239935284073
 20
753.8670234697374
 30
0.0
 40
30.0
 41
187.1747820159653
 71
     1
 72
     5
  1
\A1;{\fArial Narrow|b1|i0|c0|p34;S}
 73
     1
 44
1.0
  0
ENDSEC
  0
SECTION
  2
OBJECTS
  0
DICTIONARY
  5
C
330
0
100
AcDbDictionary
281
     1
  3
ACAD_2007HEADERVARS_RT
350
7C16
  3
ACAD_COLOR
350
5E
  3
ACAD_GROUP
350
D
  3
ACAD_LAYOUT
350
5D
  3
ACAD_MATERIAL
350
10
  3
ACAD_MLEADERSTYLE
350
61
  3
ACAD_MLINESTYLE
350
5A
  3
ACAD_PLOTSETTINGS
350
5C
  3
ACAD_PLOTSTYLENAME
350
E
  3
ACAD_SCALELIST
350
3D
  3
ACAD_TABLESTYLE
350
5F
  3
ACAD_VISUALSTYLE
350
29
  3
ACDB_RECOMPOSE_DATA
350
7C15
  3
AcDbVariableDictionary
350
7C0A
  3
AEC_PROPERTY_SET_DEFS
350
7BB4
  0
DICTIONARY
  5
7B59
330
2
100
AcDbDictionary
280
     1
281
     1
  3
ACAD_LAYERSTATES
360
7B5A
  0
DICTIONARY
  5
7B44
330
7B43
100
AcDbDictionary
280
     1
281
     1
  3
ACAD_SORTENTS
360
7B45
  0
DICTIONARY
  5
7C16
102
{ACAD_REACTORS
330
C
102
}
330
C
100
AcDbDictionary
281
     1
  3
DIMJOGANG
350
7C17
  0
DICTIONARY
  5
5E
102
{ACAD_REACTORS
330
C
102
}
330
C
100
AcDbDictionary
281
     1
  0
DICTIONARY
  5
D
102
{ACAD_REACTORS
330
C
102
}
330
C
100
AcDbDictionary
281
     1
  0
DICTIONARY
  5
5D
102
{ACAD_REACTORS
330
C
102
}
330
C
100
AcDbDictionary
281
     1
  3
Layout1
350
66
  3
Layout2
350
6E
  3
Model
350
6A
  0
DICTIONARY
  5
10
102
{ACAD_REACTORS
330
C
102
}
330
C
100
AcDbDictionary
281
     1
  3
ByBlock
350
19
  3
ByLayer
350
11
  3
Global
350
21
  0
DICTIONARY
  5
61
102
{ACAD_REACTORS
330
C
102
}
330
C
100
AcDbDictionary
281
     1
  3
Standard
350
62
  0
DICTIONARY
  5
5A
102
{ACAD_REACTORS
330
C
102
}
330
C
100
AcDbDictionary
281
     1
  3
Standard
350
5B
  0
DICTIONARY
  5
5C
102
{ACAD_REACTORS
330
C
102
}
330
C
100
AcDbDictionary
281
     1
  0
ACDBDICTIONARYWDFLT
  5
E
102
{ACAD_REACTORS
330
C
102
}
330
C
100
AcDbDictionary
281
     1
  3
Normal
350
F
100
AcDbDictionaryWithDefault
340
F
  0
DICTIONARY
  5
3D
102
{ACAD_REACTORS
330
C
102
}
330
C
100
AcDbDictionary
281
     1
  3
A0
350
3E
  3
A1
350
3F
  3
A2
350
40
  3
A3
350
41
  3
A4
350
42
  3
A5
350
43
  3
A6
350
44
  3
A7
350
45
  3
A8
350
46
  3
A9
350
47
  3
B0
350
48
  3
B1
350
49
  3
B2
350
4A
  3
B3
350
4B
  3
B4
350
4C
  3
B5
350
4D
  3
B6
350
4E
  0
DICTIONARY
  5
5F
102
{ACAD_REACTORS
330
C
102
}
330
C
100
AcDbDictionary
281
     1
  3
Standard
350
60
  0
DICTIONARY
  5
29
102
{ACAD_REACTORS
330
C
102
}
330
C
100
AcDbDictionary
281
     1
  3
2dWireframe
350
2F
  3
3D Hidden
350
31
  3
3dWireframe
350
30
  3
Basic
350
2E
  3
Brighten
350
35
  3
ColorChange
350
39
  3
Conceptual
350
32
  3
Dim
350
34
  3
EdgeColorOff
350
3C
  3
Facepattern
350
38
  3
Flat
350
2A
  3
FlatWithEdges
350
2B
  3
Gouraud
350
2C
  3
GouraudWithEdges
350
2D
  3
JitterOff
350
3A
  3
Linepattern
350
37
  3
OverhangOff
350
3B
  3
Realistic
350
33
  3
Thicken
350
36
  0
XRECORD
  5
7C15
102
{ACAD_REACTORS
330
C
102
}
330
C
100
AcDbXrecord
280
     1
 90
        1
330
60
  0
DICTIONARY
  5
7C0A
102
{ACAD_REACTORS
330
C
102
}
330
C
100
AcDbDictionary
281
     1
  3
CANNOSCALE
350
7C0E
  3
CMLEADERSTYLE
350
7C0C
  3
CTABLESTYLE
350
7C0B
  3
LAYEREVAL
350
7C10
  3
LAYERNOTIFY
350
7C11
  3
LIGHTINGUNITS
350
7C0F
  3
MSLTSCALE
350
7C0D
  3
XCLIPFRAME
350
7C12
  0
DICTIONARY
  5
7BB4
102
{ACAD_REACTORS
330
C
102
}
330
C
100
AcDbDictionary
281
     1
  0
DICTIONARY
  5
7B5A
102
{ACAD_REACTORS
330
7B59
102
}
330
7B59
100
AcDbDictionary
281
     1
  0
SORTENTSTABLE
  5
7B45
102
{ACAD_REACTORS
330
7B44
102
}
330
7B44
100
AcDbSortentsTable
330
7B43
  0
XRECORD
  5
7C17
102
{ACAD_REACTORS
330
7C16
102
}
330
7C16
100
AcDbXrecord
280
     1
 40
1.570796326794896
  0
LAYOUT
  5
66
102
{ACAD_REACTORS
330
5D
102
}
330
5D
100
AcDbPlotSettings
  1

  2
HP Deskjet 1280 series
  4

  6

 40
0.0
 41
0.0
 42
0.0
 43
0.0
 44
0.0
 45
0.0
 46
0.0
 47
0.0
 48
0.0
 49
0.0
140
0.0
141
0.0
142
1.0
143
1.0
 70
   688
 72
     0
 73
     0
 74
     5
  7

 75
    16
147
1.0
 76
     0
 77
     2
 78
   300
148
0.0
149
0.0
100
AcDbLayout
  1
Layout1
 70
     1
 71
     1
 10
0.0
 20
0.0
 11
420.0
 21
297.0
 12
0.0
 22
0.0
 32
0.0
 14
1.000000000000000E+20
 24
1.000000000000000E+20
 34
1.000000000000000E+20
 15
-1.000000000000000E+20
 25
-1.000000000000000E+20
 35
-1.000000000000000E+20
146
0.0
 13
0.0
 23
0.0
 33
0.0
 16
1.0
 26
0.0
 36
0.0
 17
0.0
 27
1.0
 37
0.0
 76
     0
330
63
  0
LAYOUT
  5
6E
102
{ACAD_REACTORS
330
5D
102
}
330
5D
100
AcDbPlotSettings
  1

  2
HP Deskjet 1280 series
  4

  6

 40
0.0
 41
0.0
 42
0.0
 43
0.0
 44
0.0
 45
0.0
 46
0.0
 47
0.0
 48
0.0
 49
0.0
140
0.0
141
0.0
142
1.0
143
1.0
 70
   688
 72
     0
 73
     0
 74
     5
  7

 75
    16
147
1.0
 76
     0
 77
     2
 78
   300
148
0.0
149
0.0
100
AcDbLayout
  1
Layout2
 70
     1
 71
     2
 10
0.0
 20
0.0
 11
12.0
 21
9.0
 12
0.0
 22
0.0
 32
0.0
 14
0.0
 24
0.0
 34
0.0
 15
0.0
 25
0.0
 35
0.0
146
0.0
 13
0.0
 23
0.0
 33
0.0
 16
1.0
 26
0.0
 36
0.0
 17
0.0
 27
1.0
 37
0.0
 76
     0
330
6B
  0
LAYOUT
  5
6A
102
{ACAD_REACTORS
330
5D
102
}
330
5D
100
AcDbPlotSettings
  1

  2
HP Deskjet 1280 series
  4

  6

 40
0.0
 41
0.0
 42
0.0
 43
0.0
 44
0.0
 45
0.0
 46
0.0
 47
0.0
 48
0.0
 49
0.0
140
0.0
141
0.0
142
1.0
143
1.0
 70
  1712
 72
     0
 73
     0
 74
     0
  7

 75
     0
147
1.0
 76
     0
 77
     2
 78
   300
148
0.0
149
0.0
100
AcDbLayout
  1
Model
 70
     1
 71
     0
 10
0.0
 20
0.0
 11
12.0
 21
9.0
 12
0.0
 22
0.0
 32
0.0
 14
0.0
 24
0.0
 34
0.0
 15
0.0
 25
0.0
 35
0.0
146
0.0
 13
0.0
 23
0.0
 33
0.0
 16
1.0
 26
0.0
 36
0.0
 17
0.0
 27
1.0
 37
0.0
 76
     0
330
67
331
52
  0
MATERIAL
  5
19
102
{ACAD_XDICTIONARY
360
1A
102
}
102
{ACAD_REACTORS
330
10
102
}
330
10
100
AcDbMaterial
  1
ByBlock
 72
     0
 43
0.0208333333333333
 43
0.0
 43
0.0
 43
0.0
 43
0.0
 43
0.0208333333333333
 43
0.0
 43
0.0
 43
0.0
 43
0.0
 43
1.0
 43
0.0
 43
0.0
 43
0.0
 43
0.0
 43
1.0
 77
     0
 47
0.0208333333333333
 47
0.0
 47
0.0
 47
0.0
 47
0.0
 47
0.0208333333333333
 47
0.0
 47
0.0
 47
0.0
 47
0.0
 47
1.0
 47
0.0
 47
0.0
 47
0.0
 47
0.0
 47
1.0
171
     0
 49
0.0208333333333333
 49
0.0
 49
0.0
 49
0.0
 49
0.0
 49
0.0208333333333333
 49
0.0
 49
0.0
 49
0.0
 49
0.0
 49
1.0
 49
0.0
 49
0.0
 49
0.0
 49
0.0
 49
1.0
175
     0
142
0.0208333333333333
142
0.0
142
0.0
142
0.0
142
0.0
142
0.0208333333333333
142
0.0
142
0.0
142
0.0
142
0.0
142
1.0
142
0.0
142
0.0
142
0.0
142
0.0
142
1.0
179
     0
144
0.0208333333333333
144
0.0
144
0.0
144
0.0
144
0.0
144
0.0208333333333333
144
0.0
144
0.0
144
0.0
144
0.0
144
1.0
144
0.0
144
0.0
144
0.0
144
0.0
144
1.0
147
0.0208333333333333
147
0.0
147
0.0
147
0.0
147
0.0
147
0.0208333333333333
147
0.0
147
0.0
147
0.0
147
0.0
147
1.0
147
0.0
147
0.0
147
0.0
147
0.0
147
1.0
  0
MATERIAL
  5
11
102
{ACAD_XDICTIONARY
360
12
102
}
102
{ACAD_REACTORS
330
10
102
}
330
10
100
AcDbMaterial
  1
ByLayer
 72
     0
 43
0.0208333333333333
 43
0.0
 43
0.0
 43
0.0
 43
0.0
 43
0.0208333333333333
 43
0.0
 43
0.0
 43
0.0
 43
0.0
 43
1.0
 43
0.0
 43
0.0
 43
0.0
 43
0.0
 43
1.0
 77
     0
 47
0.0208333333333333
 47
0.0
 47
0.0
 47
0.0
 47
0.0
 47
0.0208333333333333
 47
0.0
 47
0.0
 47
0.0
 47
0.0
 47
1.0
 47
0.0
 47
0.0
 47
0.0
 47
0.0
 47
1.0
171
     0
 49
0.0208333333333333
 49
0.0
 49
0.0
 49
0.0
 49
0.0
 49
0.0208333333333333
 49
0.0
 49
0.0
 49
0.0
 49
0.0
 49
1.0
 49
0.0
 49
0.0
 49
0.0
 49
0.0
 49
1.0
175
     0
142
0.0208333333333333
142
0.0
142
0.0
142
0.0
142
0.0
142
0.0208333333333333
142
0.0
142
0.0
142
0.0
142
0.0
142
1.0
142
0.0
142
0.0
142
0.0
142
0.0
142
1.0
179
     0
144
0.0208333333333333
144
0.0
144
0.0
144
0.0
144
0.0
144
0.0208333333333333
144
0.0
144
0.0
144
0.0
144
0.0
144
1.0
144
0.0
144
0.0
144
0.0
144
0.0
144
1.0
147
0.0208333333333333
147
0.0
147
0.0
147
0.0
147
0.0
147
0.0208333333333333
147
0.0
147
0.0
147
0.0
147
0.0
147
1.0
147
0.0
147
0.0
147
0.0
147
0.0
147
1.0
  0
MATERIAL
  5
21
102
{ACAD_XDICTIONARY
360
22
102
}
102
{ACAD_REACTORS
330
10
102
}
330
10
100
AcDbMaterial
  1
Global
 72
     0
 43
0.0208333333333333
 43
0.0
 43
0.0
 43
0.0
 43
0.0
 43
0.0208333333333333
 43
0.0
 43
0.0
 43
0.0
 43
0.0
 43
1.0
 43
0.0
 43
0.0
 43
0.0
 43
0.0
 43
1.0
 77
     0
 47
0.0208333333333333
 47
0.0
 47
0.0
 47
0.0
 47
0.0
 47
0.0208333333333333
 47
0.0
 47
0.0
 47
0.0
 47
0.0
 47
1.0
 47
0.0
 47
0.0
 47
0.0
 47
0.0
 47
1.0
171
     0
 49
0.0208333333333333
 49
0.0
 49
0.0
 49
0.0
 49
0.0
 49
0.0208333333333333
 49
0.0
 49
0.0
 49
0.0
 49
0.0
 49
1.0
 49
0.0
 49
0.0
 49
0.0
 49
0.0
 49
1.0
175
     0
142
0.0208333333333333
142
0.0
142
0.0
142
0.0
142
0.0
142
0.0208333333333333
142
0.0
142
0.0
142
0.0
142
0.0
142
1.0
142
0.0
142
0.0
142
0.0
142
0.0
142
1.0
179
     0
144
0.0208333333333333
144
0.0
144
0.0
144
0.0
144
0.0
144
0.0208333333333333
144
0.0
144
0.0
144
0.0
144
0.0
144
1.0
144
0.0
144
0.0
144
0.0
144
0.0
144
1.0
147
0.0208333333333333
147
0.0
147
0.0
147
0.0
147
0.0
147
0.0208333333333333
147
0.0
147
0.0
147
0.0
147
0.0
147
1.0
147
0.0
147
0.0
147
0.0
147
0.0
147
1.0
  0
MLEADERSTYLE
  5
62
102
{ACAD_REACTORS
330
61
102
}
330
61
100
AcDbMLeaderStyle
170
     2
171
     1
172
     0
 90
        2
 40
0.0
 41
0.0
173
     1
 91
-1056964608
340
56
 92
       -2
290
     1
 42
0.09
291
     1
 43
0.36
  3
Standard
 44
0.18
300

342
50
174
     1
178
     6
175
     1
176
     0
 93
-1056964608
 45
0.18
292
     0
297
     0
 46
0.18
 94
-1056964608
 47
1.0
 49
1.0
140
1.0
293
     1
141
0.0
294
     1
177
     0
142
1.0
295
     0
296
     0
143
0.125
1001
ACAD_MLEADERVER
1070
     2
  0
MLINESTYLE
  5
5B
102
{ACAD_REACTORS
330
5A
102
}
330
5A
100
AcDbMlineStyle
  2
STANDARD
 70
     0
  3

 62
   256
 51
90.0
 52
90.0
 71
     2
 49
0.5
 62
   256
  6
BYLAYER
 49
-0.5
 62
   256
  6
BYLAYER
  0
ACDBPLACEHOLDER
  5
F
102
{ACAD_REACTORS
330
E
102
}
330
E
  0
SCALE
  5
3E
102
{ACAD_REACTORS
330
3D
102
}
330
3D
100
AcDbScale
 70
     0
300
1:1
140
1.0
141
1.0
290
     1
  0
SCALE
  5
3F
102
{ACAD_REACTORS
330
3D
102
}
330
3D
100
AcDbScale
 70
     0
300
1:2
140
1.0
141
2.0
290
     0
  0
SCALE
  5
40
102
{ACAD_REACTORS
330
3D
102
}
330
3D
100
AcDbScale
 70
     0
300
1:4
140
1.0
141
4.0
290
     0
  0
SCALE
  5
41
102
{ACAD_REACTORS
330
3D
102
}
330
3D
100
AcDbScale
 70
     0
300
1:5
140
1.0
141
5.0
290
     0
  0
SCALE
  5
42
102
{ACAD_REACTORS
330
3D
102
}
330
3D
100
AcDbScale
 70
     0
300
1:8
140
1.0
141
8.0
290
     0
  0
SCALE
  5
43
102
{ACAD_REACTORS
330
3D
102
}
330
3D
100
AcDbScale
 70
     0
300
1:10
140
1.0
141
10.0
290
     0
  0
SCALE
  5
44
102
{ACAD_REACTORS
330
3D
102
}
330
3D
100
AcDbScale
 70
     0
300
1:16
140
1.0
141
16.0
290
     0
  0
SCALE
  5
45
102
{ACAD_REACTORS
330
3D
102
}
330
3D
100
AcDbScale
 70
     0
300
1:20
140
1.0
141
20.0
290
     0
  0
SCALE
  5
46
102
{ACAD_REACTORS
330
3D
102
}
330
3D
100
AcDbScale
 70
     0
300
1:30
140
1.0
141
30.0
290
     0
  0
SCALE
  5
47
102
{ACAD_REACTORS
330
3D
102
}
330
3D
100
AcDbScale
 70
     0
300
1:40
140
1.0
141
40.0
290
     0
  0
SCALE
  5
48
102
{ACAD_REACTORS
330
3D
102
}
330
3D
100
AcDbScale
 70
     0
300
1:50
140
1.0
141
50.0
290
     0
  0
SCALE
  5
49
102
{ACAD_REACTORS
330
3D
102
}
330
3D
100
AcDbScale
 70
     0
300
1:100
140
1.0
141
100.0
290
     0
  0
SCALE
  5
4A
102
{ACAD_REACTORS
330
3D
102
}
330
3D
100
AcDbScale
 70
     0
300
2:1
140
2.0
141
1.0
290
     0
  0
SCALE
  5
4B
102
{ACAD_REACTORS
330
3D
102
}
330
3D
100
AcDbScale
 70
     0
300
4:1
140
4.0
141
1.0
290
     0
  0
SCALE
  5
4C
102
{ACAD_REACTORS
330
3D
102
}
330
3D
100
AcDbScale
 70
     0
300
8:1
140
8.0
141
1.0
290
     0
  0
SCALE
  5
4D
102
{ACAD_REACTORS
330
3D
102
}
330
3D
100
AcDbScale
 70
     0
300
10:1
140
10.0
141
1.0
290
     0
  0
SCALE
  5
4E
102
{ACAD_REACTORS
330
3D
102
}
330
3D
100
AcDbScale
 70
     0
300
100:1
140
100.0
141
1.0
290
     0
  0
TABLESTYLE
  5
60
102
{ACAD_XDICTIONARY
360
7C13
102
}
102
{ACAD_REACTORS
330
5F
102
}
330
5F
100
AcDbTableStyle
  3
Standard
 70
     0
 71
     0
 40
1.5
 41
1.5
280
     0
281
     0
  7
Standard
140
4.5
170
     2
 62
     0
 63
     7
283
     0
274
    -2
284
     1
 64
     0
275
    -2
285
     1
 65
     0
276
    -2
286
     1
 66
     0
277
    -2
287
     1
 67
     0
278
    -2
288
     1
 68
     0
279
    -2
289
     1
 69
     0
  7
Standard
140
6.0
170
     5
 62
     0
 63
     7
283
     0
274
    -2
284
     1
 64
     0
275
    -2
285
     1
 65
     0
276
    -2
286
     1
 66
     0
277
    -2
287
     1
 67
     0
278
    -2
288
     1
 68
     0
279
    -2
289
     1
 69
     0
  7
Standard
140
4.5
170
     5
 62
     0
 63
     7
283
     0
274
    -2
284
     1
 64
     0
275
    -2
285
     1
 65
     0
276
    -2
286
     1
 66
     0
277
    -2
287
     1
 67
     0
278
    -2
288
     1
 68
     0
279
    -2
289
     1
 69
     0
  0
VISUALSTYLE
  5
2F
102
{ACAD_XDICTIONARY
360
7C25
102
}
102
{ACAD_REACTORS
330
29
102
}
330
29
100
AcDbVisualStyle
  2
2dWireframe
 70
     4
 71
     0
 72
     2
 73
     0
 90
        0
 40
-0.6
 41
-30.0
 62
     5
 63
     7
421
 16777215
 74
     1
 91
        4
 64
     7
 65
   257
 75
     1
175
     1
 42
1.0
 92
        0
 66
   257
 43
1.0
 76
     1
 77
     6
 78
     2
 67
     7
 79
     5
170
     0
171
     0
290
     0
174
     0
 93
        1
 44
0.0
173
     0
291
     0
 45
0.0
1001
ACAD
1000
AcDbSavedByObjectVersion
1070
     0
  0
VISUALSTYLE
  5
31
102
{ACAD_XDICTIONARY
360
7C29
102
}
102
{ACAD_REACTORS
330
29
102
}
330
29
100
AcDbVisualStyle
  2
3D Hidden
 70
     6
 71
     1
 72
     2
 73
     2
 90
        0
 40
-0.6
 41
-30.0
 62
     5
 63
     7
421
 16777215
 74
     2
 91
        2
 64
     7
 65
   257
 75
     2
175
     1
 42
179.0
 92
        0
 66
   257
 43
1.0
 76
     1
 77
     6
 78
     2
 67
     7
 79
     3
170
     0
171
     0
290
     0
174
     0
 93
        1
 44
0.0
173
     0
291
     0
 45
0.0
1001
ACAD
1000
AcDbSavedByObjectVersion
1070
     0
  0
VISUALSTYLE
  5
30
102
{ACAD_XDICTIONARY
360
7C27
102
}
102
{ACAD_REACTORS
330
29
102
}
330
29
100
AcDbVisualStyle
  2
3dWireframe
 70
     5
 71
     0
 72
     2
 73
     0
 90
        0
 40
-0.6
 41
-30.0
 62
     5
 63
     7
421
 16777215
 74
     1
 91
        4
 64
     7
 65
   257
 75
     1
175
     1
 42
1.0
 92
        0
 66
   257
 43
1.0
 76
     1
 77
     6
 78
     2
 67
     7
 79
     5
170
     0
171
     0
290
     0
174
     0
 93
        1
 44
0.0
173
     0
291
     0
 45
0.0
1001
ACAD
1000
AcDbSavedByObjectVersion
1070
     0
  0
VISUALSTYLE
  5
2E
102
{ACAD_XDICTIONARY
360
7C23
102
}
102
{ACAD_REACTORS
330
29
102
}
330
29
100
AcDbVisualStyle
  2
Basic
 70
     7
 71
     1
 72
     0
 73
     1
 90
        0
 40
-0.6
 41
-30.0
 62
     5
 63
     7
421
 16777215
 74
     0
 91
        4
 64
     7
 65
   257
 75
     1
175
     1
 42
1.0
 92
        8
 66
     7
 43
1.0
 76
     1
 77
     6
 78
     2
 67
     7
 79
     5
170
     0
171
     0
290
     0
174
     0
 93
        1
 44
0.0
173
     0
291
     1
 45
0.0
1001
ACAD
1000
AcDbSavedByObjectVersion
1070
     0
  0
VISUALSTYLE
  5
35
102
{ACAD_XDICTIONARY
360
7C31
102
}
102
{ACAD_REACTORS
330
29
102
}
330
29
100
AcDbVisualStyle
  2
Brighten
 70
    12
 71
     2
 72
     2
 73
     0
 90
        0
 40
-0.6
 41
-30.0
 62
     5
 63
     7
421
 16777215
 74
     1
 91
        4
 64
     7
 65
   257
 75
     1
175
     1
 42
1.0
 92
        8
 66
     7
 43
1.0
 76
     1
 77
     6
 78
     2
 67
     7
 79
     5
170
     0
171
     0
290
     0
174
     0
 93
        1
 44
50.0
173
     0
291
     1
 45
0.0
1001
ACAD
1000
AcDbSavedByObjectVersion
1070
     0
  0
VISUALSTYLE
  5
39
102
{ACAD_XDICTIONARY
360
7C39
102
}
102
{ACAD_REACTORS
330
29
102
}
330
29
100
AcDbVisualStyle
  2
ColorChange
 70
    16
 71
     2
 72
     2
 73
     3
 90
        0
 40
-0.6
 41
-30.0
 62
     5
 63
     8
421
  8421504
 74
     1
 91
        4
 64
     7
 65
   257
 75
     1
175
     1
 42
1.0
 92
        8
 66
     8
424
  8421504
 43
1.0
 76
     1
 77
     6
 78
     2
 67
     7
 79
     5
170
     0
171
     0
290
     0
174
     0
 93
        1
 44
0.0
173
     0
291
     1
 45
0.0
1001
ACAD
1000
AcDbSavedByObjectVersion
1070
     0
  0
VISUALSTYLE
  5
32
102
{ACAD_XDICTIONARY
360
7C2B
102
}
102
{ACAD_REACTORS
330
29
102
}
330
29
100
AcDbVisualStyle
  2
Conceptual
 70
     9
 71
     3
 72
     2
 73
     0
 90
        0
 40
-0.6
 41
-30.0
 62
     5
 63
     7
421
 16777215
 74
     2
 91
        2
 64
     7
 65
   257
 75
     1
175
     1
 42
179.0
 92
        8
 66
     7
 43
1.0
 76
     1
 77
     6
 78
     2
 67
     7
 79
     3
170
     0
171
     0
290
     0
174
     0
 93
        1
 44
0.0
173
     0
291
     0
 45
0.0
1001
ACAD
1000
AcDbSavedByObjectVersion
1070
     0
  0
VISUALSTYLE
  5
34
102
{ACAD_XDICTIONARY
360
7C2F
102
}
102
{ACAD_REACTORS
330
29
102
}
330
29
100
AcDbVisualStyle
  2
Dim
 70
    11
 71
     2
 72
     2
 73
     0
 90
        0
 40
-0.6
 41
-30.0
 62
     5
 63
     7
421
 16777215
 74
     1
 91
        4
 64
     7
 65
   257
 75
     1
175
     1
 42
1.0
 92
        8
 66
     7
 43
1.0
 76
     1
 77
     6
 78
     2
 67
     7
 79
     5
170
     0
171
     0
290
     0
174
     0
 93
        1
 44
-50.0
173
     0
291
     1
 45
0.0
1001
ACAD
1000
AcDbSavedByObjectVersion
1070
     0
  0
VISUALSTYLE
  5
3C
102
{ACAD_XDICTIONARY
360
7C3F
102
}
102
{ACAD_REACTORS
330
29
102
}
330
29
100
AcDbVisualStyle
  2
EdgeColorOff
 70
    22
 71
     2
 72
     2
 73
     0
 90
        0
 40
-0.6
 41
-30.0
 62
     5
 63
     7
421
 16777215
 74
     1
 91
        4
 64
     7
 65
   257
 75
     1
175
     1
 42
1.0
 92
        8
 66
     7
 43
1.0
 76
     1
 77
     6
 78
     2
 67
     7
 79
     5
170
     0
171
     0
290
     0
174
     0
 93
        1
 44
0.0
173
     0
291
     1
 45
0.0
1001
ACAD
1000
AcDbSavedByObjectVersion
1070
     0
  0
VISUALSTYLE
  5
38
102
{ACAD_XDICTIONARY
360
7C37
102
}
102
{ACAD_REACTORS
330
29
102
}
330
29
100
AcDbVisualStyle
  2
Facepattern
 70
    15
 71
     2
 72
     2
 73
     0
 90
        0
 40
-0.6
 41
-30.0
 62
     5
 63
     7
421
 16777215
 74
     1
 91
        4
 64
     7
 65
   257
 75
     1
175
     1
 42
1.0
 92
        8
 66
     7
 43
1.0
 76
     1
 77
     6
 78
     2
 67
     7
 79
     5
170
     0
171
     0
290
     0
174
     0
 93
        1
 44
0.0
173
     0
291
     1
 45
0.0
1001
ACAD
1000
AcDbSavedByObjectVersion
1070
     0
  0
VISUALSTYLE
  5
2A
102
{ACAD_XDICTIONARY
360
7C1B
102
}
102
{ACAD_REACTORS
330
29
102
}
330
29
100
AcDbVisualStyle
  2
Flat
 70
     0
 71
     2
 72
     1
 73
     1
 90
        2
 40
-0.6
 41
30.0
 62
     5
 63
     7
421
 16777215
 74
     0
 91
        4
 64
     7
 65
   257
 75
     1
175
     1
 42
1.0
 92
        8
 66
     7
 43
1.0
 76
     1
 77
     6
 78
     2
 67
     7
 79
     5
170
     0
171
     0
290
     0
174
     0
 93
       13
 44
0.0
173
     0
291
     1
 45
0.0
1001
ACAD
1000
AcDbSavedByObjectVersion
1070
     0
  0
VISUALSTYLE
  5
2B
102
{ACAD_XDICTIONARY
360
7C1D
102
}
102
{ACAD_REACTORS
330
29
102
}
330
29
100
AcDbVisualStyle
  2
FlatWithEdges
 70
     1
 71
     2
 72
     1
 73
     1
 90
        2
 40
-0.6
 41
30.0
 62
     5
 63
     7
421
 16777215
 74
     1
 91
        4
 64
     7
 65
   257
 75
     1
175
     1
 42
1.0
 92
        0
 66
   257
 43
1.0
 76
     1
 77
     6
 78
     2
 67
     7
 79
     5
170
     0
171
     0
290
     0
174
     0
 93
       13
 44
0.0
173
     0
291
     1
 45
0.0
1001
ACAD
1000
AcDbSavedByObjectVersion
1070
     0
  0
VISUALSTYLE
  5
2C
102
{ACAD_XDICTIONARY
360
7C1F
102
}
102
{ACAD_REACTORS
330
29
102
}
330
29
100
AcDbVisualStyle
  2
Gouraud
 70
     2
 71
     2
 72
     2
 73
     1
 90
        2
 40
-0.6
 41
30.0
 62
     5
 63
     7
421
 16777215
 74
     0
 91
        4
 64
     7
 65
   257
 75
     1
175
     1
 42
1.0
 92
        0
 66
     7
 43
1.0
 76
     1
 77
     6
 78
     2
 67
     7
 79
     5
170
     0
171
     0
290
     0
174
     0
 93
       13
 44
0.0
173
     0
291
     1
 45
0.0
1001
ACAD
1000
AcDbSavedByObjectVersion
1070
     0
  0
VISUALSTYLE
  5
2D
102
{ACAD_XDICTIONARY
360
7C21
102
}
102
{ACAD_REACTORS
330
29
102
}
330
29
100
AcDbVisualStyle
  2
GouraudWithEdges
 70
     3
 71
     2
 72
     2
 73
     1
 90
        2
 40
-0.6
 41
30.0
 62
     5
 63
     7
421
 16777215
 74
     1
 91
        4
 64
     7
 65
   257
 75
     1
175
     1
 42
1.0
 92
        0
 66
   257
 43
1.0
 76
     1
 77
     6
 78
     2
 67
     7
 79
     5
170
     0
171
     0
290
     0
174
     0
 93
       13
 44
0.0
173
     0
291
     1
 45
0.0
1001
ACAD
1000
AcDbSavedByObjectVersion
1070
     0
  0
VISUALSTYLE
  5
3A
102
{ACAD_XDICTIONARY
360
7C3B
102
}
102
{ACAD_REACTORS
330
29
102
}
330
29
100
AcDbVisualStyle
  2
JitterOff
 70
    20
 71
     2
 72
     2
 73
     0
 90
        0
 40
-0.6
 41
-30.0
 62
     5
 63
     7
421
 16777215
 74
     1
 91
        4
 64
     7
 65
   257
 75
     1
175
     1
 42
1.0
 92
       10
 66
     7
 43
1.0
 76
     1
 77
     6
 78
     2
 67
     7
 79
     5
170
     0
171
     0
290
     0
174
     0
 93
        1
 44
0.0
173
     0
291
     1
 45
0.0
1001
ACAD
1000
AcDbSavedByObjectVersion
1070
     0
  0
VISUALSTYLE
  5
37
102
{ACAD_XDICTIONARY
360
7C35
102
}
102
{ACAD_REACTORS
330
29
102
}
330
29
100
AcDbVisualStyle
  2
Linepattern
 70
    14
 71
     2
 72
     2
 73
     0
 90
        0
 40
-0.6
 41
-30.0
 62
     5
 63
     7
421
 16777215
 74
     1
 91
        4
 64
     7
 65
   257
 75
     7
175
     7
 42
1.0
 92
        8
 66
     7
 43
1.0
 76
     1
 77
     6
 78
     2
 67
     7
 79
     5
170
     0
171
     0
290
     0
174
     0
 93
        1
 44
0.0
173
     0
291
     1
 45
0.0
1001
ACAD
1000
AcDbSavedByObjectVersion
1070
     0
  0
VISUALSTYLE
  5
3B
102
{ACAD_XDICTIONARY
360
7C3D
102
}
102
{ACAD_REACTORS
330
29
102
}
330
29
100
AcDbVisualStyle
  2
OverhangOff
 70
    21
 71
     2
 72
     2
 73
     0
 90
        0
 40
-0.6
 41
-30.0
 62
     5
 63
     7
421
 16777215
 74
     1
 91
        4
 64
     7
 65
   257
 75
     1
175
     1
 42
1.0
 92
        9
 66
     7
 43
1.0
 76
     1
 77
     6
 78
     2
 67
     7
 79
     5
170
     0
171
     0
290
     0
174
     0
 93
        1
 44
0.0
173
     0
291
     1
 45
0.0
1001
ACAD
1000
AcDbSavedByObjectVersion
1070
     0
  0
VISUALSTYLE
  5
33
102
{ACAD_XDICTIONARY
360
7C2D
102
}
102
{ACAD_REACTORS
330
29
102
}
330
29
100
AcDbVisualStyle
  2
Realistic
 70
     8
 71
     2
 72
     2
 73
     0
 90
        0
 40
-0.6
 41
-30.0
 62
     5
 63
     7
421
 16777215
 74
     1
 91
        0
 64
     7
 65
   257
 75
     1
175
     1
 42
1.0
 92
        8
 66
     8
424
  7895160
 43
1.0
 76
     1
 77
     6
 78
     2
 67
     7
 79
     5
170
     0
171
     0
290
     0
174
     0
 93
       13
 44
0.0
173
     0
291
     0
 45
0.0
1001
ACAD
1000
AcDbSavedByObjectVersion
1070
     0
  0
VISUALSTYLE
  5
36
102
{ACAD_XDICTIONARY
360
7C33
102
}
102
{ACAD_REACTORS
330
29
102
}
330
29
100
AcDbVisualStyle
  2
Thicken
 70
    13
 71
     2
 72
     2
 73
     0
 90
        0
 40
-0.6
 41
-30.0
 62
     5
 63
     7
421
 16777215
 74
     1
 91
        4
 64
     7
 65
   257
 75
     1
175
     1
 42
1.0
 92
       12
 66
     7
 43
1.0
 76
     1
 77
     6
 78
     2
 67
     7
 79
     5
170
     0
171
     0
290
     0
174
     0
 93
        1
 44
0.0
173
     0
291
     1
 45
0.0
1001
ACAD
1000
AcDbSavedByObjectVersion
1070
     0
  0
DICTIONARYVAR
  5
7C0E
102
{ACAD_REACTORS
330
7C0A
102
}
330
7C0A
100
DictionaryVariables
280
     0
  1
1:1
  0
DICTIONARYVAR
  5
7C0C
102
{ACAD_REACTORS
330
7C0A
102
}
330
7C0A
100
DictionaryVariables
280
     0
  1
STANDARD
  0
DICTIONARYVAR
  5
7C0B
102
{ACAD_REACTORS
330
7C0A
102
}
330
7C0A
100
DictionaryVariables
280
     0
  1
STANDARD
  0
DICTIONARYVAR
  5
7C10
102
{ACAD_REACTORS
330
7C0A
102
}
330
7C0A
100
DictionaryVariables
280
     0
  1
0
  0
DICTIONARYVAR
  5
7C11
102
{ACAD_REACTORS
330
7C0A
102
}
330
7C0A
100
DictionaryVariables
280
     0
  1
0
  0
DICTIONARYVAR
  5
7C0F
102
{ACAD_REACTORS
330
7C0A
102
}
330
7C0A
100
DictionaryVariables
280
     0
  1
2
  0
DICTIONARYVAR
  5
7C0D
102
{ACAD_REACTORS
330
7C0A
102
}
330
7C0A
100
DictionaryVariables
280
     0
  1
1
  0
DICTIONARYVAR
  5
7C12
102
{ACAD_REACTORS
330
7C0A
102
}
330
7C0A
100
DictionaryVariables
280
     0
  1
2
  0
DICTIONARY
  5
1A
330
19
100
AcDbDictionary
280
     1
281
     1
  3
ACAD_XREC_ROUNDTRIP
360
7C19
  3
BUMPTILE
360
1C
  3
DIFFUSETILE
360
1B
  3
OPACITYTILE
360
1F
  3
REFLECTIONTILE
360
1E
  3
REFRACTIONTILE
360
20
  3
SPECULARTILE
360
1D
  0
DICTIONARY
  5
12
330
11
100
AcDbDictionary
280
     1
281
     1
  3
ACAD_XREC_ROUNDTRIP
360
7C18
  3
BUMPTILE
360
14
  3
DIFFUSETILE
360
13
  3
OPACITYTILE
360
17
  3
REFLECTIONTILE
360
16
  3
REFRACTIONTILE
360
18
  3
SPECULARTILE
360
15
  0
DICTIONARY
  5
22
330
21
100
AcDbDictionary
280
     1
281
     1
  3
ACAD_XREC_ROUNDTRIP
360
7C1A
  3
BUMPTILE
360
24
  3
DIFFUSETILE
360
23
  3
OPACITYTILE
360
27
  3
REFLECTIONTILE
360
26
  3
REFRACTIONTILE
360
28
  3
SPECULARTILE
360
25
  0
DICTIONARY
  5
7C13
330
60
100
AcDbDictionary
280
     1
281
     1
  3
ACAD_ROUNDTRIP_2008_TABLESTYLE_CELLSTYLEMAP
360
7C14
  3
ACAD_XREC_ROUNDTRIP
360
7C42
  0
DICTIONARY
  5
7C25
330
2F
100
AcDbDictionary
280
     1
281
     1
  3
ACAD_XREC_ROUNDTRIP
360
7C26
  0
DICTIONARY
  5
7C29
330
31
100
AcDbDictionary
280
     1
281
     1
  3
ACAD_XREC_ROUNDTRIP
360
7C2A
  0
DICTIONARY
  5
7C27
330
30
100
AcDbDictionary
280
     1
281
     1
  3
ACAD_XREC_ROUNDTRIP
360
7C28
  0
DICTIONARY
  5
7C23
330
2E
100
AcDbDictionary
280
     1
281
     1
  3
ACAD_XREC_ROUNDTRIP
360
7C24
  0
DICTIONARY
  5
7C31
330
35
100
AcDbDictionary
280
     1
281
     1
  3
ACAD_XREC_ROUNDTRIP
360
7C32
  0
DICTIONARY
  5
7C39
330
39
100
AcDbDictionary
280
     1
281
     1
  3
ACAD_XREC_ROUNDTRIP
360
7C3A
  0
DICTIONARY
  5
7C2B
330
32
100
AcDbDictionary
280
     1
281
     1
  3
ACAD_XREC_ROUNDTRIP
360
7C2C
  0
DICTIONARY
  5
7C2F
330
34
100
AcDbDictionary
280
     1
281
     1
  3
ACAD_XREC_ROUNDTRIP
360
7C30
  0
DICTIONARY
  5
7C3F
330
3C
100
AcDbDictionary
280
     1
281
     1
  3
ACAD_XREC_ROUNDTRIP
360
7C40
  0
DICTIONARY
  5
7C37
330
38
100
AcDbDictionary
280
     1
281
     1
  3
ACAD_XREC_ROUNDTRIP
360
7C38
  0
DICTIONARY
  5
7C1B
330
2A
100
AcDbDictionary
280
     1
281
     1
  3
ACAD_XREC_ROUNDTRIP
360
7C1C
  0
DICTIONARY
  5
7C1D
330
2B
100
AcDbDictionary
280
     1
281
     1
  3
ACAD_XREC_ROUNDTRIP
360
7C1E
  0
DICTIONARY
  5
7C1F
330
2C
100
AcDbDictionary
280
     1
281
     1
  3
ACAD_XREC_ROUNDTRIP
360
7C20
  0
DICTIONARY
  5
7C21
330
2D
100
AcDbDictionary
280
     1
281
     1
  3
ACAD_XREC_ROUNDTRIP
360
7C22
  0
DICTIONARY
  5
7C3B
330
3A
100
AcDbDictionary
280
     1
281
     1
  3
ACAD_XREC_ROUNDTRIP
360
7C3C
  0
DICTIONARY
  5
7C35
330
37
100
AcDbDictionary
280
     1
281
     1
  3
ACAD_XREC_ROUNDTRIP
360
7C36
  0
DICTIONARY
  5
7C3D
330
3B
100
AcDbDictionary
280
     1
281
     1
  3
ACAD_XREC_ROUNDTRIP
360
7C3E
  0
DICTIONARY
  5
7C2D
330
33
100
AcDbDictionary
280
     1
281
     1
  3
ACAD_XREC_ROUNDTRIP
360
7C2E
  0
DICTIONARY
  5
7C33
330
36
100
AcDbDictionary
280
     1
281
     1
  3
ACAD_XREC_ROUNDTRIP
360
7C34
  0
XRECORD
  5
7C19
102
{ACAD_REACTORS
330
1A
102
}
330
1A
100
AcDbXrecord
280
     1
102
MATERIAL
148
0.0
149
0.0
149
0.0
 93
        0
 94
      127
282
     0
 72
     0
 77
     0
171
     0
175
     0
179
     0
273
     0
  0
XRECORD
  5
1C
102
{ACAD_REACTORS
330
1A
102
}
330
1A
100
AcDbXrecord
280
     1
270
     1
271
     1
  0
XRECORD
  5
1B
102
{ACAD_REACTORS
330
1A
102
}
330
1A
100
AcDbXrecord
280
     1
270
     1
271
     1
  0
XRECORD
  5
1F
102
{ACAD_REACTORS
330
1A
102
}
330
1A
100
AcDbXrecord
280
     1
270
     1
271
     1
  0
XRECORD
  5
1E
102
{ACAD_REACTORS
330
1A
102
}
330
1A
100
AcDbXrecord
280
     1
270
     1
271
     1
  0
XRECORD
  5
20
102
{ACAD_REACTORS
330
1A
102
}
330
1A
100
AcDbXrecord
280
     1
270
     1
271
     1
  0
XRECORD
  5
1D
102
{ACAD_REACTORS
330
1A
102
}
330
1A
100
AcDbXrecord
280
     1
270
     1
271
     1
  0
XRECORD
  5
7C18
102
{ACAD_REACTORS
330
12
102
}
330
12
100
AcDbXrecord
280
     1
102
MATERIAL
148
0.0
149
0.0
149
0.0
 93
        0
 94
      127
282
     0
 72
     0
 77
     0
171
     0
175
     0
179
     0
273
     0
  0
XRECORD
  5
14
102
{ACAD_REACTORS
330
12
102
}
330
12
100
AcDbXrecord
280
     1
270
     1
271
     1
  0
XRECORD
  5
13
102
{ACAD_REACTORS
330
12
102
}
330
12
100
AcDbXrecord
280
     1
270
     1
271
     1
  0
XRECORD
  5
17
102
{ACAD_REACTORS
330
12
102
}
330
12
100
AcDbXrecord
280
     1
270
     1
271
     1
  0
XRECORD
  5
16
102
{ACAD_REACTORS
330
12
102
}
330
12
100
AcDbXrecord
280
     1
270
     1
271
     1
  0
XRECORD
  5
18
102
{ACAD_REACTORS
330
12
102
}
330
12
100
AcDbXrecord
280
     1
270
     1
271
     1
  0
XRECORD
  5
15
102
{ACAD_REACTORS
330
12
102
}
330
12
100
AcDbXrecord
280
     1
270
     1
271
     1
  0
XRECORD
  5
7C1A
102
{ACAD_REACTORS
330
22
102
}
330
22
100
AcDbXrecord
280
     1
102
MATERIAL
148
0.0
149
0.0
149
0.0
 93
        0
 94
      127
282
     0
 72
     0
 77
     0
171
     0
175
     0
179
     0
273
     0
  0
XRECORD
  5
24
102
{ACAD_REACTORS
330
22
102
}
330
22
100
AcDbXrecord
280
     1
270
     1
271
     1
  0
XRECORD
  5
23
102
{ACAD_REACTORS
330
22
102
}
330
22
100
AcDbXrecord
280
     1
270
     1
271
     1
  0
XRECORD
  5
27
102
{ACAD_REACTORS
330
22
102
}
330
22
100
AcDbXrecord
280
     1
270
     1
271
     1
  0
XRECORD
  5
26
102
{ACAD_REACTORS
330
22
102
}
330
22
100
AcDbXrecord
280
     1
270
     1
271
     1
  0
XRECORD
  5
28
102
{ACAD_REACTORS
330
22
102
}
330
22
100
AcDbXrecord
280
     1
270
     1
271
     1
  0
XRECORD
  5
25
102
{ACAD_REACTORS
330
22
102
}
330
22
100
AcDbXrecord
280
     1
270
     1
271
     1
  0
CELLSTYLEMAP
  5
7C14
102
{ACAD_REACTORS
330
7C13
102
}
330
7C13
100
AcDbCellStyleMap
 90
        3
300
CELLSTYLE
  1
TABLEFORMAT_BEGIN
 90
        5
170
     1
 91
        0
 92
    32768
 62
   257
 93
        1
300
CONTENTFORMAT
  1
CONTENTFORMAT_BEGIN
 90
        0
 91
        0
 92
      512
 93
        0
300

 40
0.0
140
1.0
 94
        5
 62
     0
340
50
144
6.0
309
CONTENTFORMAT_END
171
     1
301
MARGIN
  1
CELLMARGIN_BEGIN
 40
1.5
 40
1.5
 40
1.5
 40
1.5
 40
4.5
 40
4.5
309
CELLMARGIN_END
 94
        6
 95
        1
302
GRIDFORMAT
  1
GRIDFORMAT_BEGIN
 90
        0
 91
        1
 62
     0
 92
       -2
340
0
 93
        0
 40
1.125
309
GRIDFORMAT_END
 95
        2
302
GRIDFORMAT
  1
GRIDFORMAT_BEGIN
 90
        0
 91
        1
 62
     0
 92
       -2
340
0
 93
        0
 40
1.125
309
GRIDFORMAT_END
 95
        4
302
GRIDFORMAT
  1
GRIDFORMAT_BEGIN
 90
        0
 91
        1
 62
     0
 92
       -2
340
0
 93
        0
 40
1.125
309
GRIDFORMAT_END
 95
        8
302
GRIDFORMAT
  1
GRIDFORMAT_BEGIN
 90
        0
 91
        1
 62
     0
 92
       -2
340
0
 93
        0
 40
1.125
309
GRIDFORMAT_END
 95
       16
302
GRIDFORMAT
  1
GRIDFORMAT_BEGIN
 90
        0
 91
        1
 62
     0
 92
       -2
340
0
 93
        0
 40
1.125
309
GRIDFORMAT_END
 95
       32
302
GRIDFORMAT
  1
GRIDFORMAT_BEGIN
 90
        0
 91
        1
 62
     0
 92
       -2
340
0
 93
        0
 40
1.125
309
GRIDFORMAT_END
309
TABLEFORMAT_END
  1
CELLSTYLE_BEGIN
 90
        1
 91
        1
300
_TITLE
309
CELLSTYLE_END
300
CELLSTYLE
  1
TABLEFORMAT_BEGIN
 90
        5
170
     1
 91
        0
 92
        0
 62
   257
 93
        1
300
CONTENTFORMAT
  1
CONTENTFORMAT_BEGIN
 90
        0
 91
        0
 92
      512
 93
        0
300

 40
0.0
140
1.0
 94
        5
 62
     0
340
50
144
4.5
309
CONTENTFORMAT_END
171
     1
301
MARGIN
  1
CELLMARGIN_BEGIN
 40
1.5
 40
1.5
 40
1.5
 40
1.5
 40
4.5
 40
4.5
309
CELLMARGIN_END
 94
        6
 95
        1
302
GRIDFORMAT
  1
GRIDFORMAT_BEGIN
 90
        0
 91
        1
 62
     0
 92
       -2
340
0
 93
        0
 40
1.125
309
GRIDFORMAT_END
 95
        2
302
GRIDFORMAT
  1
GRIDFORMAT_BEGIN
 90
        0
 91
        1
 62
     0
 92
       -2
340
0
 93
        0
 40
1.125
309
GRIDFORMAT_END
 95
        4
302
GRIDFORMAT
  1
GRIDFORMAT_BEGIN
 90
        0
 91
        1
 62
     0
 92
       -2
340
0
 93
        0
 40
1.125
309
GRIDFORMAT_END
 95
        8
302
GRIDFORMAT
  1
GRIDFORMAT_BEGIN
 90
        0
 91
        1
 62
     0
 92
       -2
340
0
 93
        0
 40
1.125
309
GRIDFORMAT_END
 95
       16
302
GRIDFORMAT
  1
GRIDFORMAT_BEGIN
 90
        0
 91
        1
 62
     0
 92
       -2
340
0
 93
        0
 40
1.125
309
GRIDFORMAT_END
 95
       32
302
GRIDFORMAT
  1
GRIDFORMAT_BEGIN
 90
        0
 91
        1
 62
     0
 92
       -2
340
0
 93
        0
 40
1.125
309
GRIDFORMAT_END
309
TABLEFORMAT_END
  1
CELLSTYLE_BEGIN
 90
        2
 91
        1
300
_HEADER
309
CELLSTYLE_END
300
CELLSTYLE
  1
TABLEFORMAT_BEGIN
 90
        5
170
     1
 91
        0
 92
        0
 62
   257
 93
        1
300
CONTENTFORMAT
  1
CONTENTFORMAT_BEGIN
 90
        0
 91
        0
 92
      512
 93
        0
300

 40
0.0
140
1.0
 94
        2
 62
     0
340
50
144
4.5
309
CONTENTFORMAT_END
171
     1
301
MARGIN
  1
CELLMARGIN_BEGIN
 40
1.5
 40
1.5
 40
1.5
 40
1.5
 40
4.5
 40
4.5
309
CELLMARGIN_END
 94
        6
 95
        1
302
GRIDFORMAT
  1
GRIDFORMAT_BEGIN
 90
        0
 91
        1
 62
     0
 92
       -2
340
0
 93
        0
 40
1.125
309
GRIDFORMAT_END
 95
        2
302
GRIDFORMAT
  1
GRIDFORMAT_BEGIN
 90
        0
 91
        1
 62
     0
 92
       -2
340
0
 93
        0
 40
1.125
309
GRIDFORMAT_END
 95
        4
302
GRIDFORMAT
  1
GRIDFORMAT_BEGIN
 90
        0
 91
        1
 62
     0
 92
       -2
340
0
 93
        0
 40
1.125
309
GRIDFORMAT_END
 95
        8
302
GRIDFORMAT
  1
GRIDFORMAT_BEGIN
 90
        0
 91
        1
 62
     0
 92
       -2
340
0
 93
        0
 40
1.125
309
GRIDFORMAT_END
 95
       16
302
GRIDFORMAT
  1
GRIDFORMAT_BEGIN
 90
        0
 91
        1
 62
     0
 92
       -2
340
0
 93
        0
 40
1.125
309
GRIDFORMAT_END
 95
       32
302
GRIDFORMAT
  1
GRIDFORMAT_BEGIN
 90
        0
 91
        1
 62
     0
 92
       -2
340
0
 93
        0
 40
1.125
309
GRIDFORMAT_END
309
TABLEFORMAT_END
  1
CELLSTYLE_BEGIN
 90
        3
 91
        2
300
_DATA
309
CELLSTYLE_END
  0
XRECORD
  5
7C42
102
{ACAD_REACTORS
330
7C13
102
}
330
7C13
100
AcDbXrecord
280
     1
102
ACAD_ROUNDTRIP_PRE2007_TABLESTYLE
 90
      512
 91
        0
  1

 92
      512
 93
        0
  2

 94
      512
 95
        0
  3

  0
XRECORD
  5
7C26
102
{ACAD_REACTORS
330
7C25
102
}
330
7C25
100
AcDbXrecord
280
     1
102
RTVSPropertyOp0
 70
     1
102
RTVSPropertyOp1
 70
     1
102
RTVSPropertyOp2
 70
     1
102
RTVSPropertyOp3
 70
     1
102
RTVSPropertyOp4
 70
     1
102
RTVSPropertyOp5
 70
     1
102
RTVSPropertyOp6
 70
     1
102
RTVSPropertyOp7
 70
     1
102
RTVSPropertyOp8
 70
     1
102
RTVSPropertyOp9
 70
     1
102
RTVSPropertyOp10
 70
     1
102
RTVSPropertyOp11
 70
     1
102
RTVSPropertyOp12
 70
     1
102
RTVSPropertyOp13
 70
     1
102
RTVSPropertyOp14
 70
     1
102
RTVSPropertyOp15
 70
     1
102
RTVSPropertyOp16
 70
     1
102
RTVSPropertyOp17
 70
     1
102
RTVSPropertyOp18
 70
     1
102
RTVSPropertyOp19
 70
     1
102
RTVSPropertyOp20
 70
     1
102
RTVSPropertyOp21
 70
     1
102
RTVSPropertyOp22
 70
     1
102
RTVSPropertyOp23
 70
     1
102
RTVSPropertyOp24
 70
     1
102
RTVSPropertyOp25
 70
     1
102
RTVSPropertyOp26
 70
     1
102
RTVSPropertyOp27
 70
     1
  0
XRECORD
  5
7C2A
102
{ACAD_REACTORS
330
7C29
102
}
330
7C29
100
AcDbXrecord
280
     1
102
RTVSPropertyOp0
 70
     1
102
RTVSPropertyOp1
 70
     1
102
RTVSPropertyOp2
 70
     1
102
RTVSPropertyOp3
 70
     1
102
RTVSPropertyOp4
 70
     1
102
RTVSPropertyOp5
 70
     1
102
RTVSPropertyOp6
 70
     1
102
RTVSPropertyOp7
 70
     1
102
RTVSPropertyOp8
 70
     1
102
RTVSPropertyOp9
 70
     1
102
RTVSPropertyOp10
 70
     1
102
RTVSPropertyOp11
 70
     1
102
RTVSPropertyOp12
 70
     1
102
RTVSPropertyOp13
 70
     1
102
RTVSPropertyOp14
 70
     1
102
RTVSPropertyOp15
 70
     1
102
RTVSPropertyOp16
 70
     1
102
RTVSPropertyOp17
 70
     1
102
RTVSPropertyOp18
 70
     1
102
RTVSPropertyOp19
 70
     1
102
RTVSPropertyOp20
 70
     1
102
RTVSPropertyOp21
 70
     1
102
RTVSPropertyOp22
 70
     1
102
RTVSPropertyOp23
 70
     1
102
RTVSPropertyOp24
 70
     1
102
RTVSPropertyOp25
 70
     1
102
RTVSPropertyOp26
 70
     1
102
RTVSPropertyOp27
 70
     1
  0
XRECORD
  5
7C28
102
{ACAD_REACTORS
330
7C27
102
}
330
7C27
100
AcDbXrecord
280
     1
102
RTVSPropertyOp0
 70
     1
102
RTVSPropertyOp1
 70
     1
102
RTVSPropertyOp2
 70
     1
102
RTVSPropertyOp3
 70
     1
102
RTVSPropertyOp4
 70
     1
102
RTVSPropertyOp5
 70
     1
102
RTVSPropertyOp6
 70
     1
102
RTVSPropertyOp7
 70
     1
102
RTVSPropertyOp8
 70
     1
102
RTVSPropertyOp9
 70
     1
102
RTVSPropertyOp10
 70
     1
102
RTVSPropertyOp11
 70
     1
102
RTVSPropertyOp12
 70
     1
102
RTVSPropertyOp13
 70
     1
102
RTVSPropertyOp14
 70
     1
102
RTVSPropertyOp15
 70
     1
102
RTVSPropertyOp16
 70
     1
102
RTVSPropertyOp17
 70
     1
102
RTVSPropertyOp18
 70
     1
102
RTVSPropertyOp19
 70
     1
102
RTVSPropertyOp20
 70
     1
102
RTVSPropertyOp21
 70
     1
102
RTVSPropertyOp22
 70
     1
102
RTVSPropertyOp23
 70
     1
102
RTVSPropertyOp24
 70
     1
102
RTVSPropertyOp25
 70
     1
102
RTVSPropertyOp26
 70
     1
102
RTVSPropertyOp27
 70
     1
  0
XRECORD
  5
7C24
102
{ACAD_REACTORS
330
7C23
102
}
330
7C23
100
AcDbXrecord
280
     1
102
RTVSPropertyOp0
 70
     1
102
RTVSPropertyOp1
 70
     1
102
RTVSPropertyOp2
 70
     1
102
RTVSPropertyOp3
 70
     1
102
RTVSPropertyOp4
 70
     1
102
RTVSPropertyOp5
 70
     1
102
RTVSPropertyOp6
 70
     1
102
RTVSPropertyOp7
 70
     1
102
RTVSPropertyOp8
 70
     1
102
RTVSPropertyOp9
 70
     1
102
RTVSPropertyOp10
 70
     1
102
RTVSPropertyOp11
 70
     1
102
RTVSPropertyOp12
 70
     1
102
RTVSPropertyOp13
 70
     1
102
RTVSPropertyOp14
 70
     1
102
RTVSPropertyOp15
 70
     1
102
RTVSPropertyOp16
 70
     1
102
RTVSPropertyOp17
 70
     1
102
RTVSPropertyOp18
 70
     1
102
RTVSPropertyOp19
 70
     1
102
RTVSPropertyOp20
 70
     1
102
RTVSPropertyOp21
 70
     1
102
RTVSPropertyOp22
 70
     1
102
RTVSPropertyOp23
 70
     1
102
RTVSPropertyOp24
 70
     1
102
RTVSPropertyOp25
 70
     1
102
RTVSPropertyOp26
 70
     1
102
RTVSPropertyOp27
 70
     1
  0
XRECORD
  5
7C32
102
{ACAD_REACTORS
330
7C31
102
}
330
7C31
100
AcDbXrecord
280
     1
102
RTVSPropertyOp0
 70
     1
102
RTVSPropertyOp1
 70
     1
102
RTVSPropertyOp2
 70
     1
102
RTVSPropertyOp3
 70
     1
102
RTVSPropertyOp4
 70
     1
102
RTVSPropertyOp5
 70
     1
102
RTVSPropertyOp6
 70
     1
102
RTVSPropertyOp7
 70
     1
102
RTVSPropertyOp8
 70
     1
102
RTVSPropertyOp9
 70
     1
102
RTVSPropertyOp10
 70
     1
102
RTVSPropertyOp11
 70
     1
102
RTVSPropertyOp12
 70
     1
102
RTVSPropertyOp13
 70
     1
102
RTVSPropertyOp14
 70
     1
102
RTVSPropertyOp15
 70
     1
102
RTVSPropertyOp16
 70
     1
102
RTVSPropertyOp17
 70
     1
102
RTVSPropertyOp18
 70
     1
102
RTVSPropertyOp19
 70
     1
102
RTVSPropertyOp20
 70
     1
102
RTVSPropertyOp21
 70
     1
102
RTVSPropertyOp22
 70
     1
102
RTVSPropertyOp23
 70
     1
102
RTVSPropertyOp24
 70
     1
102
RTVSPropertyOp25
 70
     1
102
RTVSPropertyOp26
 70
     1
102
RTVSPropertyOp27
 70
     1
  0
XRECORD
  5
7C3A
102
{ACAD_REACTORS
330
7C39
102
}
330
7C39
100
AcDbXrecord
280
     1
102
RTVSPropertyOp0
 70
     1
102
RTVSPropertyOp1
 70
     1
102
RTVSPropertyOp2
 70
     1
102
RTVSPropertyOp3
 70
     1
102
RTVSPropertyOp4
 70
     1
102
RTVSPropertyOp5
 70
     1
102
RTVSPropertyOp6
 70
     1
102
RTVSPropertyOp7
 70
     1
102
RTVSPropertyOp8
 70
     1
102
RTVSPropertyOp9
 70
     1
102
RTVSPropertyOp10
 70
     1
102
RTVSPropertyOp11
 70
     1
102
RTVSPropertyOp12
 70
     1
102
RTVSPropertyOp13
 70
     1
102
RTVSPropertyOp14
 70
     1
102
RTVSPropertyOp15
 70
     1
102
RTVSPropertyOp16
 70
     1
102
RTVSPropertyOp17
 70
     1
102
RTVSPropertyOp18
 70
     1
102
RTVSPropertyOp19
 70
     1
102
RTVSPropertyOp20
 70
     1
102
RTVSPropertyOp21
 70
     1
102
RTVSPropertyOp22
 70
     1
102
RTVSPropertyOp23
 70
     1
102
RTVSPropertyOp24
 70
     1
102
RTVSPropertyOp25
 70
     1
102
RTVSPropertyOp26
 70
     1
102
RTVSPropertyOp27
 70
     1
  0
XRECORD
  5
7C2C
102
{ACAD_REACTORS
330
7C2B
102
}
330
7C2B
100
AcDbXrecord
280
     1
102
RTVSPropertyOp0
 70
     1
102
RTVSPropertyOp1
 70
     1
102
RTVSPropertyOp2
 70
     1
102
RTVSPropertyOp3
 70
     1
102
RTVSPropertyOp4
 70
     1
102
RTVSPropertyOp5
 70
     1
102
RTVSPropertyOp6
 70
     1
102
RTVSPropertyOp7
 70
     1
102
RTVSPropertyOp8
 70
     1
102
RTVSPropertyOp9
 70
     1
102
RTVSPropertyOp10
 70
     1
102
RTVSPropertyOp11
 70
     1
102
RTVSPropertyOp12
 70
     1
102
RTVSPropertyOp13
 70
     1
102
RTVSPropertyOp14
 70
     1
102
RTVSPropertyOp15
 70
     1
102
RTVSPropertyOp16
 70
     1
102
RTVSPropertyOp17
 70
     1
102
RTVSPropertyOp18
 70
     1
102
RTVSPropertyOp19
 70
     1
102
RTVSPropertyOp20
 70
     1
102
RTVSPropertyOp21
 70
     1
102
RTVSPropertyOp22
 70
     1
102
RTVSPropertyOp23
 70
     1
102
RTVSPropertyOp24
 70
     1
102
RTVSPropertyOp25
 70
     1
102
RTVSPropertyOp26
 70
     1
102
RTVSPropertyOp27
 70
     1
  0
XRECORD
  5
7C30
102
{ACAD_REACTORS
330
7C2F
102
}
330
7C2F
100
AcDbXrecord
280
     1
102
RTVSPropertyOp0
 70
     1
102
RTVSPropertyOp1
 70
     1
102
RTVSPropertyOp2
 70
     1
102
RTVSPropertyOp3
 70
     1
102
RTVSPropertyOp4
 70
     1
102
RTVSPropertyOp5
 70
     1
102
RTVSPropertyOp6
 70
     1
102
RTVSPropertyOp7
 70
     1
102
RTVSPropertyOp8
 70
     1
102
RTVSPropertyOp9
 70
     1
102
RTVSPropertyOp10
 70
     1
102
RTVSPropertyOp11
 70
     1
102
RTVSPropertyOp12
 70
     1
102
RTVSPropertyOp13
 70
     1
102
RTVSPropertyOp14
 70
     1
102
RTVSPropertyOp15
 70
     1
102
RTVSPropertyOp16
 70
     1
102
RTVSPropertyOp17
 70
     1
102
RTVSPropertyOp18
 70
     1
102
RTVSPropertyOp19
 70
     1
102
RTVSPropertyOp20
 70
     1
102
RTVSPropertyOp21
 70
     1
102
RTVSPropertyOp22
 70
     1
102
RTVSPropertyOp23
 70
     1
102
RTVSPropertyOp24
 70
     1
102
RTVSPropertyOp25
 70
     1
102
RTVSPropertyOp26
 70
     1
102
RTVSPropertyOp27
 70
     1
  0
XRECORD
  5
7C40
102
{ACAD_REACTORS
330
7C3F
102
}
330
7C3F
100
AcDbXrecord
280
     1
102
RTVSPropertyOp0
 70
     0
102
RTVSPropertyOp1
 70
     0
102
RTVSPropertyOp2
 70
     0
102
RTVSPropertyOp3
 70
     0
102
RTVSPropertyOp4
 70
     0
102
RTVSPropertyOp5
 70
     0
102
RTVSPropertyOp6
 70
     0
102
RTVSPropertyOp7
 70
     0
102
RTVSPropertyOp8
 70
     0
102
RTVSPropertyOp9
 70
     0
102
RTVSPropertyOp10
 70
     0
102
RTVSPropertyOp11
 70
     0
102
RTVSPropertyOp12
 70
     0
102
RTVSPropertyOp13
 70
     0
102
RTVSPropertyOp14
 70
     2
102
RTVSPropertyOp15
 70
     0
102
RTVSPropertyOp16
 70
     0
102
RTVSPropertyOp17
 70
     0
102
RTVSPropertyOp18
 70
     0
102
RTVSPropertyOp19
 70
     0
102
RTVSPropertyOp20
 70
     0
102
RTVSPropertyOp21
 70
     0
102
RTVSPropertyOp22
 70
     0
102
RTVSPropertyOp23
 70
     0
102
RTVSPropertyOp24
 70
     0
102
RTVSPropertyOp25
 70
     0
102
RTVSPropertyOp26
 70
     0
102
RTVSPropertyOp27
 70
     0
  0
XRECORD
  5
7C38
102
{ACAD_REACTORS
330
7C37
102
}
330
7C37
100
AcDbXrecord
280
     1
102
RTVSPropertyOp0
 70
     1
102
RTVSPropertyOp1
 70
     1
102
RTVSPropertyOp2
 70
     1
102
RTVSPropertyOp3
 70
     1
102
RTVSPropertyOp4
 70
     1
102
RTVSPropertyOp5
 70
     1
102
RTVSPropertyOp6
 70
     1
102
RTVSPropertyOp7
 70
     1
102
RTVSPropertyOp8
 70
     1
102
RTVSPropertyOp9
 70
     1
102
RTVSPropertyOp10
 70
     1
102
RTVSPropertyOp11
 70
     1
102
RTVSPropertyOp12
 70
     1
102
RTVSPropertyOp13
 70
     1
102
RTVSPropertyOp14
 70
     1
102
RTVSPropertyOp15
 70
     1
102
RTVSPropertyOp16
 70
     1
102
RTVSPropertyOp17
 70
     1
102
RTVSPropertyOp18
 70
     1
102
RTVSPropertyOp19
 70
     1
102
RTVSPropertyOp20
 70
     1
102
RTVSPropertyOp21
 70
     1
102
RTVSPropertyOp22
 70
     1
102
RTVSPropertyOp23
 70
     1
102
RTVSPropertyOp24
 70
     1
102
RTVSPropertyOp25
 70
     1
102
RTVSPropertyOp26
 70
     1
102
RTVSPropertyOp27
 70
     1
  0
XRECORD
  5
7C1C
102
{ACAD_REACTORS
330
7C1B
102
}
330
7C1B
100
AcDbXrecord
280
     1
102
RTVSPropertyOp0
 70
     1
102
RTVSPropertyOp1
 70
     1
102
RTVSPropertyOp2
 70
     1
102
RTVSPropertyOp3
 70
     1
102
RTVSPropertyOp4
 70
     1
102
RTVSPropertyOp5
 70
     1
102
RTVSPropertyOp6
 70
     1
102
RTVSPropertyOp7
 70
     1
102
RTVSPropertyOp8
 70
     1
102
RTVSPropertyOp9
 70
     1
102
RTVSPropertyOp10
 70
     1
102
RTVSPropertyOp11
 70
     1
102
RTVSPropertyOp12
 70
     1
102
RTVSPropertyOp13
 70
     1
102
RTVSPropertyOp14
 70
     1
102
RTVSPropertyOp15
 70
     1
102
RTVSPropertyOp16
 70
     1
102
RTVSPropertyOp17
 70
     1
102
RTVSPropertyOp18
 70
     1
102
RTVSPropertyOp19
 70
     1
102
RTVSPropertyOp20
 70
     1
102
RTVSPropertyOp21
 70
     1
102
RTVSPropertyOp22
 70
     1
102
RTVSPropertyOp23
 70
     1
102
RTVSPropertyOp24
 70
     1
102
RTVSPropertyOp25
 70
     1
102
RTVSPropertyOp26
 70
     1
102
RTVSPropertyOp27
 70
     1
  0
XRECORD
  5
7C1E
102
{ACAD_REACTORS
330
7C1D
102
}
330
7C1D
100
AcDbXrecord
280
     1
102
RTVSPropertyOp0
 70
     1
102
RTVSPropertyOp1
 70
     1
102
RTVSPropertyOp2
 70
     1
102
RTVSPropertyOp3
 70
     1
102
RTVSPropertyOp4
 70
     1
102
RTVSPropertyOp5
 70
     1
102
RTVSPropertyOp6
 70
     1
102
RTVSPropertyOp7
 70
     1
102
RTVSPropertyOp8
 70
     1
102
RTVSPropertyOp9
 70
     1
102
RTVSPropertyOp10
 70
     1
102
RTVSPropertyOp11
 70
     1
102
RTVSPropertyOp12
 70
     1
102
RTVSPropertyOp13
 70
     1
102
RTVSPropertyOp14
 70
     1
102
RTVSPropertyOp15
 70
     1
102
RTVSPropertyOp16
 70
     1
102
RTVSPropertyOp17
 70
     1
102
RTVSPropertyOp18
 70
     1
102
RTVSPropertyOp19
 70
     1
102
RTVSPropertyOp20
 70
     1
102
RTVSPropertyOp21
 70
     1
102
RTVSPropertyOp22
 70
     1
102
RTVSPropertyOp23
 70
     1
102
RTVSPropertyOp24
 70
     1
102
RTVSPropertyOp25
 70
     1
102
RTVSPropertyOp26
 70
     1
102
RTVSPropertyOp27
 70
     1
  0
XRECORD
  5
7C20
102
{ACAD_REACTORS
330
7C1F
102
}
330
7C1F
100
AcDbXrecord
280
     1
102
RTVSPropertyOp0
 70
     1
102
RTVSPropertyOp1
 70
     1
102
RTVSPropertyOp2
 70
     1
102
RTVSPropertyOp3
 70
     1
102
RTVSPropertyOp4
 70
     1
102
RTVSPropertyOp5
 70
     1
102
RTVSPropertyOp6
 70
     1
102
RTVSPropertyOp7
 70
     1
102
RTVSPropertyOp8
 70
     1
102
RTVSPropertyOp9
 70
     1
102
RTVSPropertyOp10
 70
     1
102
RTVSPropertyOp11
 70
     1
102
RTVSPropertyOp12
 70
     1
102
RTVSPropertyOp13
 70
     1
102
RTVSPropertyOp14
 70
     1
102
RTVSPropertyOp15
 70
     1
102
RTVSPropertyOp16
 70
     1
102
RTVSPropertyOp17
 70
     1
102
RTVSPropertyOp18
 70
     1
102
RTVSPropertyOp19
 70
     1
102
RTVSPropertyOp20
 70
     1
102
RTVSPropertyOp21
 70
     1
102
RTVSPropertyOp22
 70
     1
102
RTVSPropertyOp23
 70
     1
102
RTVSPropertyOp24
 70
     1
102
RTVSPropertyOp25
 70
     1
102
RTVSPropertyOp26
 70
     1
102
RTVSPropertyOp27
 70
     1
  0
XRECORD
  5
7C22
102
{ACAD_REACTORS
330
7C21
102
}
330
7C21
100
AcDbXrecord
280
     1
102
RTVSPropertyOp0
 70
     1
102
RTVSPropertyOp1
 70
     1
102
RTVSPropertyOp2
 70
     1
102
RTVSPropertyOp3
 70
     1
102
RTVSPropertyOp4
 70
     1
102
RTVSPropertyOp5
 70
     1
102
RTVSPropertyOp6
 70
     1
102
RTVSPropertyOp7
 70
     1
102
RTVSPropertyOp8
 70
     1
102
RTVSPropertyOp9
 70
     1
102
RTVSPropertyOp10
 70
     1
102
RTVSPropertyOp11
 70
     1
102
RTVSPropertyOp12
 70
     1
102
RTVSPropertyOp13
 70
     1
102
RTVSPropertyOp14
 70
     1
102
RTVSPropertyOp15
 70
     1
102
RTVSPropertyOp16
 70
     1
102
RTVSPropertyOp17
 70
     1
102
RTVSPropertyOp18
 70
     1
102
RTVSPropertyOp19
 70
     1
102
RTVSPropertyOp20
 70
     1
102
RTVSPropertyOp21
 70
     1
102
RTVSPropertyOp22
 70
     1
102
RTVSPropertyOp23
 70
     1
102
RTVSPropertyOp24
 70
     1
102
RTVSPropertyOp25
 70
     1
102
RTVSPropertyOp26
 70
     1
102
RTVSPropertyOp27
 70
     1
  0
XRECORD
  5
7C3C
102
{ACAD_REACTORS
330
7C3B
102
}
330
7C3B
100
AcDbXrecord
280
     1
102
RTVSPropertyOp0
 70
     0
102
RTVSPropertyOp1
 70
     0
102
RTVSPropertyOp2
 70
     0
102
RTVSPropertyOp3
 70
     0
102
RTVSPropertyOp4
 70
     0
102
RTVSPropertyOp5
 70
     0
102
RTVSPropertyOp6
 70
     0
102
RTVSPropertyOp7
 70
     0
102
RTVSPropertyOp8
 70
     0
102
RTVSPropertyOp9
 70
     0
102
RTVSPropertyOp10
 70
     0
102
RTVSPropertyOp11
 70
     0
102
RTVSPropertyOp12
 70
     0
102
RTVSPropertyOp13
 70
     0
102
RTVSPropertyOp14
 70
     2
102
RTVSPropertyOp15
 70
     0
102
RTVSPropertyOp16
 70
     0
102
RTVSPropertyOp17
 70
     0
102
RTVSPropertyOp18
 70
     0
102
RTVSPropertyOp19
 70
     0
102
RTVSPropertyOp20
 70
     0
102
RTVSPropertyOp21
 70
     0
102
RTVSPropertyOp22
 70
     0
102
RTVSPropertyOp23
 70
     0
102
RTVSPropertyOp24
 70
     0
102
RTVSPropertyOp25
 70
     0
102
RTVSPropertyOp26
 70
     0
102
RTVSPropertyOp27
 70
     0
  0
XRECORD
  5
7C36
102
{ACAD_REACTORS
330
7C35
102
}
330
7C35
100
AcDbXrecord
280
     1
102
RTVSPropertyOp0
 70
     1
102
RTVSPropertyOp1
 70
     1
102
RTVSPropertyOp2
 70
     1
102
RTVSPropertyOp3
 70
     1
102
RTVSPropertyOp4
 70
     1
102
RTVSPropertyOp5
 70
     1
102
RTVSPropertyOp6
 70
     1
102
RTVSPropertyOp7
 70
     1
102
RTVSPropertyOp8
 70
     1
102
RTVSPropertyOp9
 70
     1
102
RTVSPropertyOp10
 70
     1
102
RTVSPropertyOp11
 70
     1
102
RTVSPropertyOp12
 70
     1
102
RTVSPropertyOp13
 70
     1
102
RTVSPropertyOp14
 70
     1
102
RTVSPropertyOp15
 70
     1
102
RTVSPropertyOp16
 70
     1
102
RTVSPropertyOp17
 70
     1
102
RTVSPropertyOp18
 70
     1
102
RTVSPropertyOp19
 70
     1
102
RTVSPropertyOp20
 70
     1
102
RTVSPropertyOp21
 70
     1
102
RTVSPropertyOp22
 70
     1
102
RTVSPropertyOp23
 70
     1
102
RTVSPropertyOp24
 70
     1
102
RTVSPropertyOp25
 70
     1
102
RTVSPropertyOp26
 70
     1
102
RTVSPropertyOp27
 70
     1
  0
XRECORD
  5
7C3E
102
{ACAD_REACTORS
330
7C3D
102
}
330
7C3D
100
AcDbXrecord
280
     1
102
RTVSPropertyOp0
 70
     0
102
RTVSPropertyOp1
 70
     0
102
RTVSPropertyOp2
 70
     0
102
RTVSPropertyOp3
 70
     0
102
RTVSPropertyOp4
 70
     0
102
RTVSPropertyOp5
 70
     0
102
RTVSPropertyOp6
 70
     0
102
RTVSPropertyOp7
 70
     0
102
RTVSPropertyOp8
 70
     0
102
RTVSPropertyOp9
 70
     0
102
RTVSPropertyOp10
 70
     0
102
RTVSPropertyOp11
 70
     0
102
RTVSPropertyOp12
 70
     0
102
RTVSPropertyOp13
 70
     0
102
RTVSPropertyOp14
 70
     2
102
RTVSPropertyOp15
 70
     0
102
RTVSPropertyOp16
 70
     0
102
RTVSPropertyOp17
 70
     0
102
RTVSPropertyOp18
 70
     0
102
RTVSPropertyOp19
 70
     0
102
RTVSPropertyOp20
 70
     0
102
RTVSPropertyOp21
 70
     0
102
RTVSPropertyOp22
 70
     0
102
RTVSPropertyOp23
 70
     0
102
RTVSPropertyOp24
 70
     0
102
RTVSPropertyOp25
 70
     0
102
RTVSPropertyOp26
 70
     0
102
RTVSPropertyOp27
 70
     0
  0
XRECORD
  5
7C2E
102
{ACAD_REACTORS
330
7C2D
102
}
330
7C2D
100
AcDbXrecord
280
     1
102
RTVSPropertyOp0
 70
     1
102
RTVSPropertyOp1
 70
     1
102
RTVSPropertyOp2
 70
     1
102
RTVSPropertyOp3
 70
     1
102
RTVSPropertyOp4
 70
     1
102
RTVSPropertyOp5
 70
     1
102
RTVSPropertyOp6
 70
     1
102
RTVSPropertyOp7
 70
     1
102
RTVSPropertyOp8
 70
     1
102
RTVSPropertyOp9
 70
     1
102
RTVSPropertyOp10
 70
     1
102
RTVSPropertyOp11
 70
     1
102
RTVSPropertyOp12
 70
     1
102
RTVSPropertyOp13
 70
     1
102
RTVSPropertyOp14
 70
     1
102
RTVSPropertyOp15
 70
     1
102
RTVSPropertyOp16
 70
     1
102
RTVSPropertyOp17
 70
     1
102
RTVSPropertyOp18
 70
     1
102
RTVSPropertyOp19
 70
     1
102
RTVSPropertyOp20
 70
     1
102
RTVSPropertyOp21
 70
     1
102
RTVSPropertyOp22
 70
     1
102
RTVSPropertyOp23
 70
     1
102
RTVSPropertyOp24
 70
     1
102
RTVSPropertyOp25
 70
     1
102
RTVSPropertyOp26
 70
     1
102
RTVSPropertyOp27
 70
     1
  0
XRECORD
  5
7C34
102
{ACAD_REACTORS
330
7C33
102
}
330
7C33
100
AcDbXrecord
280
     1
102
RTVSPropertyOp0
 70
     1
102
RTVSPropertyOp1
 70
     1
102
RTVSPropertyOp2
 70
     1
102
RTVSPropertyOp3
 70
     1
102
RTVSPropertyOp4
 70
     1
102
RTVSPropertyOp5
 70
     1
102
RTVSPropertyOp6
 70
     1
102
RTVSPropertyOp7
 70
     1
102
RTVSPropertyOp8
 70
     1
102
RTVSPropertyOp9
 70
     1
102
RTVSPropertyOp10
 70
     1
102
RTVSPropertyOp11
 70
     1
102
RTVSPropertyOp12
 70
     1
102
RTVSPropertyOp13
 70
     1
102
RTVSPropertyOp14
 70
     1
102
RTVSPropertyOp15
 70
     1
102
RTVSPropertyOp16
 70
     1
102
RTVSPropertyOp17
 70
     1
102
RTVSPropertyOp18
 70
     1
102
RTVSPropertyOp19
 70
     1
102
RTVSPropertyOp20
 70
     1
102
RTVSPropertyOp21
 70
     1
102
RTVSPropertyOp22
 70
     1
102
RTVSPropertyOp23
 70
     1
102
RTVSPropertyOp24
 70
     1
102
RTVSPropertyOp25
 70
     1
102
RTVSPropertyOp26
 70
     1
102
RTVSPropertyOp27
 70
     1
  0
ENDSEC
  0
EOF
