  0
SECTION
  2
HEADER
  9
$ACADVER
  1
AC1018
  9
$ACADMAINTVER
 70
   104
  9
$DWGCODEPAGE
  3
ANSI_1252
  9
$LASTSAVEDBY
  1
admin
  9
$INSBASE
 10
0.0
 20
0.0
 30
0.0
  9
$EXTMIN
 10
279.0223705849657
 20
132.3917255267879
 30
-0.0015258207003583
  9
$EXTMAX
 10
686.0819352730523
 20
885.0069755007025
 30
0.0000000349246037
  9
$LIMMIN
 10
0.0
 20
0.0
  9
$LIMMAX
 10
420.0
 20
297.0
  9
$ORTHOMODE
 70
     0
  9
$REGENMODE
 70
     1
  9
$FILLMODE
 70
     1
  9
$QTEXTMODE
 70
     0
  9
$MIRRTEXT
 70
     0
  9
$LTSCALE
 40
1.0
  9
$ATTMODE
 70
     1
  9
$TEXTSIZE
 40
2.5
  9
$TRACEWID
 40
1.0
  9
$TEXTSTYLE
  7
Standard
  9
$CLAYER
  8
0
  9
$CELTYPE
  6
ByLayer
  9
$CECOLOR
 62
   256
  9
$CELTSCALE
 40
1.0
  9
$DISPSILH
 70
     0
  9
$DIMSCALE
 40
1.0
  9
$DIMASZ
 40
2.5
  9
$DIMEXO
 40
0.625
  9
$DIMDLI
 40
3.75
  9
$DIMRND
 40
0.0
  9
$DIMDLE
 40
0.0
  9
$DIMEXE
 40
1.25
  9
$DIMTP
 40
0.0
  9
$DIMTM
 40
0.0
  9
$DIMTXT
 40
2.5
  9
$DIMCEN
 40
2.5
  9
$DIMTSZ
 40
0.0
  9
$DIMTOL
 70
     0
  9
$DIMLIM
 70
     0
  9
$DIMTIH
 70
     0
  9
$DIMTOH
 70
     0
  9
$DIMSE1
 70
     0
  9
$DIMSE2
 70
     0
  9
$DIMTAD
 70
     1
  9
$DIMZIN
 70
     8
  9
$DIMBLK
  1

  9
$DIMASO
 70
     1
  9
$DIMSHO
 70
     1
  9
$DIMPOST
  1

  9
$DIMAPOST
  1

  9
$DIMALT
 70
     0
  9
$DIMALTD
 70
     3
  9
$DIMALTF
 40
0.03937007874016
  9
$DIMLFAC
 40
1.0
  9
$DIMTOFL
 70
     1
  9
$DIMTVP
 40
0.0
  9
$DIMTIX
 70
     0
  9
$DIMSOXD
 70
     0
  9
$DIMSAH
 70
     0
  9
$DIMBLK1
  1

  9
$DIMBLK2
  1

  9
$DIMSTYLE
  2
ISO-25
  9
$DIMCLRD
 70
     0
  9
$DIMCLRE
 70
     0
  9
$DIMCLRT
 70
     0
  9
$DIMTFAC
 40
1.0
  9
$DIMGAP
 40
0.625
  9
$DIMJUST
 70
     0
  9
$DIMSD1
 70
     0
  9
$DIMSD2
 70
     0
  9
$DIMTOLJ
 70
     0
  9
$DIMTZIN
 70
     8
  9
$DIMALTZ
 70
     0
  9
$DIMALTTZ
 70
     0
  9
$DIMUPT
 70
     0
  9
$DIMDEC
 70
     2
  9
$DIMTDEC
 70
     2
  9
$DIMALTU
 70
     2
  9
$DIMALTTD
 70
     3
  9
$DIMTXSTY
  7
Standard
  9
$DIMAUNIT
 70
     0
  9
$DIMADEC
 70
     0
  9
$DIMALTRND
 40
0.0
  9
$DIMAZIN
 70
     0
  9
$DIMDSEP
 70
    44
  9
$DIMATFIT
 70
     3
  9
$DIMFRAC
 70
     0
  9
$DIMLDRBLK
  1

  9
$DIMLUNIT
 70
     2
  9
$DIMLWD
 70
    -2
  9
$DIMLWE
 70
    -2
  9
$DIMTMOVE
 70
     0
  9
$LUNITS
 70
     2
  9
$LUPREC
 70
     4
  9
$SKETCHINC
 40
1.0
  9
$FILLETRAD
 40
0.0
  9
$AUNITS
 70
     0
  9
$AUPREC
 70
     0
  9
$MENU
  1
.
  9
$ELEVATION
 40
0.0
  9
$PELEVATION
 40
0.0
  9
$THICKNESS
 40
0.0
  9
$LIMCHECK
 70
     0
  9
$CHAMFERA
 40
0.0
  9
$CHAMFERB
 40
0.0
  9
$CHAMFERC
 40
0.0
  9
$CHAMFERD
 40
0.0
  9
$SKPOLY
 70
     0
  9
$TDCREATE
 40
2457869.280614120
  9
$TDUCREATE
 40
2457869.197280787
  9
$TDUPDATE
 40
2457869.325803854
  9
$TDUUPDATE
 40
2457869.242470521
  9
$TDINDWG
 40
0.0451901968
  9
$TDUSRTIMER
 40
0.0451900116
  9
$USRTIMER
 70
     1
  9
$ANGBASE
 50
0.0
  9
$ANGDIR
 70
     0
  9
$PDMODE
 70
     0
  9
$PDSIZE
 40
0.0
  9
$PLINEWID
 40
0.0
  9
$SPLFRAME
 70
     0
  9
$SPLINETYPE
 70
     6
  9
$SPLINESEGS
 70
     8
  9
$HANDSEED
  5
5908
  9
$SURFTAB1
 70
     6
  9
$SURFTAB2
 70
     6
  9
$SURFTYPE
 70
     6
  9
$SURFU
 70
     6
  9
$SURFV
 70
     6
  9
$UCSBASE
  2

  9
$UCSNAME
  2

  9
$UCSORG
 10
0.0
 20
0.0
 30
0.0
  9
$UCSXDIR
 10
1.0
 20
0.0
 30
0.0
  9
$UCSYDIR
 10
0.0
 20
1.0
 30
0.0
  9
$UCSORTHOREF
  2

  9
$UCSORTHOVIEW
 70
     0
  9
$UCSORGTOP
 10
0.0
 20
0.0
 30
0.0
  9
$UCSORGBOTTOM
 10
0.0
 20
0.0
 30
0.0
  9
$UCSORGLEFT
 10
0.0
 20
0.0
 30
0.0
  9
$UCSORGRIGHT
 10
0.0
 20
0.0
 30
0.0
  9
$UCSORGFRONT
 10
0.0
 20
0.0
 30
0.0
  9
$UCSORGBACK
 10
0.0
 20
0.0
 30
0.0
  9
$PUCSBASE
  2

  9
$PUCSNAME
  2

  9
$PUCSORG
 10
0.0
 20
0.0
 30
0.0
  9
$PUCSXDIR
 10
1.0
 20
0.0
 30
0.0
  9
$PUCSYDIR
 10
0.0
 20
1.0
 30
0.0
  9
$PUCSORTHOREF
  2

  9
$PUCSORTHOVIEW
 70
     0
  9
$PUCSORGTOP
 10
0.0
 20
0.0
 30
0.0
  9
$PUCSORGBOTTOM
 10
0.0
 20
0.0
 30
0.0
  9
$PUCSORGLEFT
 10
0.0
 20
0.0
 30
0.0
  9
$PUCSORGRIGHT
 10
0.0
 20
0.0
 30
0.0
  9
$PUCSORGFRONT
 10
0.0
 20
0.0
 30
0.0
  9
$PUCSORGBACK
 10
0.0
 20
0.0
 30
0.0
  9
$USERI1
 70
     0
  9
$USERI2
 70
     0
  9
$USERI3
 70
     0
  9
$USERI4
 70
     0
  9
$USERI5
 70
     0
  9
$USERR1
 40
0.0
  9
$USERR2
 40
0.0
  9
$USERR3
 40
0.0
  9
$USERR4
 40
0.0
  9
$USERR5
 40
0.0
  9
$WORLDVIEW
 70
     1
  9
$SHADEDGE
 70
     3
  9
$SHADEDIF
 70
    70
  9
$TILEMODE
 70
     1
  9
$MAXACTVP
 70
    64
  9
$PINSBASE
 10
0.0
 20
0.0
 30
0.0
  9
$PLIMCHECK
 70
     0
  9
$PEXTMIN
 10
1.000000000000000E+20
 20
1.000000000000000E+20
 30
1.000000000000000E+20
  9
$PEXTMAX
 10
-1.000000000000000E+20
 20
-1.000000000000000E+20
 30
-1.000000000000000E+20
  9
$PLIMMIN
 10
0.0
 20
0.0
  9
$PLIMMAX
 10
420.0
 20
297.0
  9
$UNITMODE
 70
     0
  9
$VISRETAIN
 70
     1
  9
$PLINEGEN
 70
     0
  9
$PSLTSCALE
 70
     1
  9
$TREEDEPTH
 70
  3020
  9
$CMLSTYLE
  2
Standard
  9
$CMLJUST
 70
     0
  9
$CMLSCALE
 40
20.0
  9
$PROXYGRAPHICS
 70
     1
  9
$MEASUREMENT
 70
     1
  9
$CELWEIGHT
370
    -1
  9
$ENDCAPS
280
     0
  9
$JOINSTYLE
280
     0
  9
$LWDISPLAY
290
     0
  9
$INSUNITS
 70
     4
  9
$HYPERLINKBASE
  1

  9
$STYLESHEET
  1

  9
$XEDIT
290
     1
  9
$CEPSNTYPE
380
     0
  9
$PSTYLEMODE
290
     1
  9
$FINGERPRINTGUID
  2
{9DFB5F12-FE38-410F-B4C1-738DA96BFA2A}
  9
$VERSIONGUID
  2
{6363E48A-2384-46FA-84B6-99D5484EFC9A}
  9
$EXTNAMES
290
     1
  9
$PSVPSCALE
 40
0.0
  9
$OLESTARTUP
290
     0
  9
$SORTENTS
280
   127
  9
$INDEXCTL
280
     0
  9
$HIDETEXT
280
     1
  9
$XCLIPFRAME
290
     0
  9
$HALOGAP
280
     0
  9
$OBSCOLOR
 70
   257
  9
$OBSLTYPE
280
     0
  9
$INTERSECTIONDISPLAY
280
     0
  9
$INTERSECTIONCOLOR
 70
   257
  9
$DIMASSOC
280
     2
  9
$PROJECTNAME
  1

  0
ENDSEC
  0
SECTION
  2
CLASSES
  0
CLASS
  1
ACDBDICTIONARYWDFLT
  2
AcDbDictionaryWithDefault
  3
ObjectDBX Classes
 90
        0
 91
        1
280
     0
281
     0
  0
CLASS
  1
MATERIAL
  2
AcDbMaterial
  3
ObjectDBX Classes
 90
     1153
 91
        3
280
     0
281
     0
  0
CLASS
  1
VISUALSTYLE
  2
AcDbVisualStyle
  3
ObjectDBX Classes
 90
     4095
 91
       19
280
     0
281
     0
  0
CLASS
  1
SCALE
  2
AcDbScale
  3
ObjectDBX Classes
 90
     1153
 91
       17
280
     0
281
     0
  0
CLASS
  1
TABLESTYLE
  2
AcDbTableStyle
  3
ObjectDBX Classes
 90
     4095
 91
        1
280
     0
281
     0
  0
CLASS
  1
MLEADERSTYLE
  2
AcDbMLeaderStyle
  3
ACDB_MLEADERSTYLE_CLASS
 90
     4095
 91
        1
280
     0
281
     0
  0
CLASS
  1
SORTENTSTABLE
  2
AcDbSortentsTable
  3
ObjectDBX Classes
 90
        0
 91
       87
280
     0
281
     0
  0
CLASS
  1
AEC_REFEDIT_STATUS_TRACKER
  2
AecDbRefEditStatusTracker
  3
AecArchBase60|Product Desc: Autodesk Architectural Desktop 2007 |Company: Autodesk,Inc. |WEB Address: www.autodesk.com
 90
      129
 91
        1
280
     0
281
     0
  0
CLASS
  1
NPOCOLLECTION
  2
AcDbImpNonPersistentObjectsCollection
  3
ObjectDBX Classes
 90
     1153
 91
        1
280
     0
281
     0
  0
CLASS
  1
DICTIONARYVAR
  2
AcDbDictionaryVar
  3
ObjectDBX Classes
 90
        0
 91
       71
280
     0
281
     0
  0
CLASS
  1
CELLSTYLEMAP
  2
AcDbCellStyleMap
  3
ObjectDBX Classes
 90
     1152
 91
        9
280
     0
281
     0
  0
ENDSEC
  0
SECTION
  2
TABLES
  0
TABLE
  2
VPORT
  5
8
330
0
100
AcDbSymbolTable
 70
     1
  0
VPORT
  5
52
330
8
100
AcDbSymbolTableRecord
100
AcDbViewportTableRecord
  2
*Active
 70
     0
 10
0.0
 20
0.0
 11
1.0
 21
1.0
 12
482.5521529290091
 22
508.6993505137451
 13
0.0
 23
0.0
 14
10.0
 24
10.0
 15
10.0
 25
10.0
 16
0.0
 26
0.0
 36
1.0
 17
0.0
 27
0.0
 37
0.0
 40
757.5076567993137
 41
1.888286334056399
 42
50.0
 43
0.0
 44
0.0
 50
0.0
 51
0.0
 71
     0
 72
  1000
 73
     1
 74
     3
 75
     0
 76
     0
 77
     0
 78
     0
281
     0
 65
     1
110
0.0
120
0.0
130
0.0
111
1.0
121
0.0
131
0.0
112
0.0
122
1.0
132
0.0
 79
     0
146
0.0
  0
ENDTAB
  0
TABLE
  2
LTYPE
  5
5
330
0
100
AcDbSymbolTable
 70
     2
  0
LTYPE
  5
56
330
5
100
AcDbSymbolTableRecord
100
AcDbLinetypeTableRecord
  2
ByBlock
 70
     0
  3

 72
    65
 73
     0
 40
0.0
  0
LTYPE
  5
57
330
5
100
AcDbSymbolTableRecord
100
AcDbLinetypeTableRecord
  2
ByLayer
 70
     0
  3

 72
    65
 73
     0
 40
0.0
  0
LTYPE
  5
58
330
5
100
AcDbSymbolTableRecord
100
AcDbLinetypeTableRecord
  2
Continuous
 70
     0
  3
Solid line
 72
    65
 73
     0
 40
0.0
  0
LTYPE
  5
571A
330
5
100
AcDbSymbolTableRecord
100
AcDbLinetypeTableRecord
  2
JIS_02_0.7
 70
     0
  3
HIDDEN0.75 _ _ _ _ _ _ _ _ _ _ _ _ _ _ _ _ _
 72
    65
 73
     2
 40
1.35
 49
0.75
 74
     0
 49
-0.6
 74
     0
  0
ENDTAB
  0
TABLE
  2
LAYER
  5
2
102
{ACAD_XDICTIONARY
360
5731
102
}
330
0
100
AcDbSymbolTable
 70
    11
  0
LAYER
  5
4F
330
2
100
AcDbSymbolTableRecord
100
AcDbLayerTableRecord
  2
0
 70
     0
 62
     7
  6
Continuous
370
    -3
390
F
  0
LAYER
  5
571B
330
2
100
AcDbSymbolTableRecord
100
AcDbLayerTableRecord
  2
F_01 sichtbar
 70
     0
 62
     7
  6
Continuous
370
    -3
390
F
1001
AcAecLayerStandard
1000

1000

  0
LAYER
  5
571C
330
2
100
AcDbSymbolTableRecord
100
AcDbLayerTableRecord
  2
F_31 Ansichtsfenster
 70
     0
 62
    12
  6
Continuous
290
     0
370
    40
390
F
1001
AcAecLayerStandard
1000

1000

  0
LAYER
  5
571D
330
2
100
AcDbSymbolTableRecord
100
AcDbLayerTableRecord
  2
F_02 unsichtbar
 70
     0
 62
     8
  6
JIS_02_0.7
370
    -3
390
F
1001
AcAecLayerStandard
1000

1000

  0
LAYER
  5
571E
330
2
100
AcDbSymbolTableRecord
100
AcDbLayerTableRecord
  2
F_06 Wangen
 70
     0
 62
   190
  6
Continuous
370
    -3
390
F
1001
AcAecLayerStandard
1000

1000

  0
LAYER
  5
571F
330
2
100
AcDbSymbolTableRecord
100
AcDbLayerTableRecord
  2
F_15 Schr-Mauer hell
 70
     0
 62
   254
  6
Continuous
370
    -3
390
F
1001
AcAecLayerStandard
1000

1000

  0
LAYER
  5
5720
330
2
100
AcDbSymbolTableRecord
100
AcDbLayerTableRecord
  2
F_18 Schr-Holz hell
 70
     0
 62
    41
  6
Continuous
370
    -3
390
F
1001
AcAecLayerStandard
1000

1000

  0
LAYER
  5
5721
330
2
100
AcDbSymbolTableRecord
100
AcDbLayerTableRecord
  2
F_29 Bemassung M
 70
     0
 62
   160
  6
Continuous
370
    -3
390
F
1001
AcAecLayerStandard
1000

1000

  0
LAYER
  5
5722
330
2
100
AcDbSymbolTableRecord
100
AcDbLayerTableRecord
  2
F_30 Bemassung T
 70
     0
 62
    92
  6
Continuous
370
    -3
390
F
1001
AcAecLayerStandard
1000

1000

  0
LAYER
  5
5723
102
{ACAD_XDICTIONARY
360
5724
102
}
330
2
100
AcDbSymbolTableRecord
100
AcDbLayerTableRecord
  2
F_0 sichtbar
 70
     0
 62
     7
  6
Continuous
370
    -3
390
F
1001
AcAecLayerStandard
1000

1000

  0
LAYER
  5
5725
102
{ACAD_XDICTIONARY
360
5726
102
}
330
2
100
AcDbSymbolTableRecord
100
AcDbLayerTableRecord
  2
F_20 Schr-Metall hell
 70
     0
 62
     7
420
 13107199
  6
Continuous
370
    -3
390
F
1001
AcAecLayerStandard
1000

1000

  0
ENDTAB
  0
TABLE
  2
STYLE
  5
3
330
0
100
AcDbSymbolTable
 70
     3
  0
STYLE
  5
50
330
3
100
AcDbSymbolTableRecord
100
AcDbTextStyleTableRecord
  2
Standard
 70
     0
 40
0.0
 41
1.0
 50
0.0
 71
     0
 42
2.5
  3
txt
  4

  0
STYLE
  5
55
330
3
100
AcDbSymbolTableRecord
100
AcDbTextStyleTableRecord
  2
Annotative
 70
     0
 40
0.0
 41
1.0
 50
0.0
 71
     0
 42
0.2
  3
txt
  4

1001
AcadAnnotative
1000
AnnotativeData
1002
{
1070
     1
1070
     1
1002
}
  0
STYLE
  5
5727
330
3
100
AcDbSymbolTableRecord
100
AcDbTextStyleTableRecord
  2
Arial
 70
     0
 40
0.0
 41
1.0
 50
0.0
 71
     0
 42
3.0
  3
ARIALN.TTF
  4

1001
AcadAnnotative
1000
AnnotativeData
1002
{
1070
     1
1070
     1
1002
}
1001
ACAD
1000
Arial Narrow
1071
       34
  0
ENDTAB
  0
TABLE
  2
VIEW
  5
6
330
0
100
AcDbSymbolTable
 70
     0
  0
ENDTAB
  0
TABLE
  2
UCS
  5
7
330
0
100
AcDbSymbolTable
 70
     0
  0
ENDTAB
  0
TABLE
  2
APPID
  5
9
330
0
100
AcDbSymbolTable
 70
     8
  0
APPID
  5
51
330
9
100
AcDbSymbolTableRecord
100
AcDbRegAppTableRecord
  2
ACAD
 70
     0
  0
APPID
  5
59
330
9
100
AcDbSymbolTableRecord
100
AcDbRegAppTableRecord
  2
AcadAnnotative
 70
     0
  0
APPID
  5
572D
330
9
100
AcDbSymbolTableRecord
100
AcDbRegAppTableRecord
  2
AcAecLayerStandard
 70
     0
  0
APPID
  5
572E
330
9
100
AcDbSymbolTableRecord
100
AcDbRegAppTableRecord
  2
ACAD_PSEXT
 70
     0
  0
APPID
  5
572F
330
9
100
AcDbSymbolTableRecord
100
AcDbRegAppTableRecord
  2
ACAD_DSTYLE_DIMJAG
 70
     0
  0
APPID
  5
5730
330
9
100
AcDbSymbolTableRecord
100
AcDbRegAppTableRecord
  2
ACAD_DSTYLE_DIMTALN
 70
     0
  0
APPID
  5
5901
330
9
100
AcDbSymbolTableRecord
100
AcDbRegAppTableRecord
  2
ACAD_DSTYLE_DIMJOGGED_JOGANGLE_SYMBOL
 70
     0
  0
APPID
  5
5903
330
9
100
AcDbSymbolTableRecord
100
AcDbRegAppTableRecord
  2
ACAD_MLEADERVER
 70
     0
  0
ENDTAB
  0
TABLE
  2
DIMSTYLE
  5
A
330
0
100
AcDbSymbolTable
 70
     7
100
AcDbDimStyleTable
 71
     0
  0
DIMSTYLE
105
53
330
A
100
AcDbSymbolTableRecord
100
AcDbDimStyleTableRecord
  2
ISO-25
 70
     0
 41
2.5
 42
0.625
 43
3.75
 44
1.25
 73
     0
 74
     0
 77
     1
 78
     8
140
2.5
141
2.5
143
0.03937007874016
147
0.625
171
     3
172
     1
271
     2
272
     2
274
     3
278
    44
283
     0
284
     8
340
50
1001
ACAD_DSTYLE_DIMJOGGED_JOGANGLE_SYMBOL
1070
   384
1040
1.570796326794896
  0
DIMSTYLE
105
54
330
A
100
AcDbSymbolTableRecord
100
AcDbDimStyleTableRecord
  2
Annotative
 70
     0
340
50
1001
AcadAnnotative
1000
AnnotativeData
1002
{
1070
     1
1070
     1
1002
}
  0
DIMSTYLE
105
5728
330
A
100
AcDbSymbolTableRecord
100
AcDbDimStyleTableRecord
  2
MST 1-1
 70
     0
 41
2.0
 42
2.0
 43
2.0
 44
1.0
 46
2.0
 73
     0
 74
     0
 77
     3
 78
     8
 79
     2
140
3.0
141
2.5
143
0.03937007874016
147
1.0
171
     3
176
   256
177
   256
178
     3
179
     1
271
     1
272
     1
274
     3
279
     2
284
     8
340
5727
342
5700
1001
ACAD_DSTYLE_DIMJAG
1070
   388
1040
1.5
1001
ACAD_DSTYLE_DIMTALN
1070
   392
1070
     0
  0
DIMSTYLE
105
5729
330
A
100
AcDbSymbolTableRecord
100
AcDbDimStyleTableRecord
  2
MST 1-2
 70
     0
 40
2.0
 41
2.0
 42
2.0
 43
2.0
 44
1.0
 46
2.0
 73
     0
 74
     0
 77
     3
 78
     8
 79
     2
140
3.0
141
1.0
143
0.03937007874016
147
1.0
171
     3
176
   256
177
   256
178
     3
179
     1
271
     1
272
     1
274
     3
279
     2
284
     8
340
5727
342
5700
  0
DIMSTYLE
105
572A
330
A
100
AcDbSymbolTableRecord
100
AcDbDimStyleTableRecord
  2
MST 1-5
 70
     0
 40
5.0
 41
1.5
 42
2.0
 43
2.0
 44
1.0
 46
2.0
 73
     0
 74
     0
 77
     3
 78
     8
 79
     2
140
3.0
141
1.0
143
0.03937007874016
147
1.0
171
     3
176
   256
177
   256
178
     3
179
     1
271
     1
272
     1
274
     3
279
     2
284
     8
340
5727
342
5700
  0
DIMSTYLE
105
572B
330
A
100
AcDbSymbolTableRecord
100
AcDbDimStyleTableRecord
  2
MST 1-10
 70
     0
 40
10.0
 41
2.0
 42
2.0
 43
2.0
 44
2.0
 46
2.0
 73
     0
 74
     0
 77
     3
 78
     8
 79
     2
140
3.0
141
1.0
143
0.03937007874016
147
1.0
171
     3
176
   256
177
   256
178
     3
179
     1
271
     1
272
     1
274
     3
279
     2
284
     8
340
5727
342
5700
1001
ACAD_DSTYLE_DIMJAG
1070
   388
1040
1.5
1001
ACAD_DSTYLE_DIMTALN
1070
   392
1070
     0
  0
DIMSTYLE
105
572C
330
A
100
AcDbSymbolTableRecord
100
AcDbDimStyleTableRecord
  2
MST 1-20
 70
     0
 40
20.0
 41
2.0
 42
2.0
 43
2.0
 44
1.0
 46
2.0
 73
     0
 74
     0
 77
     3
 78
     8
 79
     2
140
3.0
141
1.0
143
0.03937007874016
147
1.0
171
     3
176
   256
177
   256
178
     3
179
     1
271
     1
272
     1
274
     3
279
     2
284
     8
340
5727
342
5700
  0
ENDTAB
  0
TABLE
  2
BLOCK_RECORD
  5
1
330
0
100
AcDbSymbolTable
 70
     4
  0
BLOCK_RECORD
  5
67
330
1
100
AcDbSymbolTableRecord
100
AcDbBlockTableRecord
  2
*Model_Space
340
6A
  0
BLOCK_RECORD
  5
63
330
1
100
AcDbSymbolTableRecord
100
AcDbBlockTableRecord
  2
*Paper_Space
340
66
  0
BLOCK_RECORD
  5
6B
330
1
100
AcDbSymbolTableRecord
100
AcDbBlockTableRecord
  2
*Paper_Space0
340
6E
  0
BLOCK_RECORD
  5
5700
102
{ACAD_XDICTIONARY
360
5701
102
}
330
1
100
AcDbSymbolTableRecord
100
AcDbBlockTableRecord
  2
_ArchTick
340
0
310
2800000020000000200000000100080000000000000400000000000000000000000000000000000000000000000080000080000000808000800000008000800080800000C0C0C000C0DCC000F0CAA6000020400000206000002080000020A0000020C0000020E00000400000004020000040400000406000004080000040A0
310
000040C0000040E00000600000006020000060400000606000006080000060A0000060C0000060E00000800000008020000080400000806000008080000080A0000080C0000080E00000A0000000A0200000A0400000A0600000A0800000A0A00000A0C00000A0E00000C0000000C0200000C0400000C0600000C0800000C0
310
A00000C0C00000C0E00000E0000000E0200000E0400000E0600000E0800000E0A00000E0C00000E0E00040000000400020004000400040006000400080004000A0004000C0004000E00040200000402020004020400040206000402080004020A0004020C0004020E000404000004040200040404000404060004040800040
310
40A0004040C0004040E00040600000406020004060400040606000406080004060A0004060C0004060E00040800000408020004080400040806000408080004080A0004080C0004080E00040A0000040A0200040A0400040A0600040A0800040A0A00040A0C00040A0E00040C0000040C0200040C0400040C0600040C08000
310
40C0A00040C0C00040C0E00040E0000040E0200040E0400040E0600040E0800040E0A00040E0C00040E0E00080000000800020008000400080006000800080008000A0008000C0008000E00080200000802020008020400080206000802080008020A0008020C0008020E00080400000804020008040400080406000804080
310
008040A0008040C0008040E00080600000806020008060400080606000806080008060A0008060C0008060E00080800000808020008080400080806000808080008080A0008080C0008080E00080A0000080A0200080A0400080A0600080A0800080A0A00080A0C00080A0E00080C0000080C0200080C0400080C0600080C0
310
800080C0A00080C0C00080C0E00080E0000080E0200080E0400080E0600080E0800080E0A00080E0C00080E0E000C0000000C0002000C0004000C0006000C0008000C000A000C000C000C000E000C0200000C0202000C0204000C0206000C0208000C020A000C020C000C020E000C0400000C0402000C0404000C0406000C0
310
408000C040A000C040C000C040E000C0600000C0602000C0604000C0606000C0608000C060A000C060C000C060E000C0800000C0802000C0804000C0806000C0808000C080A000C080C000C080E000C0A00000C0A02000C0A04000C0A06000C0A08000C0A0A000C0A0C000C0A0E000C0C00000C0C02000C0C04000C0C06000
310
C0C08000C0C0A000F0FBFF00A4A0A000808080000000FF0000FF000000FFFF00FF000000FF00FF00FFFF0000FFFFFF00FFFFFF00FFFFFFFFFFFFFFFFFFFFFFFFFFFFFFFFFFFFFFFFFFFFFFFFFFFFFFFFFFFF00FF00FFFFFFFFFFFFFFFFFFFFFFFFFFFFFFFFFFFFFFFFFFFFFFFFFFFFFFFF00FFFFFF00FFFFFFFFFFFFFFFFFF
310
FFFFFFFFFFFFFFFFFFFFFFFFFFFFFFFFFF00FFFFFFFFFF00FFFFFFFFFFFFFFFFFFFFFFFFFFFFFFFFFFFFFFFFFFFFFFFFFFFF00FFFFFFFFFF00FFFFFFFFFFFFFFFFFFFFFFFFFFFFFFFFFFFFFFFFFFFFFFFFFFFF00FFFFFFFFFF00FFFFFFFFFFFFFFFFFFFFFFFFFFFFFFFFFFFFFFFFFFFFFFFFFFFF00FFFFFFFFFF00FFFFFFFF
310
FFFFFFFFFFFFFFFFFFFFFFFFFFFFFFFFFFFFFFFFFFFF00FFFFFFFFFF00FFFFFFFFFFFFFFFFFFFFFFFFFFFFFFFFFFFFFFFFFFFFFFFFFFFF00FFFFFFFFFF00FFFFFFFFFFFFFFFFFFFFFFFFFFFFFFFFFFFFFFFFFFFFFFFFFFFF00FFFFFFFFFF00FFFFFFFFFFFFFFFFFFFFFFFFFFFFFFFFFFFFFFFFFFFFFFFFFFFF00FFFFFFFFFF
310
00FFFFFFFFFFFFFFFFFFFFFFFFFFFFFFFFFFFFFFFFFFFFFFFFFFFF00FFFFFFFFFF00FFFFFFFFFFFFFFFFFFFFFFFFFFFFFFFFFFFFFFFFFFFFFFFFFFFF00FFFFFFFFFF00FFFFFFFFFFFFFFFFFFFFFFFFFFFFFFFFFFFFFFFFFFFFFFFFFFFF00FFFFFFFFFF00FFFFFFFFFFFFFFFFFFFFFFFFFFFFFFFFFFFFFFFFFFFFFFFFFFFF00
310
FFFFFFFFFF00FFFFFFFFFFFFFFFFFFFFFFFFFFFFFFFFFFFFFFFFFFFFFFFFFFFF00FFFFFFFFFF00FFFFFFFFFFFFFFFFFFFFFFFFFFFFFFFFFFFFFFFFFFFFFFFFFFFF00FFFFFFFFFF00FFFFFFFFFFFFFFFFFFFFFFFFFFFFFFFFFFFFFFFFFFFFFFFFFFFF00FFFFFFFFFF00FFFFFFFFFFFFFFFFFFFFFFFFFFFFFFFFFFFFFFFFFFFF
310
FFFFFFFF00FFFFFFFFFF00FFFFFFFFFFFFFFFFFFFFFFFFFFFFFFFFFFFFFFFFFFFFFFFFFFFF00FFFFFFFFFF00FFFFFFFFFFFFFFFFFFFFFFFFFFFFFFFFFFFFFFFFFFFFFFFFFFFF00FFFFFFFFFF00FFFFFFFFFFFFFFFFFFFFFFFFFFFFFFFFFFFFFFFFFFFFFFFFFFFF00FFFFFFFFFF00FFFFFFFFFFFFFFFFFFFFFFFFFFFFFFFFFF
310
FFFFFFFFFFFFFFFFFF00FFFFFFFFFF00FFFFFFFFFFFFFFFFFFFFFFFFFFFFFFFFFFFFFFFFFFFFFFFFFFFF00FFFFFFFFFF00FFFFFFFFFFFFFFFFFFFFFFFFFFFFFFFFFFFFFFFFFFFFFFFFFFFF00FFFFFFFFFF00FFFFFFFFFFFFFFFFFFFFFFFFFFFFFFFFFFFFFFFFFFFFFFFFFFFF00FFFFFFFFFF00FFFFFFFFFFFFFFFFFFFFFFFF
310
FFFFFFFFFFFFFFFFFFFFFFFFFFFF00FFFFFFFFFF00FFFFFFFFFFFFFFFFFFFFFFFFFFFFFFFFFFFFFFFFFFFFFFFFFFFF00FFFFFFFFFF00FFFFFFFFFFFFFFFFFFFFFFFFFFFFFFFFFFFFFFFFFFFFFFFFFFFF00FFFFFFFFFF00FFFFFFFFFFFFFFFFFFFFFFFFFFFFFFFFFFFFFFFFFFFFFFFFFFFF00FFFFFF00FFFFFFFFFFFFFFFFFF
310
FFFFFFFFFFFFFFFFFFFFFFFFFFFFFFFFFFFFFF00FF00FFFFFFFFFFFFFFFFFFFFFFFFFFFFFFFFFFFFFFFFFFFFFFFFFFFFFFFFFFFF00FFFFFF
  0
BLOCK_RECORD
  5
5706
102
{ACAD_XDICTIONARY
360
5707
102
}
330
1
100
AcDbSymbolTableRecord
100
AcDbBlockTableRecord
  2
A$C512D72A2
340
0
102
{BLKREFS
331
5764
331
5830
102
}
1001
ACAD
1000
DesignCenter Data
1002
{
1070
     1
1070
     4
1002
}
  0
ENDTAB
  0
ENDSEC
  0
SECTION
  2
BLOCKS
  0
BLOCK
  5
68
330
67
100
AcDbEntity
  8
0
100
AcDbBlockBegin
  2
*Model_Space
 70
     0
 10
0.0
 20
0.0
 30
0.0
  3
*Model_Space
  1

  0
ENDBLK
  5
69
330
67
100
AcDbEntity
  8
0
100
AcDbBlockEnd
  0
BLOCK
  5
64
330
63
100
AcDbEntity
 67
     1
  8
0
100
AcDbBlockBegin
  2
*Paper_Space
 70
     0
 10
0.0
 20
0.0
 30
0.0
  3
*Paper_Space
  1

  0
ENDBLK
  5
65
330
63
100
AcDbEntity
 67
     1
  8
0
100
AcDbBlockEnd
  0
BLOCK
  5
6C
330
6B
100
AcDbEntity
 67
     1
  8
0
100
AcDbBlockBegin
  2
*Paper_Space0
 70
     0
 10
0.0
 20
0.0
 30
0.0
  3
*Paper_Space0
  1

  0
ENDBLK
  5
6D
330
6B
100
AcDbEntity
 67
     1
  8
0
100
AcDbBlockEnd
  0
BLOCK
  5
5703
330
5700
100
AcDbEntity
  8
0
100
AcDbBlockBegin
  2
_ArchTick
 70
     0
 10
0.0
 20
0.0
 30
0.0
  3
_ArchTick
  1

  0
LWPOLYLINE
  5
5704
330
5700
100
AcDbEntity
  8
0
  6
ByBlock
 62
     7
100
AcDbPolyline
 90
        2
 70
     0
 43
0.15
 10
-0.5
 20
-0.5
 10
0.5
 20
0.5
  0
ENDBLK
  5
5705
330
5700
100
AcDbEntity
  8
0
100
AcDbBlockEnd
  0
BLOCK
  5
5709
330
5706
100
AcDbEntity
  8
0
100
AcDbBlockBegin
  2
A$C512D72A2
 70
     0
 10
0.0
 20
0.0
 30
0.0
  3
A$C512D72A2
  1

  0
CIRCLE
  5
570A
330
5706
100
AcDbEntity
  8
F_01 sichtbar
100
AcDbCircle
 10
62.84019272666774
 20
26.08899811659649
 30
0.0
 40
1.5
  0
LINE
  5
570B
330
5706
100
AcDbEntity
  8
F_01 sichtbar
100
AcDbLine
 10
43.87580794467067
 20
25.08900033478858
 30
0.0
 11
58.79580794468347
 21
25.08900033478858
 31
0.0
  0
LINE
  5
570C
330
5706
100
AcDbEntity
  8
F_01 sichtbar
100
AcDbLine
 10
58.79580794468347
 20
26.62900033478218
 30
0.0
 11
43.87580794467067
 21
26.62900033478218
 31
0.0
  0
ARC
  5
570D
330
5706
100
AcDbEntity
  8
F_01 sichtbar
100
AcDbCircle
 10
43.87580794467067
 20
27.62900033478218
 30
0.0
 40
2.540000000000208
100
AcDbArc
 50
348.6471612439746
 51
270.0
  0
ARC
  5
570E
330
5706
100
AcDbEntity
  8
F_01 sichtbar
100
AcDbCircle
 10
43.87580794467067
 20
27.62900033478218
 30
0.0
 40
1.000000000000333
100
AcDbArc
 50
329.9999999999376
 51
270.0
  0
LINE
  5
570F
330
5706
100
AcDbEntity
  8
F_01 sichtbar
100
AcDbLine
 10
44.74183334845292
 20
27.12900033478218
 30
0.0
 11
46.36610913128243
 21
27.12900033478218
 31
0.0
  0
ARC
  5
5710
330
5706
100
AcDbEntity
  8
F_01 sichtbar
100
AcDbCircle
 10
58.79580794468347
 20
27.62900033478218
 30
0.0
 40
2.540000000000208
100
AcDbArc
 50
270.0
 51
191.3528387560254
  0
ARC
  5
5711
330
5706
100
AcDbEntity
  8
F_01 sichtbar
100
AcDbCircle
 10
58.79580794468347
 20
27.62900033478218
 30
0.0
 40
1.000000000000333
100
AcDbArc
 50
270.0
 51
210.0000000000624
  0
LINE
  5
5712
330
5706
100
AcDbEntity
  8
F_01 sichtbar
100
AcDbLine
 10
57.92978254090122
 20
27.12900033478218
 30
0.0
 11
56.30550675808627
 21
27.12900033478218
 31
0.0
  0
LINE
  5
5713
330
5706
100
AcDbEntity
  8
F_02 unsichtbar
100
AcDbLine
 10
51.33881687288521
 20
26.62900033478218
 30
0.0
 11
51.33881687288521
 21
-137.3560237869387
 31
0.0
  0
LINE
  5
5714
330
5706
100
AcDbEntity
  8
F_01 sichtbar
100
AcDbLine
 10
48.33881687288521
 20
26.62900033478218
 30
0.0
 11
48.33881687288521
 21
29.12900033478218
 31
0.0
  0
LINE
  5
5715
330
5706
100
AcDbEntity
  8
F_01 sichtbar
100
AcDbLine
 10
48.33881687288521
 20
29.12900033478218
 30
0.0
 11
54.33881687288522
 21
29.12900033478218
 31
0.0
  0
LINE
  5
5716
330
5706
100
AcDbEntity
  8
F_01 sichtbar
100
AcDbLine
 10
54.33881687288522
 20
29.12900033478218
 30
0.0
 11
54.33881687288522
 21
26.62900033478218
 31
0.0
  0
LINE
  5
5717
330
5706
100
AcDbEntity
  8
F_01 sichtbar
100
AcDbLine
 10
53.33881687288521
 20
26.62900033478218
 30
0.0
 11
53.33881687288521
 21
29.12900033478218
 31
0.0
  0
LINE
  5
5718
330
5706
100
AcDbEntity
  8
F_01 sichtbar
100
AcDbLine
 10
49.33881687289977
 20
26.62900033478218
 30
0.0
 11
49.33881687289977
 21
29.12900033478218
 31
0.0
  0
ENDBLK
  5
5719
330
5706
100
AcDbEntity
  8
0
100
AcDbBlockEnd
  0
ENDSEC
  0
SECTION
  2
ENTITIES
  0
HATCH
  5
5800
330
67
100
AcDbEntity
  8
F_20 Schr-Metall hell
370
    13
100
AcDbHatch
 10
0.0
 20
0.0
 30
0.0
210
0.0
220
0.0
230
1.0
  2
SOLID
 70
     1
 71
     0
 91
        8
 92
       23
 72
     0
 73
     1
 93
        4
 10
679.947834256276
 20
334.6167378356022
 10
484.6054575296002
 20
334.6167378356058
 10
484.6054575296002
 20
331.6167378356058
 10
679.947834256276
 20
331.6167378356058
 97
        0
 92
       23
 72
     1
 73
     1
 93
        2
 10
484.6054575295966
 20
330.1167378356058
 42
1.0
 10
487.6054575295966
 20
330.1167378356058
 42
1.0
 97
        0
 92
       23
 72
     1
 73
     1
 93
        2
 10
519.6054575295966
 20
330.1167378356058
 42
1.0
 10
522.6054575295965
 20
330.1167378356058
 42
1.0
 97
        0
 92
       23
 72
     1
 73
     1
 93
        2
 10
557.6054575295966
 20
330.1167378356058
 42
1.0
 10
554.6054575295966
 20
330.1167378356058
 42
1.0
 97
        0
 92
       23
 72
     1
 73
     1
 93
        2
 10
589.6054575295965
 20
330.1167378356058
 42
1.0
 10
592.6054575295966
 20
330.1167378356058
 42
1.0
 97
        0
 92
       23
 72
     1
 73
     1
 93
        2
 10
624.6054575295966
 20
330.1167378356058
 42
1.0
 10
627.6054575295965
 20
330.1167378356058
 42
1.0
 97
        0
 92
       23
 72
     1
 73
     1
 93
        2
 10
659.6054575295966
 20
330.1167378356058
 42
1.0
 10
662.6054575295966
 20
330.1167378356058
 42
1.0
 97
        0
 92
        1
 93
        6
 72
     1
 10
483.6054575296039
 20
363.6167031464083
 11
463.6054575296038
 21
363.6167031464083
 72
     1
 10
463.6054575296038
 20
363.6167031464083
 11
463.6054575296038
 21
323.6167378356054
 72
     1
 10
463.6054575296038
 20
323.6167378356054
 11
679.947834256276
 21
323.6167378356058
 72
     1
 10
679.947834256276
 20
323.6167378356058
 11
679.947834256276
 21
328.6167378356058
 72
     1
 10
679.947834256276
 20
328.6167378356058
 11
483.6054575296039
 21
328.6167378356058
 72
     1
 10
483.6054575296039
 20
328.6167378356058
 11
483.6054575296039
 21
363.6167031464083
 97
        0
 75
     0
 76
     1
 47
0.0862750395953369
 98
        9
 10
496.806661834762
 20
332.5755330522461
 10
486.7933148217816
 20
330.1598621802641
 10
521.7529173772163
 20
330.1598621802641
 10
556.5400583339469
 20
329.7284312378561
 10
591.712657257969
 20
330.078475024473
 10
626.3270848471984
 20
330.5961658164688
 10
661.0588366772827
 20
330.0855865235153
 10
465.2195669107095
 20
358.5199333742548
 10
465.0897968525023
 20
351.6456821254887
450
        0
451
        0
460
0.0
461
0.0
452
        1
462
1.0
453
        2
463
0.0
 63
     5
421
      255
463
1.0
 63
     7
421
 16777215
470
LINEAR
1001
ACAD
1010
0.0
1020
0.0
1030
0.0
  0
HATCH
  5
5801
330
67
100
AcDbEntity
  8
F_15 Schr-Mauer hell
370
    13
100
AcDbHatch
 10
0.0
 20
0.0
 30
0.0
210
0.0
220
0.0
230
1.0
  2
SOLID
 70
     1
 71
     0
 91
        1
 92
        1
 93
        4
 72
     1
 10
279.1618370498654
 20
521.6167033566589
 11
279.1618370498636
 21
341.616703356659
 72
     1
 10
279.1618370498636
 20
341.616703356659
 11
443.6054896136993
 21
341.616703356659
 72
     1
 10
443.6054896136993
 20
341.616703356659
 11
443.6054896136993
 21
521.6167033566589
 72
     1
 10
443.6054896136993
 20
521.6167033566589
 11
279.1618370498654
 21
521.6167033566589
 97
        0
 75
     0
 76
     1
 98
        1
 10
230.0164951749466
 20
483.2052045167428
450
        0
451
        0
460
0.0
461
0.0
452
        1
462
1.0
453
        2
463
0.0
 63
     5
421
      255
463
1.0
 63
     7
421
 16777215
470
LINEAR
1001
ACAD
1010
0.0
1020
0.0
1030
0.0
  0
POLYLINE
  5
5802
330
67
100
AcDbEntity
  8
F_01 sichtbar
370
    13
100
AcDb2dPolyline
 66
     1
 10
0.0
 20
0.0
 30
0.0
  0
VERTEX
  5
5803
330
5802
100
AcDbEntity
  8
F_01 sichtbar
370
    13
100
AcDbVertex
100
AcDb2dVertex
 10
279.1618370498618
 20
341.616703356659
 30
0.0
  0
VERTEX
  5
5804
330
5802
100
AcDbEntity
  8
F_01 sichtbar
370
    13
100
AcDbVertex
100
AcDb2dVertex
 10
443.6054896136993
 20
341.616703356659
 30
0.0
  0
SEQEND
  5
5805
330
5802
100
AcDbEntity
  8
F_01 sichtbar
370
    13
  0
POLYLINE
  5
5806
330
67
100
AcDbEntity
  8
F_01 sichtbar
370
    13
100
AcDb2dPolyline
 66
     1
 10
0.0
 20
0.0
 30
0.0
  0
VERTEX
  5
5807
330
5806
100
AcDbEntity
  8
F_01 sichtbar
370
    13
100
AcDbVertex
100
AcDb2dVertex
 10
279.1618370498618
 20
521.6167033566589
 30
0.0
  0
VERTEX
  5
5808
330
5806
100
AcDbEntity
  8
F_01 sichtbar
370
    13
100
AcDbVertex
100
AcDb2dVertex
 10
443.6054896136993
 20
521.6167033566589
 30
0.0
  0
SEQEND
  5
5809
330
5806
100
AcDbEntity
  8
F_01 sichtbar
370
    13
  0
POLYLINE
  5
580A
330
67
100
AcDbEntity
  8
F_01 sichtbar
370
    13
100
AcDb2dPolyline
 66
     1
 10
0.0
 20
0.0
 30
0.0
  0
VERTEX
  5
580B
330
580A
100
AcDbEntity
  8
F_01 sichtbar
370
    13
100
AcDbVertex
100
AcDb2dVertex
 10
279.1618370498618
 20
558.6167033566589
 30
0.0
  0
VERTEX
  5
580C
330
580A
100
AcDbEntity
  8
F_01 sichtbar
370
    13
100
AcDbVertex
100
AcDb2dVertex
 10
443.6054896136847
 20
558.6167033566589
 30
0.0
  0
SEQEND
  5
580D
330
580A
100
AcDbEntity
  8
F_01 sichtbar
370
    13
  0
POLYLINE
  5
580E
330
67
100
AcDbEntity
  8
F_01 sichtbar
370
    13
100
AcDb2dPolyline
 66
     1
 10
0.0
 20
0.0
 30
0.0
  0
VERTEX
  5
580F
330
580E
100
AcDbEntity
  8
F_01 sichtbar
370
    13
100
AcDbVertex
100
AcDb2dVertex
 10
279.1618370498618
 20
563.6167033566589
 30
0.0
  0
VERTEX
  5
5810
330
580E
100
AcDbEntity
  8
F_01 sichtbar
370
    13
100
AcDbVertex
100
AcDb2dVertex
 10
445.2279886128999
 20
563.6167033566589
 30
0.0
  0
SEQEND
  5
5811
330
580E
100
AcDbEntity
  8
F_01 sichtbar
370
    13
  0
POLYLINE
  5
5812
330
67
100
AcDbEntity
  8
F_01 sichtbar
370
    13
100
AcDb2dPolyline
 66
     1
 10
0.0
 20
0.0
 30
0.0
  0
VERTEX
  5
5813
330
5812
100
AcDbEntity
  8
F_01 sichtbar
370
    13
100
AcDbVertex
100
AcDb2dVertex
 10
279.1618370498618
 20
683.6167033566589
 30
0.0
  0
VERTEX
  5
5814
330
5812
100
AcDbEntity
  8
F_01 sichtbar
370
    13
100
AcDbVertex
100
AcDb2dVertex
 10
446.1054896136992
 20
683.6167033566589
 30
0.0
  0
SEQEND
  5
5815
330
5812
100
AcDbEntity
  8
F_01 sichtbar
370
    13
  0
POLYLINE
  5
5816
330
67
100
AcDbEntity
  8
F_01 sichtbar
370
    13
100
AcDb2dPolyline
 66
     1
 10
0.0
 20
0.0
 30
0.0
  0
VERTEX
  5
5817
330
5816
100
AcDbEntity
  8
F_01 sichtbar
370
    13
100
AcDbVertex
100
AcDb2dVertex
 10
279.1618370498618
 20
685.6167033566589
 30
0.0
  0
VERTEX
  5
5818
330
5816
100
AcDbEntity
  8
F_01 sichtbar
370
    13
100
AcDbVertex
100
AcDb2dVertex
 10
392.6054896136993
 20
685.6167033566589
 30
0.0
  0
SEQEND
  5
5819
330
5816
100
AcDbEntity
  8
F_01 sichtbar
370
    13
  0
POLYLINE
  5
581A
330
67
100
AcDbEntity
  8
F_01 sichtbar
370
    13
100
AcDb2dPolyline
 66
     1
 10
0.0
 20
0.0
 30
0.0
  0
VERTEX
  5
581B
330
581A
100
AcDbEntity
  8
F_01 sichtbar
370
    13
100
AcDbVertex
100
AcDb2dVertex
 10
443.6054896136993
 20
558.6167033566589
 30
0.0
  0
VERTEX
  5
581C
330
581A
100
AcDbEntity
  8
F_01 sichtbar
370
    13
100
AcDbVertex
100
AcDb2dVertex
 10
443.6054896136993
 20
341.616703356659
 30
0.0
  0
SEQEND
  5
581D
330
581A
100
AcDbEntity
  8
F_01 sichtbar
370
    13
  0
HATCH
  5
581E
330
67
100
AcDbEntity
  8
F_0 sichtbar
370
    13
100
AcDbHatch
 10
0.0
 20
0.0
 30
0.0
210
0.0
220
0.0
230
1.0
  2
SOLID
 70
     1
 71
     0
 91
        1
 92
        1
 93
        4
 72
     1
 10
448.6054896136993
 20
826.3713019455435
 11
446.1054896136992
 21
825.6305358861327
 72
     1
 10
446.1054896136992
 20
825.6305358861327
 11
446.1054896136992
 21
790.3449448148558
 72
     1
 10
446.1054896136992
 20
790.3449448148558
 11
448.6054896136993
 21
790.3449448148558
 72
     1
 10
448.6054896136993
 20
790.3449448148558
 11
448.6054896136993
 21
826.3713019455435
 97
        0
 75
     0
 76
     1
 98
        1
 10
447.3582247593221
 20
833.01601408017
450
        0
451
        0
460
0.0
461
0.0
452
        1
462
1.0
453
        2
463
0.0
 63
     5
421
      255
463
1.0
 63
     7
421
 16777215
470
LINEAR
1001
ACAD
1010
0.0
1020
0.0
1030
0.0
  0
HATCH
  5
581F
330
67
100
AcDbEntity
  8
F_0 sichtbar
370
    13
100
AcDbHatch
 10
0.0
 20
0.0
 30
0.0
210
0.0
220
0.0
230
1.0
  2
SOLID
 70
     1
 71
     0
 91
        1
 92
        7
 72
     0
 73
     1
 93
        4
 10
426.5450302935423
 20
562.1167033566589
 10
376.5450302935424
 20
562.1167033566589
 10
376.5450302935424
 20
559.6167033566589
 10
426.5450302935423
 20
559.6167033566589
 97
        0
 75
     0
 76
     1
 47
0.0847078829277023
 98
        1
 10
404.3748819772663
 20
560.8162946539078
450
        0
451
        0
460
0.0
461
0.0
452
        1
462
1.0
453
        2
463
0.0
 63
     5
421
      255
463
1.0
 63
     7
421
 16777215
470
LINEAR
1001
ACAD
1010
0.0
1020
0.0
1030
0.0
  0
HATCH
  5
5820
330
67
100
AcDbEntity
  8
F_0 sichtbar
370
    13
100
AcDbHatch
 10
0.0
 20
0.0
 30
0.0
210
0.0
220
0.0
230
1.0
  2
SOLID
 70
     1
 71
     0
 91
        3
 92
        7
 72
     0
 73
     1
 93
        4
 10
448.6054896136993
 20
631.3449448146557
 10
446.1054896136992
 20
631.3449448146557
 10
446.1054896136992
 20
581.3449448146557
 10
448.6054896136993
 20
581.3449448146557
 97
        0
 92
        7
 72
     0
 73
     1
 93
        4
 10
448.6054896136993
 20
731.3449448146557
 10
446.1054896136992
 20
731.3449448146557
 10
446.1054896136992
 20
681.3449448146557
 10
448.6054896136993
 20
681.3449448146557
 97
        0
 92
        1
 93
        4
 72
     1
 10
279.16183704986
 20
562.1167033566589
 11
279.16183704986
 21
559.6167033566589
 72
     1
 10
279.16183704986
 20
559.6167033566589
 11
326.5450302935424
 21
559.6167033566589
 72
     1
 10
326.5450302935424
 20
559.6167033566589
 11
326.5450302935424
 21
562.1167033566589
 72
     1
 10
326.5450302935424
 20
562.1167033566589
 11
279.16183704986
 21
562.1167033566589
 97
        0
 75
     0
 76
     1
 47
0.0973900822863746
 98
        6
 10
115.8489310702825
 20
560.4830890614384
 10
306.6961930011821
 20
561.0569580606671
 10
215.9102969472369
 20
560.2989150225903
 10
447.4922363139557
 20
591.0818899955329
 10
447.6690203811377
 20
687.2416411478907
 10
447.5002214147607
 20
787.9727896082759
450
        0
451
        0
460
0.0
461
0.0
452
        1
462
1.0
453
        2
463
0.0
 63
     5
421
      255
463
1.0
 63
     7
421
 16777215
470
LINEAR
1001
ACAD
1010
0.0
1020
0.0
1030
0.0
  0
POLYLINE
  5
5821
330
67
100
AcDbEntity
  8
F_01 sichtbar
370
    13
100
AcDb2dPolyline
 66
     1
 10
0.0
 20
0.0
 30
0.0
  0
VERTEX
  5
5822
330
5821
100
AcDbEntity
  8
F_01 sichtbar
370
    13
100
AcDbVertex
100
AcDb2dVertex
 10
398.6054896137139
 20
811.5559807573436
 30
0.0
  0
VERTEX
  5
5823
330
5821
100
AcDbEntity
  8
F_01 sichtbar
370
    13
100
AcDbVertex
100
AcDb2dVertex
 10
398.6054896137139
 20
683.6167033566589
 30
0.0
  0
SEQEND
  5
5824
330
5821
100
AcDbEntity
  8
F_01 sichtbar
370
    13
  0
POLYLINE
  5
5825
330
67
100
AcDbEntity
  8
F_01 sichtbar
370
    13
100
AcDb2dPolyline
 66
     1
 10
0.0
 20
0.0
 30
0.0
  0
VERTEX
  5
5826
330
5825
100
AcDbEntity
  8
F_01 sichtbar
370
    13
100
AcDbVertex
100
AcDb2dVertex
 10
349.4950293862857
 20
685.6167033566589
 30
0.0
  0
VERTEX
  5
5827
330
5825
100
AcDbEntity
  8
F_01 sichtbar
370
    13
100
AcDbVertex
100
AcDb2dVertex
 10
381.4950293862858
 20
685.6167033566589
 30
0.0
  0
SEQEND
  5
5828
330
5825
100
AcDbEntity
  8
F_01 sichtbar
370
    13
  0
POLYLINE
  5
5829
330
67
100
AcDbEntity
  8
F_01 sichtbar
370
    13
100
AcDb2dPolyline
 66
     1
 10
0.0
 20
0.0
 30
0.0
  0
VERTEX
  5
582A
330
5829
100
AcDbEntity
  8
F_01 sichtbar
370
    13
100
AcDbVertex
100
AcDb2dVertex
 10
392.6054896136993
 20
685.6167033566589
 30
0.0
  0
VERTEX
  5
582B
330
5829
100
AcDbEntity
  8
F_01 sichtbar
370
    13
100
AcDbVertex
100
AcDb2dVertex
 10
392.6054896137139
 20
683.6167033566589
 30
0.0
  0
SEQEND
  5
582C
330
5829
100
AcDbEntity
  8
F_01 sichtbar
370
    13
  0
LINE
  5
582D
330
67
100
AcDbEntity
  8
F_01 sichtbar
370
    13
100
AcDbLine
 10
279.1618370498618
 20
705.6167033566589
 30
0.0
 11
371.6054896137139
 21
705.6167033566589
 31
0.0
  0
LINE
  5
582E
330
67
100
AcDbEntity
  8
F_01 sichtbar
370
    13
100
AcDbLine
 10
279.1618370498618
 20
750.6167033566598
 30
0.0
 11
371.6054896137139
 21
750.6167033566589
 31
0.0
  0
LINE
  5
582F
330
67
100
AcDbEntity
  8
F_01 sichtbar
370
    13
100
AcDbLine
 10
371.6054896137139
 20
705.6167033566589
 30
0.0
 11
371.6054896136993
 21
750.6167033566444
 31
0.0
  0
INSERT
  5
5830
330
67
100
AcDbEntity
  8
F_30 Bemassung T
370
    13
100
AcDbBlockReference
  2
A$C512D72A2
 10
324.7652986738613
 20
661.0305088319719
 30
0.0
  0
POLYLINE
  5
5831
330
67
100
AcDbEntity
  8
F_01 sichtbar
370
    13
100
AcDb2dPolyline
 66
     1
 10
0.0
 20
0.0
 30
0.0
  0
VERTEX
  5
5832
330
5831
100
AcDbEntity
  8
F_01 sichtbar
370
    13
100
AcDbVertex
100
AcDb2dVertex
 10
391.6054896136411
 20
809.4818357909744
 30
0.0
  0
VERTEX
  5
5833
330
5831
100
AcDbEntity
  8
F_01 sichtbar
370
    13
100
AcDbVertex
100
AcDb2dVertex
 10
391.6054896135829
 20
696.1966346240797
 30
0.0
  0
SEQEND
  5
5834
330
5831
100
AcDbEntity
  8
F_01 sichtbar
370
    13
  0
POLYLINE
  5
5835
330
67
100
AcDbEntity
  8
F_01 sichtbar
370
    13
100
AcDb2dPolyline
 66
     1
 10
0.0
 20
0.0
 30
0.0
  0
VERTEX
  5
5836
330
5835
100
AcDbEntity
  8
F_01 sichtbar
370
    13
100
AcDbVertex
100
AcDb2dVertex
 10
391.6054896137138
 20
696.1966573631935
 30
0.0
 42
-0.4142135623730951
  0
VERTEX
  5
5837
330
5835
100
AcDbEntity
  8
F_01 sichtbar
370
    13
100
AcDbVertex
100
AcDb2dVertex
 10
389.6054896137139
 20
694.1966573631934
 30
0.0
  0
VERTEX
  5
5838
330
5835
100
AcDbEntity
  8
F_01 sichtbar
370
    13
100
AcDbVertex
100
AcDb2dVertex
 10
368.8189478542263
 20
694.1966573631934
 30
0.0
 42
0.1539147210588876
  0
VERTEX
  5
5839
330
5835
100
AcDbEntity
  8
F_01 sichtbar
370
    13
100
AcDbVertex
100
AcDb2dVertex
 10
361.9360306180533
 20
692.026481894688
 30
0.0
  0
VERTEX
  5
583A
330
5835
100
AcDbEntity
  8
F_01 sichtbar
370
    13
100
AcDbVertex
100
AcDb2dVertex
 10
358.9350646668681
 20
689.9251829137638
 30
0.0
 42
-0.1539147210588876
  0
VERTEX
  5
583B
330
5835
100
AcDbEntity
  8
F_01 sichtbar
370
    13
100
AcDbVertex
100
AcDb2dVertex
 10
353.199300303364
 20
688.1167033566589
 30
0.0
  0
VERTEX
  5
583C
330
5835
100
AcDbEntity
  8
F_01 sichtbar
370
    13
100
AcDbVertex
100
AcDb2dVertex
 10
310.4111965104603
 20
688.1167033566589
 30
0.0
  0
VERTEX
  5
583D
330
5835
100
AcDbEntity
  8
F_01 sichtbar
370
    13
100
AcDbVertex
100
AcDb2dVertex
 10
310.4111965104603
 20
686.1167033566589
 30
0.0
  0
VERTEX
  5
583E
330
5835
100
AcDbEntity
  8
F_01 sichtbar
370
    13
100
AcDbVertex
100
AcDb2dVertex
 10
353.199300303364
 20
686.1167033566589
 30
0.0
 42
0.1539147210588876
  0
VERTEX
  5
583F
330
5835
100
AcDbEntity
  8
F_01 sichtbar
370
    13
100
AcDbVertex
100
AcDb2dVertex
 10
360.0822175395806
 20
688.2868788251935
 30
0.0
  0
VERTEX
  5
5840
330
5835
100
AcDbEntity
  8
F_01 sichtbar
370
    13
100
AcDbVertex
100
AcDb2dVertex
 10
363.0831834907513
 20
690.3881778061031
 30
0.0
 42
-0.1539147210588876
  0
VERTEX
  5
5841
330
5835
100
AcDbEntity
  8
F_01 sichtbar
370
    13
100
AcDbVertex
100
AcDb2dVertex
 10
368.8189478542263
 20
692.1966573631935
 30
0.0
  0
VERTEX
  5
5842
330
5835
100
AcDbEntity
  8
F_01 sichtbar
370
    13
100
AcDbVertex
100
AcDb2dVertex
 10
389.6054896137139
 20
692.1966573631935
 30
0.0
 42
0.4142135623730951
  0
VERTEX
  5
5843
330
5835
100
AcDbEntity
  8
F_01 sichtbar
370
    13
100
AcDbVertex
100
AcDb2dVertex
 10
393.6054896137139
 20
696.1966573631935
 30
0.0
  0
VERTEX
  5
5844
330
5835
100
AcDbEntity
  8
F_01 sichtbar
370
    13
100
AcDbVertex
100
AcDb2dVertex
 10
393.6054896137066
 20
810.074448638522
 30
0.0
  0
SEQEND
  5
5845
330
5835
100
AcDbEntity
  8
F_01 sichtbar
370
    13
  0
POLYLINE
  5
5846
330
67
100
AcDbEntity
  8
F_0 sichtbar
370
    13
100
AcDb2dPolyline
 66
     1
 10
0.0
 20
0.0
 30
0.0
  0
VERTEX
  5
5847
330
5846
100
AcDbEntity
  8
F_0 sichtbar
370
    13
100
AcDbVertex
100
AcDb2dVertex
 10
326.5450302935424
 20
562.1167033566589
 30
0.0
  0
VERTEX
  5
5848
330
5846
100
AcDbEntity
  8
F_0 sichtbar
370
    13
100
AcDbVertex
100
AcDb2dVertex
 10
326.5450302935424
 20
559.6167033566589
 30
0.0
  0
SEQEND
  5
5849
330
5846
100
AcDbEntity
  8
F_0 sichtbar
370
    13
  0
POLYLINE
  5
584A
330
67
100
AcDbEntity
  8
F_0 sichtbar
370
    13
100
AcDb2dPolyline
 66
     1
 10
0.0
 20
0.0
 30
0.0
  0
VERTEX
  5
584B
330
584A
100
AcDbEntity
  8
F_0 sichtbar
370
    13
100
AcDbVertex
100
AcDb2dVertex
 10
376.5450302935424
 20
562.1167033566589
 30
0.0
  0
VERTEX
  5
584C
330
584A
100
AcDbEntity
  8
F_0 sichtbar
370
    13
100
AcDbVertex
100
AcDb2dVertex
 10
376.5450302935424
 20
559.6167033566589
 30
0.0
  0
SEQEND
  5
584D
330
584A
100
AcDbEntity
  8
F_0 sichtbar
370
    13
  0
POLYLINE
  5
584E
330
67
100
AcDbEntity
  8
F_0 sichtbar
370
    13
100
AcDb2dPolyline
 66
     1
 10
0.0
 20
0.0
 30
0.0
  0
VERTEX
  5
584F
330
584E
100
AcDbEntity
  8
F_0 sichtbar
370
    13
100
AcDbVertex
100
AcDb2dVertex
 10
426.5450302935423
 20
562.1167033566589
 30
0.0
  0
VERTEX
  5
5850
330
584E
100
AcDbEntity
  8
F_0 sichtbar
370
    13
100
AcDbVertex
100
AcDb2dVertex
 10
426.5450302935423
 20
559.6167033566589
 30
0.0
  0
SEQEND
  5
5851
330
584E
100
AcDbEntity
  8
F_0 sichtbar
370
    13
  0
POLYLINE
  5
5852
330
67
100
AcDbEntity
  8
F_0 sichtbar
370
    13
100
AcDb2dPolyline
 66
     1
 10
0.0
 20
0.0
 30
0.0
  0
VERTEX
  5
5853
330
5852
100
AcDbEntity
  8
F_0 sichtbar
370
    13
100
AcDbVertex
100
AcDb2dVertex
 10
448.6054896136993
 20
581.3449448146557
 30
0.0
  0
VERTEX
  5
5854
330
5852
100
AcDbEntity
  8
F_0 sichtbar
370
    13
100
AcDbVertex
100
AcDb2dVertex
 10
446.1054896136992
 20
581.3449448146557
 30
0.0
  0
SEQEND
  5
5855
330
5852
100
AcDbEntity
  8
F_0 sichtbar
370
    13
  0
POLYLINE
  5
5856
330
67
100
AcDbEntity
  8
F_0 sichtbar
370
    13
100
AcDb2dPolyline
 66
     1
 10
0.0
 20
0.0
 30
0.0
  0
VERTEX
  5
5857
330
5856
100
AcDbEntity
  8
F_0 sichtbar
370
    13
100
AcDbVertex
100
AcDb2dVertex
 10
448.6054896136993
 20
631.3449448146557
 30
0.0
  0
VERTEX
  5
5858
330
5856
100
AcDbEntity
  8
F_0 sichtbar
370
    13
100
AcDbVertex
100
AcDb2dVertex
 10
446.1054896136992
 20
631.3449448146557
 30
0.0
  0
SEQEND
  5
5859
330
5856
100
AcDbEntity
  8
F_0 sichtbar
370
    13
  0
POLYLINE
  5
585A
330
67
100
AcDbEntity
  8
F_0 sichtbar
370
    13
100
AcDb2dPolyline
 66
     1
 10
0.0
 20
0.0
 30
0.0
  0
VERTEX
  5
585B
330
585A
100
AcDbEntity
  8
F_0 sichtbar
370
    13
100
AcDbVertex
100
AcDb2dVertex
 10
448.6054896136993
 20
681.3449448146557
 30
0.0
  0
VERTEX
  5
585C
330
585A
100
AcDbEntity
  8
F_0 sichtbar
370
    13
100
AcDbVertex
100
AcDb2dVertex
 10
446.1054896136992
 20
681.3449448146557
 30
0.0
  0
SEQEND
  5
585D
330
585A
100
AcDbEntity
  8
F_0 sichtbar
370
    13
  0
POLYLINE
  5
585E
330
67
100
AcDbEntity
  8
F_0 sichtbar
370
    13
100
AcDb2dPolyline
 66
     1
 10
0.0
 20
0.0
 30
0.0
  0
VERTEX
  5
585F
330
585E
100
AcDbEntity
  8
F_0 sichtbar
370
    13
100
AcDbVertex
100
AcDb2dVertex
 10
448.6054896136993
 20
731.3449448146557
 30
0.0
  0
VERTEX
  5
5860
330
585E
100
AcDbEntity
  8
F_0 sichtbar
370
    13
100
AcDbVertex
100
AcDb2dVertex
 10
446.1054896136992
 20
731.3449448146557
 30
0.0
  0
SEQEND
  5
5861
330
585E
100
AcDbEntity
  8
F_0 sichtbar
370
    13
  0
POLYLINE
  5
5862
330
67
100
AcDbEntity
  8
F_0 sichtbar
370
    13
100
AcDb2dPolyline
 66
     1
 10
0.0
 20
0.0
 30
0.0
  0
VERTEX
  5
5863
330
5862
100
AcDbEntity
  8
F_0 sichtbar
370
    13
100
AcDbVertex
100
AcDb2dVertex
 10
448.6054896136993
 20
781.3449448146557
 30
0.0
  0
VERTEX
  5
5864
330
5862
100
AcDbEntity
  8
F_0 sichtbar
370
    13
100
AcDbVertex
100
AcDb2dVertex
 10
446.1054896136992
 20
781.3449448146557
 30
0.0
  0
SEQEND
  5
5865
330
5862
100
AcDbEntity
  8
F_0 sichtbar
370
    13
  0
POLYLINE
  5
5866
330
67
100
AcDbEntity
  8
F_06 Wangen
370
    13
100
AcDb2dPolyline
 66
     1
 10
0.0
 20
0.0
 30
0.0
  0
VERTEX
  5
5867
330
5866
100
AcDbEntity
  8
F_06 Wangen
370
    13
100
AcDbVertex
100
AcDb2dVertex
 10
377.6057516417495
 20
805.3336234988892
 30
0.0
  0
VERTEX
  5
5868
330
5866
100
AcDbEntity
  8
F_06 Wangen
370
    13
100
AcDbVertex
100
AcDb2dVertex
 10
377.6057516417568
 20
718.6167033566589
 30
0.0
  0
VERTEX
  5
5869
330
5866
100
AcDbEntity
  8
F_06 Wangen
370
    13
100
AcDbVertex
100
AcDb2dVertex
 10
378.6057516417568
 20
718.6167033566589
 30
0.0
  0
VERTEX
  5
586A
330
5866
100
AcDbEntity
  8
F_06 Wangen
370
    13
100
AcDbVertex
100
AcDb2dVertex
 10
378.6057516417568
 20
805.6299299226557
 30
0.0
  0
SEQEND
  5
586B
330
5866
100
AcDbEntity
  8
F_06 Wangen
370
    13
  0
POLYLINE
  5
586C
330
67
100
AcDbEntity
  8
F_01 sichtbar
370
    13
100
AcDb2dPolyline
 66
     1
 10
0.0
 20
0.0
 30
0.0
  0
VERTEX
  5
586D
330
586C
100
AcDbEntity
  8
F_01 sichtbar
370
    13
100
AcDbVertex
100
AcDb2dVertex
 10
448.6054896136993
 20
826.3713019455417
 30
0.0
  0
VERTEX
  5
586E
330
586C
100
AcDbEntity
  8
F_01 sichtbar
370
    13
100
AcDbVertex
100
AcDb2dVertex
 10
448.6054896136993
 20
567.6167033566589
 30
0.0
 42
-0.487470807496992
  0
VERTEX
  5
586F
330
586C
100
AcDbEntity
  8
F_01 sichtbar
370
    13
100
AcDbVertex
100
AcDb2dVertex
 10
440.6054896136993
 20
559.6167033566589
 30
0.0
  0
VERTEX
  5
5870
330
586C
100
AcDbEntity
  8
F_01 sichtbar
370
    13
100
AcDbVertex
100
AcDb2dVertex
 10
279.1618370498618
 20
559.6167033566589
 30
0.0
  0
SEQEND
  5
5871
330
586C
100
AcDbEntity
  8
F_01 sichtbar
370
    13
  0
POLYLINE
  5
5872
330
67
100
AcDbEntity
  8
F_01 sichtbar
370
    13
100
AcDb2dPolyline
 66
     1
 10
0.0
 20
0.0
 30
0.0
  0
VERTEX
  5
5873
330
5872
100
AcDbEntity
  8
F_01 sichtbar
370
    13
100
AcDbVertex
100
AcDb2dVertex
 10
279.1618370498618
 20
562.1167033566589
 30
0.0
  0
VERTEX
  5
5874
330
5872
100
AcDbEntity
  8
F_01 sichtbar
370
    13
100
AcDbVertex
100
AcDb2dVertex
 10
442.1054896136992
 20
562.1167033566589
 30
0.0
 42
0.4142135623730951
  0
VERTEX
  5
5875
330
5872
100
AcDbEntity
  8
F_01 sichtbar
370
    13
100
AcDbVertex
100
AcDb2dVertex
 10
446.1054896136992
 20
566.1167033566589
 30
0.0
  0
VERTEX
  5
5876
330
5872
100
AcDbEntity
  8
F_01 sichtbar
370
    13
100
AcDbVertex
100
AcDb2dVertex
 10
446.1054896136992
 20
825.6305358861318
 30
0.0
  0
SEQEND
  5
5877
330
5872
100
AcDbEntity
  8
F_01 sichtbar
370
    13
  0
HATCH
  5
5878
330
67
100
AcDbEntity
  8
F_01 sichtbar
370
    13
100
AcDbHatch
 10
0.0
 20
0.0
 30
0.0
210
0.0
220
0.0
230
1.0
  2
BATT_INSULATION
 70
     0
 71
     0
 91
        1
 92
        1
 93
        4
 72
     1
 10
279.1618370498618
 20
683.6167033566589
 11
279.1618370498618
 21
563.616703356658
 72
     1
 10
279.1618370498618
 20
563.616703356658
 11
445.2279886128962
 21
563.6167033566589
 72
     1
 10
445.2279886128962
 20
563.6167033566589
 11
446.1054896136992
 21
683.6167033566589
 72
     1
 10
446.1054896136992
 20
683.6167033566589
 11
279.1618370498618
 21
683.6167033566589
 97
        0
 75
     0
 76
     2
 52
180.0
 41
118.9901048226843
 77
     0
 78
   528
 53
0.000000000000007
 43
42972.62088853109
 44
5249.692173803635
 45
39.75590291241188
 46
-133.8638679255199
 79
     2
 49
0.0
 49
-39.75590291241187
 53
345.9236
 43
42952.74287757981
 44
5234.818410700794
 45
39.75585659359874
 46
0.000014687406605
 79
     2
 49
9.670087838729861
 49
-3843.073153322027
 53
345.9236
 43
42952.74287757981
 44
5100.954542775259
 45
39.75585659359874
 46
0.000014687406605
 79
     2
 49
9.670087838729861
 49
-3843.073153322027
 53
345.9236
 43
42952.74287757981
 44
4967.090674849753
 45
39.75585659359874
 46
0.000014687406605
 79
     2
 49
9.670087838729861
 49
-3843.073153322027
 53
345.9236
 43
42952.74287757981
 44
4833.226806924219
 45
39.75585659359874
 46
0.000014687406605
 79
     2
 49
9.670087838729861
 49
-3843.073153322027
 53
345.9236
 43
42952.74287757981
 44
4699.362938998709
 45
39.75585659359874
 46
0.000014687406605
 79
     2
 49
9.670087838729861
 49
-3843.073153322027
 53
345.9236
 43
42952.74287757981
 44
4565.499071073204
 45
39.75585659359874
 46
0.000014687406605
 79
     2
 49
9.670087838729861
 49
-3843.073153322027
 53
345.9236
 43
42952.74287757981
 44
4431.63520314767
 45
39.75585659359874
 46
0.000014687406605
 79
     2
 49
9.670087838729861
 49
-3843.073153322027
 53
334.9544
 43
42957.37361548919
 44
5122.952243453852
 45
39.75589259645271
 46
-0.0000425502174256
 79
     2
 49
16.82972244591056
 49
-10734.28048182553
 53
334.9544
 43
42957.37361548919
 44
4989.088375528317
 45
39.75589259645271
 46
-0.0000425502174256
 79
     2
 49
16.82972244591056
 49
-10734.28048182553
 53
334.9544
 43
42957.37361548919
 44
4855.224507602808
 45
39.75589259645271
 46
-0.0000425502174256
 79
     2
 49
16.82972244591056
 49
-10734.28048182553
 53
334.9544
 43
42957.37361548919
 44
4721.360639677273
 45
39.75589259645271
 46
-0.0000425502174256
 79
     2
 49
16.82972244591056
 49
-10734.28048182553
 53
334.9544
 43
42957.37361548919
 44
4587.496771751768
 45
39.75589259645271
 46
-0.0000425502174256
 79
     2
 49
16.82972244591056
 49
-10734.28048182553
 53
334.9544
 43
42957.37361548919
 44
4453.632903826233
 45
39.75589259645271
 46
-0.0000425502174256
 79
     2
 49
16.82972244591056
 49
-10734.28048182553
 53
334.9544
 43
42957.37361548919
 44
4319.769035900727
 45
39.75589259645271
 46
-0.0000425502174256
 79
     2
 49
16.82972244591056
 49
-10734.28048182553
 53
334.9544
 43
42957.37361548919
 44
4185.905167975192
 45
39.75589259645271
 46
-0.0000425502174256
 79
     2
 49
16.82972244591056
 49
-10734.28048182553
 53
334.9544
 43
42957.37361548919
 44
4052.044869752836
 45
39.75589259645271
 46
-0.0000425502174256
 79
     2
 49
16.82972244591056
 49
-10734.28048182553
 53
334.9544
 43
42957.37361548919
 44
3918.181001827302
 45
39.75589259645271
 46
-0.0000425502174256
 79
     2
 49
16.82972244591056
 49
-10734.28048182553
 53
334.9544
 43
42957.37361548919
 44
3784.317133901771
 45
39.75589259645271
 46
-0.0000425502174256
 79
     2
 49
16.82972244591056
 49
-10734.28048182553
 53
334.9544
 43
42957.37361548919
 44
3650.453265976262
 45
39.75589259645271
 46
-0.0000425502174256
 79
     2
 49
16.82972244591056
 49
-10734.28048182553
 53
334.9544
 43
42957.37361548919
 44
3516.589398050753
 45
39.75589259645271
 46
-0.0000425502174256
 79
     2
 49
16.82972244591056
 49
-10734.28048182553
 53
334.9544
 43
42957.37361548919
 44
3382.725530125247
 45
39.75589259645271
 46
-0.0000425502174256
 79
     2
 49
16.82972244591056
 49
-10734.28048182553
 53
334.9544
 43
42957.37361548919
 44
3248.861662199713
 45
39.75589259645271
 46
-0.0000425502174256
 79
     2
 49
16.82972244591056
 49
-10734.28048182553
 53
334.9544
 43
42957.37361548919
 44
3114.997794274178
 45
39.75589259645271
 46
-0.0000425502174256
 79
     2
 49
16.82972244591056
 49
-10734.28048182553
 53
334.9544
 43
42957.37361548919
 44
2981.133926348673
 45
39.75589259645271
 46
-0.0000425502174256
 79
     2
 49
16.82972244591056
 49
-10734.28048182553
 53
334.9544
 43
42957.37361548919
 44
2847.270058423167
 45
39.75589259645271
 46
-0.0000425502174256
 79
     2
 49
16.82972244591056
 49
-10734.28048182553
 53
334.9544
 43
42957.37361548919
 44
2713.406190497633
 45
39.75589259645271
 46
-0.0000425502174256
 79
     2
 49
16.82972244591056
 49
-10734.28048182553
 53
334.9544
 43
42957.37361548919
 44
2579.542322572098
 45
39.75589259645271
 46
-0.0000425502174256
 79
     2
 49
16.82972244591056
 49
-10734.28048182553
 53
334.9544
 43
42957.37361548919
 44
2445.678454646589
 45
39.75589259645271
 46
-0.0000425502174256
 79
     2
 49
16.82972244591056
 49
-10734.28048182553
 53
334.9544
 43
42957.37361548919
 44
2311.814586721084
 45
39.75589259645271
 46
-0.0000425502174256
 79
     2
 49
16.82972244591056
 49
-10734.28048182553
 53
334.9544
 43
42957.37361548919
 44
2177.950718795549
 45
39.75589259645271
 46
-0.0000425502174256
 79
     2
 49
16.82972244591056
 49
-10734.28048182553
 53
334.9544
 43
42957.37361548919
 44
2044.086850870014
 45
39.75589259645271
 46
-0.0000425502174256
 79
     2
 49
16.82972244591056
 49
-10734.28048182553
 53
334.9544
 43
42957.37361548919
 44
1910.222982944508
 45
39.75589259645271
 46
-0.0000425502174256
 79
     2
 49
16.82972244591056
 49
-10734.28048182553
 53
334.9544
 43
42957.37361548919
 44
1776.359115018999
 45
39.75589259645271
 46
-0.0000425502174256
 79
     2
 49
16.82972244591056
 49
-10734.28048182553
 53
334.9544
 43
42957.37361548919
 44
1642.495247093465
 45
39.75589259645271
 46
-0.0000425502174256
 79
     2
 49
16.82972244591056
 49
-10734.28048182553
 53
334.9544
 43
42957.37361548919
 44
1508.631379167959
 45
39.75589259645271
 46
-0.0000425502174256
 79
     2
 49
16.82972244591056
 49
-10734.28048182553
 53
334.9544
 43
42957.37361548919
 44
1374.767511242425
 45
39.75589259645271
 46
-0.0000425502174256
 79
     2
 49
16.82972244591056
 49
-10734.28048182553
 53
334.9544
 43
42957.37361548919
 44
1240.90364331689
 45
39.75589259645271
 46
-0.0000425502174256
 79
     2
 49
16.82972244591056
 49
-10734.28048182553
 53
334.9544
 43
42957.37361548919
 44
1107.039775391385
 45
39.75589259645271
 46
-0.0000425502174256
 79
     2
 49
16.82972244591056
 49
-10734.28048182553
 53
334.9544
 43
42957.37361548919
 44
973.1759074658757
 45
39.75589259645271
 46
-0.0000425502174256
 79
     2
 49
16.82972244591056
 49
-10734.28048182553
 53
334.9544
 43
42957.37361548919
 44
839.3120395403411
 45
39.75589259645271
 46
-0.0000425502174256
 79
     2
 49
16.82972244591056
 49
-10734.28048182553
 53
334.9544
 43
42957.37361548919
 44
705.4481716148357
 45
39.75589259645271
 46
-0.0000425502174256
 79
     2
 49
16.82972244591056
 49
-10734.28048182553
 53
307.5647
 43
42962.12262956274
 44
5232.466214308663
 45
39.75587516415277
 46
-0.0000089774092899
 79
     2
 49
16.34697959064513
 49
-6569.897158549863
 53
307.5647
 43
42962.12262956274
 44
5098.602108402912
 45
39.75587516415277
 46
-0.0000089774092899
 79
     2
 49
16.34697959064513
 49
-6569.897158549863
 53
307.5647
 43
42962.12262956274
 44
4964.738240477402
 45
39.75587516415277
 46
-0.0000089774092899
 79
     2
 49
16.34697959064513
 49
-6569.897158549863
 53
307.5647
 43
42962.12262956274
 44
4830.874372551897
 45
39.75587516415277
 46
-0.0000089774092899
 79
     2
 49
16.34697959064513
 49
-6569.897158549863
 53
307.5647
 43
42962.12262956274
 44
4697.010504626362
 45
39.75587516415277
 46
-0.0000089774092899
 79
     2
 49
16.34697959064513
 49
-6569.897158549863
 53
307.5647
 43
42962.12262956274
 44
4563.146636700831
 45
39.75587516415277
 46
-0.0000089774092899
 79
     2
 49
16.34697959064513
 49
-6569.897158549863
 53
307.5647
 43
42962.12262956274
 44
4429.282768775322
 45
39.75587516415277
 46
-0.0000089774092899
 79
     2
 49
16.34697959064513
 49
-6569.897158549863
 53
307.5647
 43
42962.12262956274
 44
4295.418900849813
 45
39.75587516415277
 46
-0.0000089774092899
 79
     2
 49
16.34697959064513
 49
-6569.897158549863
 53
307.5647
 43
42962.12262956274
 44
4161.555032924279
 45
39.75587516415277
 46
-0.0000089774092899
 79
     2
 49
16.34697959064513
 49
-6569.897158549863
 53
307.5647
 43
42962.12262956274
 44
4027.687595295621
 45
39.75587516415277
 46
-0.0000089774092899
 79
     2
 49
16.34697959064513
 49
-6569.897158549863
 53
307.5647
 43
42962.12262956274
 44
3893.823727370112
 45
39.75587516415277
 46
-0.0000089774092899
 79
     2
 49
16.34697959064513
 49
-6569.897158549863
 53
307.5647
 43
42962.12262956274
 44
3759.959859444581
 45
39.75587516415277
 46
-0.0000089774092899
 79
     2
 49
16.34697959064513
 49
-6569.897158549863
 53
307.5647
 43
42962.12262956274
 44
3626.095991519046
 45
39.75587516415277
 46
-0.0000089774092899
 79
     2
 49
16.34697959064513
 49
-6569.897158549863
 53
307.5647
 43
42962.12262956274
 44
3492.232123593537
 45
39.75587516415277
 46
-0.0000089774092899
 79
     2
 49
16.34697959064513
 49
-6569.897158549863
 53
307.5647
 43
42962.12262956274
 44
3358.368255668032
 45
39.75587516415277
 46
-0.0000089774092899
 79
     2
 49
16.34697959064513
 49
-6569.897158549863
 53
307.5647
 43
42962.12262956274
 44
3224.504387742497
 45
39.75587516415277
 46
-0.0000089774092899
 79
     2
 49
16.34697959064513
 49
-6569.897158549863
 53
307.5647
 43
42962.12262956274
 44
3090.640519816988
 45
39.75587516415277
 46
-0.0000089774092899
 79
     2
 49
16.34697959064513
 49
-6569.897158549863
 53
307.5647
 43
42962.12262956274
 44
2956.776651891457
 45
39.75587516415277
 46
-0.0000089774092899
 79
     2
 49
16.34697959064513
 49
-6569.897158549863
 53
307.5647
 43
42962.12262956274
 44
2822.912783965948
 45
39.75587516415277
 46
-0.0000089774092899
 79
     2
 49
16.34697959064513
 49
-6569.897158549863
 53
307.5647
 43
42962.12262956274
 44
2689.048916040417
 45
39.75587516415277
 46
-0.0000089774092899
 79
     2
 49
16.34697959064513
 49
-6569.897158549863
 53
307.5647
 43
42962.12262956274
 44
2555.185048114908
 45
39.75587516415277
 46
-0.0000089774092899
 79
     2
 49
16.34697959064513
 49
-6569.897158549863
 53
307.5647
 43
42962.12262956274
 44
2421.321180189373
 45
39.75587516415277
 46
-0.0000089774092899
 79
     2
 49
16.34697959064513
 49
-6569.897158549863
 53
307.5647
 43
42962.12262956274
 44
2287.457312263864
 45
39.75587516415277
 46
-0.0000089774092899
 79
     2
 49
16.34697959064513
 49
-6569.897158549863
 53
307.5647
 43
42962.12262956274
 44
2153.593444338333
 45
39.75587516415277
 46
-0.0000089774092899
 79
     2
 49
16.34697959064513
 49
-6569.897158549863
 53
307.5647
 43
42962.12262956274
 44
2019.729576412824
 45
39.75587516415277
 46
-0.0000089774092899
 79
     2
 49
16.34697959064513
 49
-6569.897158549863
 53
307.5647
 43
42962.12262956274
 44
1885.865708487293
 45
39.75587516415277
 46
-0.0000089774092899
 79
     2
 49
16.34697959064513
 49
-6569.897158549863
 53
307.5647
 43
42962.12262956274
 44
1752.001840561784
 45
39.75587516415277
 46
-0.0000089774092899
 79
     2
 49
16.34697959064513
 49
-6569.897158549863
 53
307.5647
 43
42962.12262956274
 44
1618.137972636275
 45
39.75587516415277
 46
-0.0000089774092899
 79
     2
 49
16.34697959064513
 49
-6569.897158549863
 53
307.5647
 43
42962.12262956274
 44
1484.27410471074
 45
39.75587516415277
 46
-0.0000089774092899
 79
     2
 49
16.34697959064513
 49
-6569.897158549863
 53
307.5647
 43
42962.12262956274
 44
1350.410236785235
 45
39.75587516415277
 46
-0.0000089774092899
 79
     2
 49
16.34697959064513
 49
-6569.897158549863
 53
307.5647
 43
42962.12262956274
 44
1216.5463688597
 45
39.75587516415277
 46
-0.0000089774092899
 79
     2
 49
16.34697959064513
 49
-6569.897158549863
 53
307.5647
 43
42962.12262956274
 44
1082.682500934165
 45
39.75587516415277
 46
-0.0000089774092899
 79
     2
 49
16.34697959064513
 49
-6569.897158549863
 53
307.5647
 43
42962.12262956274
 44
948.81863300866
 45
39.75587516415277
 46
-0.0000089774092899
 79
     2
 49
16.34697959064513
 49
-6569.897158549863
 53
307.5647
 43
42962.12262956274
 44
814.9547650831546
 45
39.75587516415277
 46
-0.0000089774092899
 79
     2
 49
16.34697959064513
 49
-6569.897158549863
 53
307.5647
 43
42962.12262956274
 44
681.09089715762
 45
39.75587516415277
 46
-0.0000089774092899
 79
     2
 49
16.34697959064513
 49
-6569.897158549863
 53
307.5647
 43
42962.12262956274
 44
547.2270292321109
 45
39.75587516415277
 46
-0.0000089774092899
 79
     2
 49
16.34697959064513
 49
-6569.897158549863
 53
307.5647
 43
42962.12262956274
 44
413.3631613065763
 45
39.75587516415277
 46
-0.0000089774092899
 79
     2
 49
16.34697959064513
 49
-6569.897158549863
 53
307.5647
 43
42962.12262956274
 44
279.4992933810708
 45
39.75587516415277
 46
-0.0000089774092899
 79
     2
 49
16.34697959064513
 49
-6569.897158549863
 53
307.5647
 43
42962.12262956274
 44
145.6354254555617
 45
39.75587516415277
 46
-0.0000089774092899
 79
     2
 49
16.34697959064513
 49
-6569.897158549863
 53
292.9384
 43
42936.52779852036
 44
5190.416896115893
 45
39.75591328479023
 46
-0.0000165670965689
 79
     2
 49
30.44290437825485
 49
-5783.884461102885
 53
292.9384
 43
42936.52779852036
 44
5056.553385160684
 45
39.75591328479023
 46
-0.0000165670965689
 79
     2
 49
30.44290437825485
 49
-5783.884461102885
 53
292.9384
 43
42936.52779852036
 44
4922.689517235149
 45
39.75591328479023
 46
-0.0000165670965689
 79
     2
 49
30.44290437825485
 49
-5783.884461102885
 53
292.9384
 43
42936.52779852036
 44
4788.82564930964
 45
39.75591328479023
 46
-0.0000165670965689
 79
     2
 49
30.44290437825485
 49
-5783.884461102885
 53
292.9384
 43
42936.52779852036
 44
4654.961781384135
 45
39.75591328479023
 46
-0.0000165670965689
 79
     2
 49
30.44290437825485
 49
-5783.884461102885
 53
292.9384
 43
42936.52779852036
 44
4521.0979134586
 45
39.75591328479023
 46
-0.0000165670965689
 79
     2
 49
30.44290437825485
 49
-5783.884461102885
 53
292.9384
 43
42936.52779852036
 44
4387.234045533094
 45
39.75591328479023
 46
-0.0000165670965689
 79
     2
 49
30.44290437825485
 49
-5783.884461102885
 53
292.9384
 43
42936.52779852036
 44
4253.37017760756
 45
39.75591328479023
 46
-0.0000165670965689
 79
     2
 49
30.44290437825485
 49
-5783.884461102885
 53
292.9384
 43
42936.52779852036
 44
4119.506309682051
 45
39.75591328479023
 46
-0.0000165670965689
 79
     2
 49
30.44290437825485
 49
-5783.884461102885
 53
292.9384
 43
42936.52779852036
 44
3985.636492251302
 45
39.75591328479023
 46
-0.0000165670965689
 79
     2
 49
30.44290437825485
 49
-5783.884461102885
 53
292.9384
 43
42936.52779852036
 44
3851.772624325767
 45
39.75591328479023
 46
-0.0000165670965689
 79
     2
 49
30.44290437825485
 49
-5783.884461102885
 53
292.9384
 43
42936.52779852036
 44
3717.908756400233
 45
39.75591328479023
 46
-0.0000165670965689
 79
     2
 49
30.44290437825485
 49
-5783.884461102885
 53
292.9384
 43
42936.52779852036
 44
3584.044888474724
 45
39.75591328479023
 46
-0.0000165670965689
 79
     2
 49
30.44290437825485
 49
-5783.884461102885
 53
292.9384
 43
42936.52779852036
 44
3450.181020549218
 45
39.75591328479023
 46
-0.0000165670965689
 79
     2
 49
30.44290437825485
 49
-5783.884461102885
 53
292.9384
 43
42936.52779852036
 44
3316.317152623683
 45
39.75591328479023
 46
-0.0000165670965689
 79
     2
 49
30.44290437825485
 49
-5783.884461102885
 53
292.9384
 43
42936.52779852036
 44
3182.453284698152
 45
39.75591328479023
 46
-0.0000165670965689
 79
     2
 49
30.44290437825485
 49
-5783.884461102885
 53
292.9384
 43
42936.52779852036
 44
3048.589416772643
 45
39.75591328479023
 46
-0.0000165670965689
 79
     2
 49
30.44290437825485
 49
-5783.884461102885
 53
292.9384
 43
42936.52779852036
 44
2914.725548847134
 45
39.75591328479023
 46
-0.0000165670965689
 79
     2
 49
30.44290437825485
 49
-5783.884461102885
 53
292.9384
 43
42936.52779852036
 44
2780.861680921628
 45
39.75591328479023
 46
-0.0000165670965689
 79
     2
 49
30.44290437825485
 49
-5783.884461102885
 53
292.9384
 43
42936.52779852036
 44
2646.997812996094
 45
39.75591328479023
 46
-0.0000165670965689
 79
     2
 49
30.44290437825485
 49
-5783.884461102885
 53
292.9384
 43
42936.52779852036
 44
2513.133945070559
 45
39.75591328479023
 46
-0.0000165670965689
 79
     2
 49
30.44290437825485
 49
-5783.884461102885
 53
292.9384
 43
42936.52779852036
 44
2379.270077145054
 45
39.75591328479023
 46
-0.0000165670965689
 79
     2
 49
30.44290437825485
 49
-5783.884461102885
 53
292.9384
 43
42936.52779852036
 44
2245.406209219545
 45
39.75591328479023
 46
-0.0000165670965689
 79
     2
 49
30.44290437825485
 49
-5783.884461102885
 53
292.9384
 43
42936.52779852036
 44
2111.54234129401
 45
39.75591328479023
 46
-0.0000165670965689
 79
     2
 49
30.44290437825485
 49
-5783.884461102885
 53
292.9384
 43
42936.52779852036
 44
1977.678473368475
 45
39.75591328479023
 46
-0.0000165670965689
 79
     2
 49
30.44290437825485
 49
-5783.884461102885
 53
292.9384
 43
42936.52779852036
 44
1843.81460544297
 45
39.75591328479023
 46
-0.0000165670965689
 79
     2
 49
30.44290437825485
 49
-5783.884461102885
 53
292.9384
 43
42936.52779852036
 44
1709.950737517435
 45
39.75591328479023
 46
-0.0000165670965689
 79
     2
 49
30.44290437825485
 49
-5783.884461102885
 53
292.9384
 43
42936.52779852036
 44
1576.08686959193
 45
39.75591328479023
 46
-0.0000165670965689
 79
     2
 49
30.44290437825485
 49
-5783.884461102885
 53
292.9384
 43
42936.52779852036
 44
1442.223001666395
 45
39.75591328479023
 46
-0.0000165670965689
 79
     2
 49
30.44290437825485
 49
-5783.884461102885
 53
292.9384
 43
42936.52779852036
 44
1308.359133740889
 45
39.75591328479023
 46
-0.0000165670965689
 79
     2
 49
30.44290437825485
 49
-5783.884461102885
 53
292.9384
 43
42936.52779852036
 44
1174.49526581538
 45
39.75591328479023
 46
-0.0000165670965689
 79
     2
 49
30.44290437825485
 49
-5783.884461102885
 53
292.9384
 43
42936.52779852036
 44
1040.631397889846
 45
39.75591328479023
 46
-0.0000165670965689
 79
     2
 49
30.44290437825485
 49
-5783.884461102885
 53
292.9384
 43
42936.52779852036
 44
906.7675299643115
 45
39.75591328479023
 46
-0.0000165670965689
 79
     2
 49
30.44290437825485
 49
-5783.884461102885
 53
292.9384
 43
42936.52779852036
 44
772.903662038806
 45
39.75591328479023
 46
-0.0000165670965689
 79
     2
 49
30.44290437825485
 49
-5783.884461102885
 53
292.9384
 43
42936.52779852036
 44
639.0397941132968
 45
39.75591328479023
 46
-0.0000165670965689
 79
     2
 49
30.44290437825485
 49
-5783.884461102885
 53
292.9384
 43
42936.52779852036
 44
505.1759261877659
 45
39.75591328479023
 46
-0.0000165670965689
 79
     2
 49
30.44290437825485
 49
-5783.884461102885
 53
292.9384
 43
42936.52779852036
 44
371.3120582622569
 45
39.75591328479023
 46
-0.0000165670965689
 79
     2
 49
30.44290437825485
 49
-5783.884461102885
 53
292.9384
 43
42936.52779852036
 44
237.4481903367223
 45
39.75591328479023
 46
-0.0000165670965689
 79
     2
 49
30.44290437825485
 49
-5783.884461102885
 53
292.9384
 43
42936.52779852036
 44
103.5843224112132
 45
39.75591328479023
 46
-0.0000165670965689
 79
     2
 49
30.44290437825485
 49
-5783.884461102885
 53
292.9384
 43
42936.52779852036
 44
-30.2795455142923
 45
39.75591328479023
 46
-0.0000165670965689
 79
     2
 49
30.44290437825485
 49
-5783.884461102885
 53
285.109
 43
42953.93277862805
 44
5135.706197839269
 45
0.0000003601119824
 46
-133.8637863111869
 79
     2
 49
13.20944850668066
 49
-1512.01737614076
 53
285.109
 43
42993.68868154047
 44
5135.706197839269
 45
0.0000003601119824
 46
-133.8637863111869
 79
     2
 49
13.20944850668066
 49
-1512.01737614076
 53
285.109
 43
43033.44458445287
 44
5135.706197839269
 45
0.0000003601119824
 46
-133.8637863111869
 79
     2
 49
13.20944850668066
 49
-1512.01737614076
 53
285.109
 43
43073.20072534547
 44
5135.706197839269
 45
0.0000003601119824
 46
-133.8637863111869
 79
     2
 49
13.20944850668066
 49
-1512.01737614076
 53
285.109
 43
43112.95650926779
 44
5135.706197839269
 45
0.0000003601119824
 46
-133.8637863111869
 79
     2
 49
13.20944850668066
 49
-1512.01737614076
 53
285.109
 43
43152.7122931901
 44
5135.706197839269
 45
0.0000003601119824
 46
-133.8637863111869
 79
     2
 49
13.20944850668066
 49
-1512.01737614076
 53
285.109
 43
43192.46807711241
 44
5135.706197839269
 45
0.0000003601119824
 46
-133.8637863111869
 79
     2
 49
13.20944850668066
 49
-1512.01737614076
 53
285.109
 43
43232.22386103469
 44
5135.706197839269
 45
0.0000003601119824
 46
-133.8637863111869
 79
     2
 49
13.20944850668066
 49
-1512.01737614076
 53
285.109
 43
43271.97964495702
 44
5135.706197839269
 45
0.0000003601119824
 46
-133.8637863111869
 79
     2
 49
13.20944850668066
 49
-1512.01737614076
 53
285.109
 43
43311.73542887931
 44
5135.706197839269
 45
0.0000003601119824
 46
-133.8637863111869
 79
     2
 49
13.20944850668066
 49
-1512.01737614076
 53
276.7473999999999
 43
42948.39117146625
 44
5162.380685597766
 45
0.0000130021948056
 46
-133.8641044322109
 79
     2
 49
26.86118323298723
 49
-16553.23227874065
 53
276.7473999999999
 43
42988.14707437864
 44
5162.380685597766
 45
0.0000130021948056
 46
-133.8641044322109
 79
     2
 49
26.86118323298723
 49
-16553.23227874065
 53
276.7473999999999
 43
43027.90297729104
 44
5162.380685597766
 45
0.0000130021948056
 46
-133.8641044322109
 79
     2
 49
26.86118323298723
 49
-16553.23227874065
 53
276.7473999999999
 43
43067.6593561639
 44
5162.380685597766
 45
0.0000130021948056
 46
-133.8641044322109
 79
     2
 49
26.86118323298723
 49
-16553.23227874065
 53
276.7473999999999
 43
43107.4151400862
 44
5162.380685597766
 45
0.0000130021948056
 46
-133.8641044322109
 79
     2
 49
26.86118323298723
 49
-16553.23227874065
 53
276.7473999999999
 43
43147.17092400852
 44
5162.380685597766
 45
0.0000130021948056
 46
-133.8641044322109
 79
     2
 49
26.86118323298723
 49
-16553.23227874065
 53
276.7473999999999
 43
43186.92670793081
 44
5162.380685597766
 45
0.0000130021948056
 46
-133.8641044322109
 79
     2
 49
26.86118323298723
 49
-16553.23227874065
 53
276.7473999999999
 43
43226.68249185313
 44
5162.380685597766
 45
0.0000130021948056
 46
-133.8641044322109
 79
     2
 49
26.86118323298723
 49
-16553.23227874065
 53
276.7473999999999
 43
43266.43827577544
 44
5162.380685597766
 45
0.0000130021948056
 46
-133.8641044322109
 79
     2
 49
26.86118323298723
 49
-16553.23227874065
 53
276.7473999999999
 43
43306.19405969773
 44
5162.380685597766
 45
0.0000130021948056
 46
-133.8641044322109
 79
     2
 49
26.86118323298723
 49
-16553.23227874065
 53
276.7473999999999
 43
43345.94984362003
 44
5162.380685597766
 45
0.0000130021948056
 46
-133.8641044322109
 79
     2
 49
26.86118323298723
 49
-16553.23227874065
 53
276.7473999999999
 43
43385.70562754235
 44
5162.380685597766
 45
0.0000130021948056
 46
-133.8641044322109
 79
     2
 49
26.86118323298723
 49
-16553.23227874065
 53
276.7473999999999
 43
43425.46141146465
 44
5162.380685597766
 45
0.0000130021948056
 46
-133.8641044322109
 79
     2
 49
26.86118323298723
 49
-16553.23227874065
 53
276.7473999999999
 43
43465.21719538697
 44
5162.380685597766
 45
0.0000130021948056
 46
-133.8641044322109
 79
     2
 49
26.86118323298723
 49
-16553.23227874065
 53
276.7473999999999
 43
43504.97416921032
 44
5162.380685597766
 45
0.0000130021948056
 46
-133.8641044322109
 79
     2
 49
26.86118323298723
 49
-16553.23227874065
 53
276.7473999999999
 43
43544.72995313263
 44
5162.380685597766
 45
0.0000130021948056
 46
-133.8641044322109
 79
     2
 49
26.86118323298723
 49
-16553.23227874065
 53
276.7473999999999
 43
43584.48573705491
 44
5162.380685597766
 45
0.0000130021948056
 46
-133.8641044322109
 79
     2
 49
26.86118323298723
 49
-16553.23227874065
 53
276.7473999999999
 43
43624.24152097724
 44
5162.380685597766
 45
0.0000130021948056
 46
-133.8641044322109
 79
     2
 49
26.86118323298723
 49
-16553.23227874065
 53
276.7473999999999
 43
43663.99730489951
 44
5162.380685597766
 45
0.0000130021948056
 46
-133.8641044322109
 79
     2
 49
26.86118323298723
 49
-16553.23227874065
 53
276.7473999999999
 43
43703.75308882186
 44
5162.380685597766
 45
0.0000130021948056
 46
-133.8641044322109
 79
     2
 49
26.86118323298723
 49
-16553.23227874065
 53
276.7473999999999
 43
43743.50887274416
 44
5162.380685597766
 45
0.0000130021948056
 46
-133.8641044322109
 79
     2
 49
26.86118323298723
 49
-16553.23227874065
 53
276.7473999999999
 43
43783.26465666646
 44
5162.380685597766
 45
0.0000130021948056
 46
-133.8641044322109
 79
     2
 49
26.86118323298723
 49
-16553.23227874065
 53
276.7473999999999
 43
43823.02044058877
 44
5162.380685597766
 45
0.0000130021948056
 46
-133.8641044322109
 79
     2
 49
26.86118323298723
 49
-16553.23227874065
 53
276.7473999999999
 43
43862.77622451108
 44
5162.380685597766
 45
0.0000130021948056
 46
-133.8641044322109
 79
     2
 49
26.86118323298723
 49
-16553.23227874065
 53
276.7473999999999
 43
43902.53319833445
 44
5162.380685597766
 45
0.0000130021948056
 46
-133.8641044322109
 79
     2
 49
26.86118323298723
 49
-16553.23227874065
 53
276.7473999999999
 43
43942.28898225672
 44
5162.380685597766
 45
0.0000130021948056
 46
-133.8641044322109
 79
     2
 49
26.86118323298723
 49
-16553.23227874065
 53
276.7473999999999
 43
43982.04476617906
 44
5162.380685597766
 45
0.0000130021948056
 46
-133.8641044322109
 79
     2
 49
26.86118323298723
 49
-16553.23227874065
 53
276.7473999999999
 43
44021.80055010137
 44
5162.380685597766
 45
0.0000130021948056
 46
-133.8641044322109
 79
     2
 49
26.86118323298723
 49
-16553.23227874065
 53
276.7473999999999
 43
44061.55633402367
 44
5162.380685597766
 45
0.0000130021948056
 46
-133.8641044322109
 79
     2
 49
26.86118323298723
 49
-16553.23227874065
 53
276.7473999999999
 43
44101.31211794598
 44
5162.380685597766
 45
0.0000130021948056
 46
-133.8641044322109
 79
     2
 49
26.86118323298723
 49
-16553.23227874065
 53
276.7473999999999
 43
44141.06671196723
 44
5162.380685597766
 45
0.0000130021948056
 46
-133.8641044322109
 79
     2
 49
26.86118323298723
 49
-16553.23227874065
 53
276.7473999999999
 43
44180.8213059885
 44
5162.380685597766
 45
0.0000130021948056
 46
-133.8641044322109
 79
     2
 49
26.86118323298723
 49
-16553.23227874065
 53
276.7473999999999
 43
44220.57590000974
 44
5162.380685597766
 45
0.0000130021948056
 46
-133.8641044322109
 79
     2
 49
26.86118323298723
 49
-16553.23227874065
 53
276.7473999999999
 43
44260.33049403098
 44
5162.380685597766
 45
0.0000130021948056
 46
-133.8641044322109
 79
     2
 49
26.86118323298723
 49
-16553.23227874065
 53
276.7473999999999
 43
44300.09698706276
 44
5162.380685597766
 45
0.0000130021948056
 46
-133.8641044322109
 79
     2
 49
26.86118323298723
 49
-16553.23227874065
 53
276.7473999999999
 43
44339.85158108401
 44
5162.380685597766
 45
0.0000130021948056
 46
-133.8641044322109
 79
     2
 49
26.86118323298723
 49
-16553.23227874065
 53
276.7473999999999
 43
44379.60617510524
 44
5162.380685597766
 45
0.0000130021948056
 46
-133.8641044322109
 79
     2
 49
26.86118323298723
 49
-16553.23227874065
 53
276.7473999999999
 43
44419.36076912652
 44
5162.380685597766
 45
0.0000130021948056
 46
-133.8641044322109
 79
     2
 49
26.86118323298723
 49
-16553.23227874065
 53
276.7473999999999
 43
44459.11536314776
 44
5162.380685597766
 45
0.0000130021948056
 46
-133.8641044322109
 79
     2
 49
26.86118323298723
 49
-16553.23227874065
 53
276.7473999999999
 43
44498.86995716905
 44
5162.380685597766
 45
0.0000130021948056
 46
-133.8641044322109
 79
     2
 49
26.86118323298723
 49
-16553.23227874065
 53
276.7473999999999
 43
44538.62455119029
 44
5162.380685597766
 45
0.0000130021948056
 46
-133.8641044322109
 79
     2
 49
26.86118323298723
 49
-16553.23227874065
 53
276.7473999999999
 43
44578.37914521155
 44
5162.380685597766
 45
0.0000130021948056
 46
-133.8641044322109
 79
     2
 49
26.86118323298723
 49
-16553.23227874065
 53
276.7473999999999
 43
44618.13373923281
 44
5162.380685597766
 45
0.0000130021948056
 46
-133.8641044322109
 79
     2
 49
26.86118323298723
 49
-16553.23227874065
 53
276.7473999999999
 43
44657.90023226453
 44
5162.380685597766
 45
0.0000130021948056
 46
-133.8641044322109
 79
     2
 49
26.86118323298723
 49
-16553.23227874065
 53
276.7473999999999
 43
44697.65482628583
 44
5162.380685597766
 45
0.0000130021948056
 46
-133.8641044322109
 79
     2
 49
26.86118323298723
 49
-16553.23227874065
 53
276.7473999999999
 43
44737.40942030707
 44
5162.380685597766
 45
0.0000130021948056
 46
-133.8641044322109
 79
     2
 49
26.86118323298723
 49
-16553.23227874065
 53
276.7473999999999
 43
44777.16401432832
 44
5162.380685597766
 45
0.0000130021948056
 46
-133.8641044322109
 79
     2
 49
26.86118323298723
 49
-16553.23227874065
 53
276.7473999999999
 43
44816.91860834959
 44
5162.380685597766
 45
0.0000130021948056
 46
-133.8641044322109
 79
     2
 49
26.86118323298723
 49
-16553.23227874065
 53
276.7473999999999
 43
44856.67320237086
 44
5162.380685597766
 45
0.0000130021948056
 46
-133.8641044322109
 79
     2
 49
26.86118323298723
 49
-16553.23227874065
 53
276.1416
 43
42933.39703202384
 44
5219.508667853896
 45
-0.0001295516809004
 46
-133.8635115469746
 79
     2
 49
29.25978576600293
 49
-9260.667043026341
 53
276.1416
 43
42973.15289328975
 44
5219.508667853896
 45
-0.0001295516809004
 46
-133.8635115469746
 79
     2
 49
29.25978576600293
 49
-9260.667043026341
 53
276.1416
 43
43012.90879620216
 44
5219.508667853896
 45
-0.0001295516809004
 46
-133.8635115469746
 79
     2
 49
29.25978576600293
 49
-9260.667043026341
 53
276.1416
 43
43052.66422315415
 44
5219.508667853896
 45
-0.0001295516809004
 46
-133.8635115469746
 79
     2
 49
29.25978576600293
 49
-9260.667043026341
 53
276.1416
 43
43092.4211969775
 44
5219.508667853896
 45
-0.0001295516809004
 46
-133.8635115469746
 79
     2
 49
29.25978576600293
 49
-9260.667043026341
 53
276.1416
 43
43132.17698089979
 44
5219.508667853896
 45
-0.0001295516809004
 46
-133.8635115469746
 79
     2
 49
29.25978576600293
 49
-9260.667043026341
 53
276.1416
 43
43171.93276482209
 44
5219.508667853896
 45
-0.0001295516809004
 46
-133.8635115469746
 79
     2
 49
29.25978576600293
 49
-9260.667043026341
 53
276.1416
 43
43211.68854874442
 44
5219.508667853896
 45
-0.0001295516809004
 46
-133.8635115469746
 79
     2
 49
29.25978576600293
 49
-9260.667043026341
 53
276.1416
 43
43251.44433266669
 44
5219.508667853896
 45
-0.0001295516809004
 46
-133.8635115469746
 79
     2
 49
29.25978576600293
 49
-9260.667043026341
 53
276.1416
 43
43291.20011658904
 44
5219.508667853896
 45
-0.0001295516809004
 46
-133.8635115469746
 79
     2
 49
29.25978576600293
 49
-9260.667043026341
 53
276.1416
 43
43330.95590051134
 44
5219.508667853896
 45
-0.0001295516809004
 46
-133.8635115469746
 79
     2
 49
29.25978576600293
 49
-9260.667043026341
 53
276.1416
 43
43370.71168443364
 44
5219.508667853896
 45
-0.0001295516809004
 46
-133.8635115469746
 79
     2
 49
29.25978576600293
 49
-9260.667043026341
 53
276.1416
 43
43410.46746835595
 44
5219.508667853896
 45
-0.0001295516809004
 46
-133.8635115469746
 79
     2
 49
29.25978576600293
 49
-9260.667043026341
 53
276.1416
 43
43450.22325227824
 44
5219.508667853896
 45
-0.0001295516809004
 46
-133.8635115469746
 79
     2
 49
29.25978576600293
 49
-9260.667043026341
 53
276.1416
 43
43489.97903620057
 44
5219.508667853896
 45
-0.0001295516809004
 46
-133.8635115469746
 79
     2
 49
29.25978576600293
 49
-9260.667043026341
 53
276.1416
 43
43529.7360100239
 44
5219.508667853896
 45
-0.0001295516809004
 46
-133.8635115469746
 79
     2
 49
29.25978576600293
 49
-9260.667043026341
 53
276.1416
 43
43569.49179394624
 44
5219.508667853896
 45
-0.0001295516809004
 46
-133.8635115469746
 79
     2
 49
29.25978576600293
 49
-9260.667043026341
 53
276.1416
 43
43609.24757786851
 44
5219.508667853896
 45
-0.0001295516809004
 46
-133.8635115469746
 79
     2
 49
29.25978576600293
 49
-9260.667043026341
 53
276.1416
 43
43649.00336179083
 44
5219.508667853896
 45
-0.0001295516809004
 46
-133.8635115469746
 79
     2
 49
29.25978576600293
 49
-9260.667043026341
 53
276.1416
 43
43688.75914571316
 44
5219.508667853896
 45
-0.0001295516809004
 46
-133.8635115469746
 79
     2
 49
29.25978576600293
 49
-9260.667043026341
 53
276.1416
 43
43728.51492963545
 44
5219.508667853896
 45
-0.0001295516809004
 46
-133.8635115469746
 79
     2
 49
29.25978576600293
 49
-9260.667043026341
 53
276.1416
 43
43768.27071355774
 44
5219.508667853896
 45
-0.0001295516809004
 46
-133.8635115469746
 79
     2
 49
29.25978576600293
 49
-9260.667043026341
 53
276.1416
 43
43808.02649748005
 44
5219.508667853896
 45
-0.0001295516809004
 46
-133.8635115469746
 79
     2
 49
29.25978576600293
 49
-9260.667043026341
 53
276.1416
 43
43847.78228140239
 44
5219.508667853896
 45
-0.0001295516809004
 46
-133.8635115469746
 79
     2
 49
29.25978576600293
 49
-9260.667043026341
 53
276.1416
 43
43887.53806532468
 44
5219.508667853896
 45
-0.0001295516809004
 46
-133.8635115469746
 79
     2
 49
29.25978576600293
 49
-9260.667043026341
 53
83.85800000000008
 43
42968.95801613431
 44
5190.416896115893
 45
39.7558606288076
 46
-0.0002485672396058
 79
     2
 49
29.25978576600241
 49
-9260.667043026192
 53
83.85800000000008
 43
42968.95801613431
 44
5056.553385160684
 45
39.7558606288076
 46
-0.0002485672396058
 79
     2
 49
29.25978576600241
 49
-9260.667043026192
 53
83.85800000000008
 43
42968.95801613431
 44
4922.689517235149
 45
39.7558606288076
 46
-0.0002485672396058
 79
     2
 49
29.25978576600241
 49
-9260.667043026192
 53
83.85800000000008
 43
42968.95801613431
 44
4788.82564930964
 45
39.7558606288076
 46
-0.0002485672396058
 79
     2
 49
29.25978576600241
 49
-9260.667043026192
 53
83.85800000000008
 43
42968.95801613431
 44
4654.961781384135
 45
39.7558606288076
 46
-0.0002485672396058
 79
     2
 49
29.25978576600241
 49
-9260.667043026192
 53
83.85800000000008
 43
42968.95801613431
 44
4521.0979134586
 45
39.7558606288076
 46
-0.0002485672396058
 79
     2
 49
29.25978576600241
 49
-9260.667043026192
 53
83.85800000000008
 43
42968.95801613431
 44
4387.234045533094
 45
39.7558606288076
 46
-0.0002485672396058
 79
     2
 49
29.25978576600241
 49
-9260.667043026192
 53
83.85800000000008
 43
42968.95801613431
 44
4253.37017760756
 45
39.7558606288076
 46
-0.0002485672396058
 79
     2
 49
29.25978576600241
 49
-9260.667043026192
 53
83.85800000000008
 43
42968.95801613431
 44
4119.506309682051
 45
39.7558606288076
 46
-0.0002485672396058
 79
     2
 49
29.25978576600241
 49
-9260.667043026192
 53
83.85800000000008
 43
42968.95801613431
 44
3985.636492251302
 45
39.7558606288076
 46
-0.0002485672396058
 79
     2
 49
29.25978576600241
 49
-9260.667043026192
 53
83.85800000000008
 43
42968.95801613431
 44
3851.772624325767
 45
39.7558606288076
 46
-0.0002485672396058
 79
     2
 49
29.25978576600241
 49
-9260.667043026192
 53
83.85800000000008
 43
42968.95801613431
 44
3717.908756400233
 45
39.7558606288076
 46
-0.0002485672396058
 79
     2
 49
29.25978576600241
 49
-9260.667043026192
 53
83.85800000000008
 43
42968.95801613431
 44
3584.044888474724
 45
39.7558606288076
 46
-0.0002485672396058
 79
     2
 49
29.25978576600241
 49
-9260.667043026192
 53
83.85800000000008
 43
42968.95801613431
 44
3450.181020549218
 45
39.7558606288076
 46
-0.0002485672396058
 79
     2
 49
29.25978576600241
 49
-9260.667043026192
 53
83.85800000000008
 43
42968.95801613431
 44
3316.317152623683
 45
39.7558606288076
 46
-0.0002485672396058
 79
     2
 49
29.25978576600241
 49
-9260.667043026192
 53
83.85800000000008
 43
42968.95801613431
 44
3182.453284698152
 45
39.7558606288076
 46
-0.0002485672396058
 79
     2
 49
29.25978576600241
 49
-9260.667043026192
 53
83.85800000000008
 43
42968.95801613431
 44
3048.589416772643
 45
39.7558606288076
 46
-0.0002485672396058
 79
     2
 49
29.25978576600241
 49
-9260.667043026192
 53
83.85800000000008
 43
42968.95801613431
 44
2914.725548847134
 45
39.7558606288076
 46
-0.0002485672396058
 79
     2
 49
29.25978576600241
 49
-9260.667043026192
 53
83.85800000000008
 43
42968.95801613431
 44
2780.861680921628
 45
39.7558606288076
 46
-0.0002485672396058
 79
     2
 49
29.25978576600241
 49
-9260.667043026192
 53
83.85800000000008
 43
42968.95801613431
 44
2646.997812996094
 45
39.7558606288076
 46
-0.0002485672396058
 79
     2
 49
29.25978576600241
 49
-9260.667043026192
 53
83.85800000000008
 43
42968.95801613431
 44
2513.133945070559
 45
39.7558606288076
 46
-0.0002485672396058
 79
     2
 49
29.25978576600241
 49
-9260.667043026192
 53
83.85800000000008
 43
42968.95801613431
 44
2379.270077145054
 45
39.7558606288076
 46
-0.0002485672396058
 79
     2
 49
29.25978576600241
 49
-9260.667043026192
 53
83.85800000000008
 43
42968.95801613431
 44
2245.406209219545
 45
39.7558606288076
 46
-0.0002485672396058
 79
     2
 49
29.25978576600241
 49
-9260.667043026192
 53
83.85800000000008
 43
42968.95801613431
 44
2111.54234129401
 45
39.7558606288076
 46
-0.0002485672396058
 79
     2
 49
29.25978576600241
 49
-9260.667043026192
 53
83.85800000000008
 43
42968.95801613431
 44
1977.678473368475
 45
39.7558606288076
 46
-0.0002485672396058
 79
     2
 49
29.25978576600241
 49
-9260.667043026192
 53
83.85800000000008
 43
42968.95801613431
 44
1843.81460544297
 45
39.7558606288076
 46
-0.0002485672396058
 79
     2
 49
29.25978576600241
 49
-9260.667043026192
 53
83.85800000000008
 43
42968.95801613431
 44
1709.950737517435
 45
39.7558606288076
 46
-0.0002485672396058
 79
     2
 49
29.25978576600241
 49
-9260.667043026192
 53
83.85800000000008
 43
42968.95801613431
 44
1576.08686959193
 45
39.7558606288076
 46
-0.0002485672396058
 79
     2
 49
29.25978576600241
 49
-9260.667043026192
 53
83.85800000000008
 43
42968.95801613431
 44
1442.223001666395
 45
39.7558606288076
 46
-0.0002485672396058
 79
     2
 49
29.25978576600241
 49
-9260.667043026192
 53
83.85800000000008
 43
42968.95801613431
 44
1308.359133740889
 45
39.7558606288076
 46
-0.0002485672396058
 79
     2
 49
29.25978576600241
 49
-9260.667043026192
 53
83.85800000000008
 43
42968.95801613431
 44
1174.49526581538
 45
39.7558606288076
 46
-0.0002485672396058
 79
     2
 49
29.25978576600241
 49
-9260.667043026192
 53
83.85800000000008
 43
42968.95801613431
 44
1040.631397889846
 45
39.7558606288076
 46
-0.0002485672396058
 79
     2
 49
29.25978576600241
 49
-9260.667043026192
 53
83.85800000000008
 43
42968.95801613431
 44
906.7675299643115
 45
39.7558606288076
 46
-0.0002485672396058
 79
     2
 49
29.25978576600241
 49
-9260.667043026192
 53
83.85800000000008
 43
42968.95801613431
 44
772.903662038806
 45
39.7558606288076
 46
-0.0002485672396058
 79
     2
 49
29.25978576600241
 49
-9260.667043026192
 53
83.85800000000008
 43
42968.95801613431
 44
639.0397941132968
 45
39.7558606288076
 46
-0.0002485672396058
 79
     2
 49
29.25978576600241
 49
-9260.667043026192
 53
83.85800000000008
 43
42968.95801613431
 44
505.1759261877659
 45
39.7558606288076
 46
-0.0002485672396058
 79
     2
 49
29.25978576600241
 49
-9260.667043026192
 53
83.85800000000008
 43
42968.95801613431
 44
371.3120582622569
 45
39.7558606288076
 46
-0.0002485672396058
 79
     2
 49
29.25978576600241
 49
-9260.667043026192
 53
83.85800000000008
 43
42968.95801613431
 44
237.4481903367223
 45
39.7558606288076
 46
-0.0002485672396058
 79
     2
 49
29.25978576600241
 49
-9260.667043026192
 53
83.85800000000008
 43
42968.95801613431
 44
103.5843224112132
 45
39.7558606288076
 46
-0.0002485672396058
 79
     2
 49
29.25978576600241
 49
-9260.667043026192
 53
83.85800000000008
 43
42968.95801613431
 44
-30.2795455142923
 45
39.7558606288076
 46
-0.0002485672396058
 79
     2
 49
29.25978576600241
 49
-9260.667043026192
 53
83.85800000000008
 43
42968.95801613431
 44
-164.1434134398268
 45
39.7558606288076
 46
-0.0002485672396058
 79
     2
 49
29.25978576600241
 49
-9260.667043026192
 53
83.85800000000008
 43
42968.95801613431
 44
-298.0072813653578
 45
39.7558606288076
 46
-0.0002485672396058
 79
     2
 49
29.25978576600241
 49
-9260.667043026192
 53
83.85800000000008
 43
42968.95801613431
 44
-431.8711492908668
 45
39.7558606288076
 46
-0.0002485672396058
 79
     2
 49
29.25978576600241
 49
-9260.667043026192
 53
83.85800000000008
 43
42968.95801613431
 44
-565.7350172163724
 45
39.7558606288076
 46
-0.0002485672396058
 79
     2
 49
29.25978576600241
 49
-9260.667043026192
 53
83.85800000000008
 43
42968.95801613431
 44
-699.598885141907
 45
39.7558606288076
 46
-0.0002485672396058
 79
     2
 49
29.25978576600241
 49
-9260.667043026192
 53
83.85800000000008
 43
42968.95801613431
 44
-833.4627530674415
 45
39.7558606288076
 46
-0.0002485672396058
 79
     2
 49
29.25978576600241
 49
-9260.667043026192
 53
83.85800000000008
 43
42968.95801613431
 44
-967.3266209929506
 45
39.7558606288076
 46
-0.0002485672396058
 79
     2
 49
29.25978576600241
 49
-9260.667043026192
 53
83.85800000000008
 43
42968.95801613431
 44
-1101.190488918481
 45
39.7558606288076
 46
-0.0002485672396058
 79
     2
 49
29.25978576600241
 49
-9260.667043026192
 53
83.85800000000008
 43
42968.95801613431
 44
-1235.054356843965
 45
39.7558606288076
 46
-0.0002485672396058
 79
     2
 49
29.25978576600241
 49
-9260.667043026192
 53
83.85800000000008
 43
42968.95801613431
 44
-1368.918224769496
 45
39.7558606288076
 46
-0.0002485672396058
 79
     2
 49
29.25978576600241
 49
-9260.667043026192
 53
83.85800000000008
 43
42968.95801613431
 44
-1502.782092695031
 45
39.7558606288076
 46
-0.0002485672396058
 79
     2
 49
29.25978576600241
 49
-9260.667043026192
 53
83.85800000000008
 43
42968.95801613431
 44
-1636.64596062054
 45
39.7558606288076
 46
-0.0002485672396058
 79
     2
 49
29.25978576600241
 49
-9260.667043026192
 53
83.85800000000008
 43
42968.95801613431
 44
-1770.509828546074
 45
39.7558606288076
 46
-0.0002485672396058
 79
     2
 49
29.25978576600241
 49
-9260.667043026192
 53
83.85800000000008
 43
42968.95801613431
 44
-1904.373696471605
 45
39.7558606288076
 46
-0.0002485672396058
 79
     2
 49
29.25978576600241
 49
-9260.667043026192
 53
83.85800000000008
 43
42968.95801613431
 44
-2038.237564397114
 45
39.7558606288076
 46
-0.0002485672396058
 79
     2
 49
29.25978576600241
 49
-9260.667043026192
 53
83.85800000000008
 43
42968.95801613431
 44
-2172.10143232262
 45
39.7558606288076
 46
-0.0002485672396058
 79
     2
 49
29.25978576600241
 49
-9260.667043026192
 53
83.85800000000008
 43
42968.95801613431
 44
-2305.965300248155
 45
39.7558606288076
 46
-0.0002485672396058
 79
     2
 49
29.25978576600241
 49
-9260.667043026192
 53
83.85800000000008
 43
42968.95801613431
 44
-2439.829168173664
 45
39.7558606288076
 46
-0.0002485672396058
 79
     2
 49
29.25978576600241
 49
-9260.667043026192
 53
83.85800000000008
 43
42968.95801613431
 44
-2573.693036099199
 45
39.7558606288076
 46
-0.0002485672396058
 79
     2
 49
29.25978576600241
 49
-9260.667043026192
 53
83.85800000000008
 43
42968.95801613431
 44
-2707.556904024704
 45
39.7558606288076
 46
-0.0002485672396058
 79
     2
 49
29.25978576600241
 49
-9260.667043026192
 53
83.85800000000008
 43
42968.95801613431
 44
-2841.420771950213
 45
39.7558606288076
 46
-0.0002485672396058
 79
     2
 49
29.25978576600241
 49
-9260.667043026192
 53
83.85800000000008
 43
42968.95801613431
 44
-2975.284639875744
 45
39.7558606288076
 46
-0.0002485672396058
 79
     2
 49
29.25978576600241
 49
-9260.667043026192
 53
83.85800000000008
 43
42968.95801613431
 44
-3109.148507801279
 45
39.7558606288076
 46
-0.0002485672396058
 79
     2
 49
29.25978576600241
 49
-9260.667043026192
 53
83.85800000000008
 43
42968.95801613431
 44
-3243.012375726788
 45
39.7558606288076
 46
-0.0002485672396058
 79
     2
 49
29.25978576600241
 49
-9260.667043026192
 53
83.85800000000008
 43
42968.95801613431
 44
-3376.876243652293
 45
39.7558606288076
 46
-0.0002485672396058
 79
     2
 49
29.25978576600241
 49
-9260.667043026192
 53
83.85800000000008
 43
42968.95801613431
 44
-3510.740111577856
 45
39.7558606288076
 46
-0.0002485672396058
 79
     2
 49
29.25978576600241
 49
-9260.667043026192
 53
83.85800000000008
 43
42968.95801613431
 44
-3644.603979503362
 45
39.7558606288076
 46
-0.0002485672396058
 79
     2
 49
29.25978576600241
 49
-9260.667043026192
 53
83.85800000000008
 43
42968.95801613431
 44
-3778.467847428867
 45
39.7558606288076
 46
-0.0002485672396058
 79
     2
 49
29.25978576600241
 49
-9260.667043026192
 53
83.85800000000008
 43
42968.95801613431
 44
-3912.331715354376
 45
39.7558606288076
 46
-0.0002485672396058
 79
     2
 49
29.25978576600241
 49
-9260.667043026192
 53
83.25300000000003
 43
42953.93277862805
 44
5135.706197839269
 45
39.75591911914366
 46
0.0002898923439309
 79
     2
 49
26.86118323298722
 49
-16553.23227874064
 53
83.25300000000003
 43
42953.93277862805
 44
5001.842924864249
 45
39.75591911914366
 46
0.0002898923439309
 79
     2
 49
26.86118323298722
 49
-16553.23227874064
 53
83.25300000000003
 43
42953.93277862805
 44
4867.979056938743
 45
39.75591911914366
 46
0.0002898923439309
 79
     2
 49
26.86118323298722
 49
-16553.23227874064
 53
83.25300000000003
 43
42953.93277862805
 44
4734.115189013234
 45
39.75591911914366
 46
0.0002898923439309
 79
     2
 49
26.86118323298722
 49
-16553.23227874064
 53
83.25300000000003
 43
42953.93277862805
 44
4600.251321087728
 45
39.75591911914366
 46
0.0002898923439309
 79
     2
 49
26.86118323298722
 49
-16553.23227874064
 53
83.25300000000003
 43
42953.93277862805
 44
4466.387453162194
 45
39.75591911914366
 46
0.0002898923439309
 79
     2
 49
26.86118323298722
 49
-16553.23227874064
 53
83.25300000000003
 43
42953.93277862805
 44
4332.52358523666
 45
39.75591911914366
 46
0.0002898923439309
 79
     2
 49
26.86118323298722
 49
-16553.23227874064
 53
83.25300000000003
 43
42953.93277862805
 44
4198.659717311151
 45
39.75591911914366
 46
0.0002898923439309
 79
     2
 49
26.86118323298722
 49
-16553.23227874064
 53
83.25300000000003
 43
42953.93277862805
 44
4064.795849385619
 45
39.75591911914366
 46
0.0002898923439309
 79
     2
 49
26.86118323298722
 49
-16553.23227874064
 53
83.25300000000003
 43
42953.93277862805
 44
3930.936741064294
 45
39.75591911914366
 46
0.0002898923439309
 79
     2
 49
26.86118323298722
 49
-16553.23227874064
 53
83.25300000000003
 43
42953.93277862805
 44
3797.07287313879
 45
39.75591911914366
 46
0.0002898923439309
 79
     2
 49
26.86118323298722
 49
-16553.23227874064
 53
83.25300000000003
 43
42953.93277862805
 44
3663.209005213255
 45
39.75591911914366
 46
0.0002898923439309
 79
     2
 49
26.86118323298722
 49
-16553.23227874064
 53
83.25300000000003
 43
42953.93277862805
 44
3529.345137287749
 45
39.75591911914366
 46
0.0002898923439309
 79
     2
 49
26.86118323298722
 49
-16553.23227874064
 53
83.25300000000003
 43
42953.93277862805
 44
3395.481269362214
 45
39.75591911914366
 46
0.0002898923439309
 79
     2
 49
26.86118323298722
 49
-16553.23227874064
 53
83.25300000000003
 43
42953.93277862805
 44
3261.61740143668
 45
39.75591911914366
 46
0.0002898923439309
 79
     2
 49
26.86118323298722
 49
-16553.23227874064
 53
83.25300000000003
 43
42953.93277862805
 44
3127.753533511171
 45
39.75591911914366
 46
0.0002898923439309
 79
     2
 49
26.86118323298722
 49
-16553.23227874064
 53
83.25300000000003
 43
42953.93277862805
 44
2993.889665585665
 45
39.75591911914366
 46
0.0002898923439309
 79
     2
 49
26.86118323298722
 49
-16553.23227874064
 53
83.25300000000003
 43
42953.93277862805
 44
2860.025797660131
 45
39.75591911914366
 46
0.0002898923439309
 79
     2
 49
26.86118323298722
 49
-16553.23227874064
 53
83.25300000000003
 43
42953.93277862805
 44
2726.1619297346
 45
39.75591911914366
 46
0.0002898923439309
 79
     2
 49
26.86118323298722
 49
-16553.23227874064
 53
83.25300000000003
 43
42953.93277862805
 44
2592.298061809091
 45
39.75591911914366
 46
0.0002898923439309
 79
     2
 49
26.86118323298722
 49
-16553.23227874064
 53
83.25300000000003
 43
42953.93277862805
 44
2458.434193883582
 45
39.75591911914366
 46
0.0002898923439309
 79
     2
 49
26.86118323298722
 49
-16553.23227874064
 53
83.25300000000003
 43
42953.93277862805
 44
2324.570325958076
 45
39.75591911914366
 46
0.0002898923439309
 79
     2
 49
26.86118323298722
 49
-16553.23227874064
 53
83.25300000000003
 43
42953.93277862805
 44
2190.706458032542
 45
39.75591911914366
 46
0.0002898923439309
 79
     2
 49
26.86118323298722
 49
-16553.23227874064
 53
83.25300000000003
 43
42953.93277862805
 44
2056.842590107007
 45
39.75591911914366
 46
0.0002898923439309
 79
     2
 49
26.86118323298722
 49
-16553.23227874064
 53
83.25300000000003
 43
42953.93277862805
 44
1922.978722181501
 45
39.75591911914366
 46
0.0002898923439309
 79
     2
 49
26.86118323298722
 49
-16553.23227874064
 53
83.25300000000003
 43
42953.93277862805
 44
1789.114854255992
 45
39.75591911914366
 46
0.0002898923439309
 79
     2
 49
26.86118323298722
 49
-16553.23227874064
 53
83.25300000000003
 43
42953.93277862805
 44
1655.250986330457
 45
39.75591911914366
 46
0.0002898923439309
 79
     2
 49
26.86118323298722
 49
-16553.23227874064
 53
83.25300000000003
 43
42953.93277862805
 44
1521.387118404923
 45
39.75591911914366
 46
0.0002898923439309
 79
     2
 49
26.86118323298722
 49
-16553.23227874064
 53
83.25300000000003
 43
42953.93277862805
 44
1387.523250479417
 45
39.75591911914366
 46
0.0002898923439309
 79
     2
 49
26.86118323298722
 49
-16553.23227874064
 53
83.25300000000003
 43
42953.93277862805
 44
1253.659382553908
 45
39.75591911914366
 46
0.0002898923439309
 79
     2
 49
26.86118323298722
 49
-16553.23227874064
 53
83.25300000000003
 43
42953.93277862805
 44
1119.795514628377
 45
39.75591911914366
 46
0.0002898923439309
 79
     2
 49
26.86118323298722
 49
-16553.23227874064
 53
83.25300000000003
 43
42953.93277862805
 44
985.9316467028429
 45
39.75591911914366
 46
0.0002898923439309
 79
     2
 49
26.86118323298722
 49
-16553.23227874064
 53
83.25300000000003
 43
42953.93277862805
 44
852.0677787773374
 45
39.75591911914366
 46
0.0002898923439309
 79
     2
 49
26.86118323298722
 49
-16553.23227874064
 53
83.25300000000003
 43
42953.93277862805
 44
718.2039108518283
 45
39.75591911914366
 46
0.0002898923439309
 79
     2
 49
26.86118323298722
 49
-16553.23227874064
 53
83.25300000000003
 43
42953.93277862805
 44
584.3400429263192
 45
39.75591911914366
 46
0.0002898923439309
 79
     2
 49
26.86118323298722
 49
-16553.23227874064
 53
83.25300000000003
 43
42953.93277862805
 44
450.4761750007847
 45
39.75591911914366
 46
0.0002898923439309
 79
     2
 49
26.86118323298722
 49
-16553.23227874064
 53
83.25300000000003
 43
42953.93277862805
 44
316.6123070752537
 45
39.75591911914366
 46
0.0002898923439309
 79
     2
 49
26.86118323298722
 49
-16553.23227874064
 53
83.25300000000003
 43
42953.93277862805
 44
182.7484391497446
 45
39.75591911914366
 46
0.0002898923439309
 79
     2
 49
26.86118323298722
 49
-16553.23227874064
 53
83.25300000000003
 43
42953.93277862805
 44
48.88457122421368
 45
39.75591911914366
 46
0.0002898923439309
 79
     2
 49
26.86118323298722
 49
-16553.23227874064
 53
83.25300000000003
 43
42953.93277862805
 44
-84.97929670129542
 45
39.75591911914366
 46
0.0002898923439309
 79
     2
 49
26.86118323298722
 49
-16553.23227874064
 53
83.25300000000003
 43
42953.93277862805
 44
-218.84316462683
 45
39.75591911914366
 46
0.0002898923439309
 79
     2
 49
26.86118323298722
 49
-16553.23227874064
 53
83.25300000000003
 43
42953.93277862805
 44
-352.7070325523391
 45
39.75591911914366
 46
0.0002898923439309
 79
     2
 49
26.86118323298722
 49
-16553.23227874064
 53
83.25300000000003
 43
42953.93277862805
 44
-486.5709004778445
 45
39.75591911914366
 46
0.0002898923439309
 79
     2
 49
26.86118323298722
 49
-16553.23227874064
 53
83.25300000000003
 43
42953.93277862805
 44
-620.4347684033791
 45
39.75591911914366
 46
0.0002898923439309
 79
     2
 49
26.86118323298722
 49
-16553.23227874064
 53
83.25300000000003
 43
42953.93277862805
 44
-754.29863632891
 45
39.75591911914366
 46
0.0002898923439309
 79
     2
 49
26.86118323298722
 49
-16553.23227874064
 53
83.25300000000003
 43
42953.93277862805
 44
-888.1625042544191
 45
39.75591911914366
 46
0.0002898923439309
 79
     2
 49
26.86118323298722
 49
-16553.23227874064
 53
83.25300000000003
 43
42953.93277862805
 44
-1022.026372179924
 45
39.75591911914366
 46
0.0002898923439309
 79
     2
 49
26.86118323298722
 49
-16553.23227874064
 53
83.25300000000003
 43
42953.93277862805
 44
-1155.890240105459
 45
39.75591911914366
 46
0.0002898923439309
 79
     2
 49
26.86118323298722
 49
-16553.23227874064
 53
83.25300000000003
 43
42953.93277862805
 44
-1289.754108030994
 45
39.75591911914366
 46
0.0002898923439309
 79
     2
 49
26.86118323298722
 49
-16553.23227874064
 53
83.25300000000003
 43
42953.93277862805
 44
-1423.617975956503
 45
39.75591911914366
 46
0.0002898923439309
 79
     2
 49
26.86118323298722
 49
-16553.23227874064
 53
83.25300000000003
 43
42953.93277862805
 44
-1557.481843882008
 45
39.75591911914366
 46
0.0002898923439309
 79
     2
 49
26.86118323298722
 49
-16553.23227874064
 53
83.25300000000003
 43
42953.93277862805
 44
-1691.345711807517
 45
39.75591911914366
 46
0.0002898923439309
 79
     2
 49
26.86118323298722
 49
-16553.23227874064
 53
83.25300000000003
 43
42953.93277862805
 44
-1825.209579733049
 45
39.75591911914366
 46
0.0002898923439309
 79
     2
 49
26.86118323298722
 49
-16553.23227874064
 53
83.25300000000003
 43
42953.93277862805
 44
-1959.073447658583
 45
39.75591911914366
 46
0.0002898923439309
 79
     2
 49
26.86118323298722
 49
-16553.23227874064
 53
83.25300000000003
 43
42953.93277862805
 44
-2092.937315584092
 45
39.75591911914366
 46
0.0002898923439309
 79
     2
 49
26.86118323298722
 49
-16553.23227874064
 53
83.25300000000003
 43
42953.93277862805
 44
-2226.801183509602
 45
39.75591911914366
 46
0.0002898923439309
 79
     2
 49
26.86118323298722
 49
-16553.23227874064
 53
83.25300000000003
 43
42953.93277862805
 44
-2360.665051435158
 45
39.75591911914366
 46
0.0002898923439309
 79
     2
 49
26.86118323298722
 49
-16553.23227874064
 53
83.25300000000003
 43
42953.93277862805
 44
-2494.528919360667
 45
39.75591911914366
 46
0.0002898923439309
 79
     2
 49
26.86118323298722
 49
-16553.23227874064
 53
83.25300000000003
 43
42953.93277862805
 44
-2628.392787286172
 45
39.75591911914366
 46
0.0002898923439309
 79
     2
 49
26.86118323298722
 49
-16553.23227874064
 53
83.25300000000003
 43
42953.93277862805
 44
-2762.256655211682
 45
39.75591911914366
 46
0.0002898923439309
 79
     2
 49
26.86118323298722
 49
-16553.23227874064
 53
83.25300000000003
 43
42953.93277862805
 44
-2896.120523137216
 45
39.75591911914366
 46
0.0002898923439309
 79
     2
 49
26.86118323298722
 49
-16553.23227874064
 53
83.25300000000003
 43
42953.93277862805
 44
-3029.984391062751
 45
39.75591911914366
 46
0.0002898923439309
 79
     2
 49
26.86118323298722
 49
-16553.23227874064
 53
83.25300000000003
 43
42953.93277862805
 44
-3163.848258988256
 45
39.75591911914366
 46
0.0002898923439309
 79
     2
 49
26.86118323298722
 49
-16553.23227874064
 53
83.25300000000003
 43
42953.93277862805
 44
-3297.712126913765
 45
39.75591911914366
 46
0.0002898923439309
 79
     2
 49
26.86118323298722
 49
-16553.23227874064
 53
83.25300000000003
 43
42953.93277862805
 44
-3431.575994839296
 45
39.75591911914366
 46
0.0002898923439309
 79
     2
 49
26.86118323298722
 49
-16553.23227874064
 53
83.25300000000003
 43
42953.93277862805
 44
-3565.439862764805
 45
39.75591911914366
 46
0.0002898923439309
 79
     2
 49
26.86118323298722
 49
-16553.23227874064
 53
83.25300000000003
 43
42953.93277862805
 44
-3699.30373069034
 45
39.75591911914366
 46
0.0002898923439309
 79
     2
 49
26.86118323298722
 49
-16553.23227874064
 53
83.25300000000003
 43
42953.93277862805
 44
-3833.167598615845
 45
39.75591911914366
 46
0.0002898923439309
 79
     2
 49
26.86118323298722
 49
-16553.23227874064
 53
83.25300000000003
 43
42953.93277862805
 44
-3967.03146654138
 45
39.75591911914366
 46
0.0002898923439309
 79
     2
 49
26.86118323298722
 49
-16553.23227874064
 53
83.25300000000003
 43
42953.93277862805
 44
-4100.895334466889
 45
39.75591911914366
 46
0.0002898923439309
 79
     2
 49
26.86118323298722
 49
-16553.23227874064
 53
83.25300000000003
 43
42953.93277862805
 44
-4234.75920239242
 45
39.75591911914366
 46
0.0002898923439309
 79
     2
 49
26.86118323298722
 49
-16553.23227874064
 53
83.25300000000003
 43
42953.93277862805
 44
-4368.623070317929
 45
39.75591911914366
 46
0.0002898923439309
 79
     2
 49
26.86118323298722
 49
-16553.23227874064
 53
83.25300000000003
 43
42953.93277862805
 44
-4502.486938243463
 45
39.75591911914366
 46
0.0002898923439309
 79
     2
 49
26.86118323298722
 49
-16553.23227874064
 53
83.25300000000003
 43
42953.93277862805
 44
-4636.350806168969
 45
39.75591911914366
 46
0.0002898923439309
 79
     2
 49
26.86118323298722
 49
-16553.23227874064
 53
83.25300000000003
 43
42953.93277862805
 44
-4770.214674094476
 45
39.75591911914366
 46
0.0002898923439309
 79
     2
 49
26.86118323298722
 49
-16553.23227874064
 53
83.25300000000003
 43
42953.93277862805
 44
-4904.078542020011
 45
39.75591911914366
 46
0.0002898923439309
 79
     2
 49
26.86118323298722
 49
-16553.23227874064
 53
83.25300000000003
 43
42953.93277862805
 44
-5037.942409945518
 45
39.75591911914366
 46
0.0002898923439309
 79
     2
 49
26.86118323298722
 49
-16553.23227874064
 53
83.25300000000003
 43
42953.93277862805
 44
-5171.806277871053
 45
39.75591911914366
 46
0.0002898923439309
 79
     2
 49
26.86118323298722
 49
-16553.23227874064
 53
83.25300000000003
 43
42953.93277862805
 44
-5305.670145796586
 45
39.75591911914366
 46
0.0002898923439309
 79
     2
 49
26.86118323298722
 49
-16553.23227874064
 53
83.25300000000003
 43
42953.93277862805
 44
-5439.534013722092
 45
39.75591911914366
 46
0.0002898923439309
 79
     2
 49
26.86118323298722
 49
-16553.23227874064
 53
83.25300000000003
 43
42953.93277862805
 44
-5573.397881647601
 45
39.75591911914366
 46
0.0002898923439309
 79
     2
 49
26.86118323298722
 49
-16553.23227874064
 53
83.25300000000003
 43
42953.93277862805
 44
-5707.261749573135
 45
39.75591911914366
 46
0.0002898923439309
 79
     2
 49
26.86118323298722
 49
-16553.23227874064
 53
83.25300000000003
 43
42953.93277862805
 44
-5841.125617498668
 45
39.75591911914366
 46
0.0002898923439309
 79
     2
 49
26.86118323298722
 49
-16553.23227874064
 53
83.25300000000003
 43
42953.93277862805
 44
-5974.989485424177
 45
39.75591911914366
 46
0.0002898923439309
 79
     2
 49
26.86118323298722
 49
-16553.23227874064
 53
83.25300000000003
 43
42953.93277862805
 44
-6108.853353349682
 45
39.75591911914366
 46
0.0002898923439309
 79
     2
 49
26.86118323298722
 49
-16553.23227874064
 53
83.25300000000003
 43
42953.93277862805
 44
-6242.717221275217
 45
39.75591911914366
 46
0.0002898923439309
 79
     2
 49
26.86118323298722
 49
-16553.23227874064
 53
83.25300000000003
 43
42953.93277862805
 44
-6376.581089200723
 45
39.75591911914366
 46
0.0002898923439309
 79
     2
 49
26.86118323298722
 49
-16553.23227874064
 53
83.25300000000003
 43
42953.93277862805
 44
-6510.444957126259
 45
39.75591911914366
 46
0.0002898923439309
 79
     2
 49
26.86118323298722
 49
-16553.23227874064
 53
83.25300000000003
 43
42953.93277862805
 44
-6644.308825051766
 45
39.75591911914366
 46
0.0002898923439309
 79
     2
 49
26.86118323298722
 49
-16553.23227874064
 53
83.25300000000003
 43
42953.93277862805
 44
-6778.184591987764
 45
39.75591911914366
 46
0.0002898923439309
 79
     2
 49
26.86118323298722
 49
-16553.23227874064
 53
83.25300000000003
 43
42953.93277862805
 44
-6912.048459913297
 45
39.75591911914366
 46
0.0002898923439309
 79
     2
 49
26.86118323298722
 49
-16553.23227874064
 53
83.25300000000003
 43
42953.93277862805
 44
-7045.912327838831
 45
39.75591911914366
 46
0.0002898923439309
 79
     2
 49
26.86118323298722
 49
-16553.23227874064
 53
83.25300000000003
 43
42953.93277862805
 44
-7179.776195764339
 45
39.75591911914366
 46
0.0002898923439309
 79
     2
 49
26.86118323298722
 49
-16553.23227874064
 53
83.25300000000003
 43
42953.93277862805
 44
-7313.640063689845
 45
39.75591911914366
 46
0.0002898923439309
 79
     2
 49
26.86118323298722
 49
-16553.23227874064
 53
83.25300000000003
 43
42953.93277862805
 44
-7447.503931615379
 45
39.75591911914366
 46
0.0002898923439309
 79
     2
 49
26.86118323298722
 49
-16553.23227874064
 53
83.25300000000003
 43
42953.93277862805
 44
-7581.367799540913
 45
39.75591911914366
 46
0.0002898923439309
 79
     2
 49
26.86118323298722
 49
-16553.23227874064
 53
83.25300000000003
 43
42953.93277862805
 44
-7715.23166746642
 45
39.75591911914366
 46
0.0002898923439309
 79
     2
 49
26.86118323298722
 49
-16553.23227874064
 53
83.25300000000003
 43
42953.93277862805
 44
-7849.095535391928
 45
39.75591911914366
 46
0.0002898923439309
 79
     2
 49
26.86118323298722
 49
-16553.23227874064
 53
83.25300000000003
 43
42953.93277862805
 44
-7982.959403317437
 45
39.75591911914366
 46
0.0002898923439309
 79
     2
 49
26.86118323298722
 49
-16553.23227874064
 53
83.25300000000003
 43
42953.93277862805
 44
-8116.823271242969
 45
39.75591911914366
 46
0.0002898923439309
 79
     2
 49
26.86118323298722
 49
-16553.23227874064
 53
83.25300000000003
 43
42953.93277862805
 44
-8250.687139168503
 45
39.75591911914366
 46
0.0002898923439309
 79
     2
 49
26.86118323298722
 49
-16553.23227874064
 53
83.25300000000003
 43
42953.93277862805
 44
-8384.551007094009
 45
39.75591911914366
 46
0.0002898923439309
 79
     2
 49
26.86118323298722
 49
-16553.23227874064
 53
83.25300000000003
 43
42953.93277862805
 44
-8518.414875019518
 45
39.75591911914366
 46
0.0002898923439309
 79
     2
 49
26.86118323298722
 49
-16553.23227874064
 53
83.25300000000003
 43
42953.93277862805
 44
-8652.278742945053
 45
39.75591911914366
 46
0.0002898923439309
 79
     2
 49
26.86118323298722
 49
-16553.23227874064
 53
83.25300000000003
 43
42953.93277862805
 44
-8786.142610870587
 45
39.75591911914366
 46
0.0002898923439309
 79
     2
 49
26.86118323298722
 49
-16553.23227874064
 53
83.25300000000003
 43
42953.93277862805
 44
-8920.006478796093
 45
39.75591911914366
 46
0.0002898923439309
 79
     2
 49
26.86118323298722
 49
-16553.23227874064
 53
83.25300000000003
 43
42953.93277862805
 44
-9053.870346721602
 45
39.75591911914366
 46
0.0002898923439309
 79
     2
 49
26.86118323298722
 49
-16553.23227874064
 53
83.25300000000003
 43
42953.93277862805
 44
-9187.734214647134
 45
39.75591911914366
 46
0.0002898923439309
 79
     2
 49
26.86118323298722
 49
-16553.23227874064
 53
83.25300000000003
 43
42953.93277862805
 44
-9321.598082572668
 45
39.75591911914366
 46
0.0002898923439309
 79
     2
 49
26.86118323298722
 49
-16553.23227874064
 53
83.25300000000003
 43
42953.93277862805
 44
-9455.461950498177
 45
39.75591911914366
 46
0.0002898923439309
 79
     2
 49
26.86118323298722
 49
-16553.23227874064
 53
83.25300000000003
 43
42953.93277862805
 44
-9589.325818423683
 45
39.75591911914366
 46
0.0002898923439309
 79
     2
 49
26.86118323298722
 49
-16553.23227874064
 53
83.25300000000003
 43
42953.93277862805
 44
-9723.189686349217
 45
39.75591911914366
 46
0.0002898923439309
 79
     2
 49
26.86118323298722
 49
-16553.23227874064
 53
83.25300000000003
 43
42953.93277862805
 44
-9857.053554274751
 45
39.75591911914366
 46
0.0002898923439309
 79
     2
 49
26.86118323298722
 49
-16553.23227874064
 53
83.25300000000003
 43
42953.93277862805
 44
-9990.917422200256
 45
39.75591911914366
 46
0.0002898923439309
 79
     2
 49
26.86118323298722
 49
-16553.23227874064
 53
83.25300000000003
 43
42953.93277862805
 44
-10124.78129012576
 45
39.75591911914366
 46
0.0002898923439309
 79
     2
 49
26.86118323298722
 49
-16553.23227874064
 53
83.25300000000003
 43
42953.93277862805
 44
-10258.6451580513
 45
39.75591911914366
 46
0.0002898923439309
 79
     2
 49
26.86118323298722
 49
-16553.23227874064
 53
83.25300000000003
 43
42953.93277862805
 44
-10392.5090259768
 45
39.75591911914366
 46
0.0002898923439309
 79
     2
 49
26.86118323298722
 49
-16553.23227874064
 53
83.25300000000003
 43
42953.93277862805
 44
-10526.37289390234
 45
39.75591911914366
 46
0.0002898923439309
 79
     2
 49
26.86118323298722
 49
-16553.23227874064
 53
83.25300000000003
 43
42953.93277862805
 44
-10660.23676182785
 45
39.75591911914366
 46
0.0002898923439309
 79
     2
 49
26.86118323298722
 49
-16553.23227874064
 53
83.25300000000003
 43
42953.93277862805
 44
-10794.10062975335
 45
39.75591911914366
 46
0.0002898923439309
 79
     2
 49
26.86118323298722
 49
-16553.23227874064
 53
83.25300000000003
 43
42953.93277862805
 44
-10927.96449767889
 45
39.75591911914366
 46
0.0002898923439309
 79
     2
 49
26.86118323298722
 49
-16553.23227874064
 53
83.25300000000003
 43
42953.93277862805
 44
-11061.82836560442
 45
39.75591911914366
 46
0.0002898923439309
 79
     2
 49
26.86118323298722
 49
-16553.23227874064
 53
83.25300000000003
 43
42953.93277862805
 44
-11195.69223352993
 45
39.75591911914366
 46
0.0002898923439309
 79
     2
 49
26.86118323298722
 49
-16553.23227874064
 53
74.89100000000004
 43
42948.11225866052
 44
5122.952243453852
 45
39.75585674360782
 46
-0.0000110486508308
 79
     2
 49
13.20944850668065
 49
-1512.017376140759
 53
74.89100000000004
 43
42948.11225866052
 44
4989.088375528317
 45
39.75585674360782
 46
-0.0000110486508308
 79
     2
 49
13.20944850668065
 49
-1512.017376140759
 53
74.89100000000004
 43
42948.11225866052
 44
4855.224507602808
 45
39.75585674360782
 46
-0.0000110486508308
 79
     2
 49
13.20944850668065
 49
-1512.017376140759
 53
74.89100000000004
 43
42948.11225866052
 44
4721.360639677273
 45
39.75585674360782
 46
-0.0000110486508308
 79
     2
 49
13.20944850668065
 49
-1512.017376140759
 53
74.89100000000004
 43
42948.11225866052
 44
4587.496771751768
 45
39.75585674360782
 46
-0.0000110486508308
 79
     2
 49
13.20944850668065
 49
-1512.017376140759
 53
74.89100000000004
 43
42948.11225866052
 44
4453.632903826233
 45
39.75585674360782
 46
-0.0000110486508308
 79
     2
 49
13.20944850668065
 49
-1512.017376140759
 53
74.89100000000004
 43
42948.11225866052
 44
4319.769035900727
 45
39.75585674360782
 46
-0.0000110486508308
 79
     2
 49
13.20944850668065
 49
-1512.017376140759
 53
74.89100000000004
 43
42948.11225866052
 44
4185.905167975192
 45
39.75585674360782
 46
-0.0000110486508308
 79
     2
 49
13.20944850668065
 49
-1512.017376140759
 53
74.89100000000004
 43
42948.11225866052
 44
4052.044869752836
 45
39.75585674360782
 46
-0.0000110486508308
 79
     2
 49
13.20944850668065
 49
-1512.017376140759
 53
74.89100000000004
 43
42948.11225866052
 44
3918.181001827302
 45
39.75585674360782
 46
-0.0000110486508308
 79
     2
 49
13.20944850668065
 49
-1512.017376140759
 53
74.89100000000004
 43
42948.11225866052
 44
3784.317133901771
 45
39.75585674360782
 46
-0.0000110486508308
 79
     2
 49
13.20944850668065
 49
-1512.017376140759
 53
67.06200000000002
 43
42957.09470268349
 44
5162.380685597766
 45
39.75591328370574
 46
0.0002941157301779
 79
     2
 49
30.44290437825485
 49
-5783.884461102885
 53
67.06200000000002
 43
42957.09470268349
 44
5028.51693666237
 45
39.75591328370574
 46
0.0002941157301779
 79
     2
 49
30.44290437825485
 49
-5783.884461102885
 53
67.06200000000002
 43
42957.09470268349
 44
4894.653068736861
 45
39.75591328370574
 46
0.0002941157301779
 79
     2
 49
30.44290437825485
 49
-5783.884461102885
 53
67.06200000000002
 43
42957.09470268349
 44
4760.789200811326
 45
39.75591328370574
 46
0.0002941157301779
 79
     2
 49
30.44290437825485
 49
-5783.884461102885
 53
67.06200000000002
 43
42957.09470268349
 44
4626.925332885791
 45
39.75591328370574
 46
0.0002941157301779
 79
     2
 49
30.44290437825485
 49
-5783.884461102885
 53
67.06200000000002
 43
42957.09470268349
 44
4493.061464960286
 45
39.75591328370574
 46
0.0002941157301779
 79
     2
 49
30.44290437825485
 49
-5783.884461102885
 53
67.06200000000002
 43
42957.09470268349
 44
4359.19759703478
 45
39.75591328370574
 46
0.0002941157301779
 79
     2
 49
30.44290437825485
 49
-5783.884461102885
 53
67.06200000000002
 43
42957.09470268349
 44
4225.333729109242
 45
39.75591328370574
 46
0.0002941157301779
 79
     2
 49
30.44290437825485
 49
-5783.884461102885
 53
67.06200000000002
 43
42957.09470268349
 44
4091.469861183736
 45
39.75591328370574
 46
0.0002941157301779
 79
     2
 49
30.44290437825485
 49
-5783.884461102885
 53
67.06200000000002
 43
42957.09470268349
 44
3957.60242355505
 45
39.75591328370574
 46
0.0002941157301779
 79
     2
 49
30.44290437825485
 49
-5783.884461102885
 53
67.06200000000002
 43
42957.09470268349
 44
3823.738555629545
 45
39.75591328370574
 46
0.0002941157301779
 79
     2
 49
30.44290437825485
 49
-5783.884461102885
 53
67.06200000000002
 43
42957.09470268349
 44
3689.87468770401
 45
39.75591328370574
 46
0.0002941157301779
 79
     2
 49
30.44290437825485
 49
-5783.884461102885
 53
67.06200000000002
 43
42957.09470268349
 44
3556.010819778504
 45
39.75591328370574
 46
0.0002941157301779
 79
     2
 49
30.44290437825485
 49
-5783.884461102885
 53
67.06200000000002
 43
42957.09470268349
 44
3422.146951852995
 45
39.75591328370574
 46
0.0002941157301779
 79
     2
 49
30.44290437825485
 49
-5783.884461102885
 53
67.06200000000002
 43
42957.09470268349
 44
3288.28308392746
 45
39.75591328370574
 46
0.0002941157301779
 79
     2
 49
30.44290437825485
 49
-5783.884461102885
 53
67.06200000000002
 43
42957.09470268349
 44
3154.419216001951
 45
39.75591328370574
 46
0.0002941157301779
 79
     2
 49
30.44290437825485
 49
-5783.884461102885
 53
67.06200000000002
 43
42957.09470268349
 44
3020.55534807642
 45
39.75591328370574
 46
0.0002941157301779
 79
     2
 49
30.44290437825485
 49
-5783.884461102885
 53
67.06200000000002
 43
42957.09470268349
 44
2886.691480150886
 45
39.75591328370574
 46
0.0002941157301779
 79
     2
 49
30.44290437825485
 49
-5783.884461102885
 53
67.06200000000002
 43
42957.09470268349
 44
2752.82761222538
 45
39.75591328370574
 46
0.0002941157301779
 79
     2
 49
30.44290437825485
 49
-5783.884461102885
 53
67.06200000000002
 43
42957.09470268349
 44
2618.963744299871
 45
39.75591328370574
 46
0.0002941157301779
 79
     2
 49
30.44290437825485
 49
-5783.884461102885
 53
67.06200000000002
 43
42957.09470268349
 44
2485.099876374337
 45
39.75591328370574
 46
0.0002941157301779
 79
     2
 49
30.44290437825485
 49
-5783.884461102885
 53
67.06200000000002
 43
42957.09470268349
 44
2351.236008448802
 45
39.75591328370574
 46
0.0002941157301779
 79
     2
 49
30.44290437825485
 49
-5783.884461102885
 53
67.06200000000002
 43
42957.09470268349
 44
2217.372140523297
 45
39.75591328370574
 46
0.0002941157301779
 79
     2
 49
30.44290437825485
 49
-5783.884461102885
 53
67.06200000000002
 43
42957.09470268349
 44
2083.508272597788
 45
39.75591328370574
 46
0.0002941157301779
 79
     2
 49
30.44290437825485
 49
-5783.884461102885
 53
67.06200000000002
 43
42957.09470268349
 44
1949.644404672282
 45
39.75591328370574
 46
0.0002941157301779
 79
     2
 49
30.44290437825485
 49
-5783.884461102885
 53
67.06200000000002
 43
42957.09470268349
 44
1815.780536746747
 45
39.75591328370574
 46
0.0002941157301779
 79
     2
 49
30.44290437825485
 49
-5783.884461102885
 53
67.06200000000002
 43
42957.09470268349
 44
1681.916668821216
 45
39.75591328370574
 46
0.0002941157301779
 79
     2
 49
30.44290437825485
 49
-5783.884461102885
 53
67.06200000000002
 43
42957.09470268349
 44
1548.052800895707
 45
39.75591328370574
 46
0.0002941157301779
 79
     2
 49
30.44290437825485
 49
-5783.884461102885
 53
67.06200000000002
 43
42957.09470268349
 44
1414.188932970198
 45
39.75591328370574
 46
0.0002941157301779
 79
     2
 49
30.44290437825485
 49
-5783.884461102885
 53
67.06200000000002
 43
42957.09470268349
 44
1280.325065044663
 45
39.75591328370574
 46
0.0002941157301779
 79
     2
 49
30.44290437825485
 49
-5783.884461102885
 53
67.06200000000002
 43
42957.09470268349
 44
1146.461197119129
 45
39.75591328370574
 46
0.0002941157301779
 79
     2
 49
30.44290437825485
 49
-5783.884461102885
 53
67.06200000000002
 43
42957.09470268349
 44
1012.597329193623
 45
39.75591328370574
 46
0.0002941157301779
 79
     2
 49
30.44290437825485
 49
-5783.884461102885
 53
67.06200000000002
 43
42957.09470268349
 44
878.7334612681179
 45
39.75591328370574
 46
0.0002941157301779
 79
     2
 49
30.44290437825485
 49
-5783.884461102885
 53
67.06200000000002
 43
42957.09470268349
 44
744.8695933425833
 45
39.75591328370574
 46
0.0002941157301779
 79
     2
 49
30.44290437825485
 49
-5783.884461102885
 53
67.06200000000002
 43
42957.09470268349
 44
611.0057254170487
 45
39.75591328370574
 46
0.0002941157301779
 79
     2
 49
30.44290437825485
 49
-5783.884461102885
 53
67.06200000000002
 43
42957.09470268349
 44
477.1418574915396
 45
39.75591328370574
 46
0.0002941157301779
 79
     2
 49
30.44290437825485
 49
-5783.884461102885
 53
67.06200000000002
 43
42957.09470268349
 44
343.2779895660342
 45
39.75591328370574
 46
0.0002941157301779
 79
     2
 49
30.44290437825485
 49
-5783.884461102885
 53
67.06200000000002
 43
42957.09470268349
 44
209.4141216405251
 45
39.75591328370574
 46
0.0002941157301779
 79
     2
 49
30.44290437825485
 49
-5783.884461102885
 53
67.06200000000002
 43
42957.09470268349
 44
75.55025371499414
 45
39.75591328370574
 46
0.0002941157301779
 79
     2
 49
30.44290437825485
 49
-5783.884461102885
 53
67.06200000000002
 43
42957.09470268349
 44
-58.31361421054044
 45
39.75591328370574
 46
0.0002941157301779
 79
     2
 49
30.44290437825485
 49
-5783.884461102885
 53
52.43499999999998
 43
42933.39703202384
 44
5219.508667853896
 45
39.75587516365481
 46
-0.0001991838662986
 79
     2
 49
16.34697959064519
 49
-6569.897158549879
 53
52.43499999999998
 43
42933.39703202384
 44
5085.645275888796
 45
39.75587516365481
 46
-0.0001991838662986
 79
     2
 49
16.34697959064519
 49
-6569.897158549879
 53
52.43499999999998
 43
42933.39703202384
 44
4951.781407963261
 45
39.75587516365481
 46
-0.0001991838662986
 79
     2
 49
16.34697959064519
 49
-6569.897158549879
 53
52.43499999999998
 43
42933.39703202384
 44
4817.917540037727
 45
39.75587516365481
 46
-0.0001991838662986
 79
     2
 49
16.34697959064519
 49
-6569.897158549879
 53
52.43499999999998
 43
42933.39703202384
 44
4684.053672112222
 45
39.75587516365481
 46
-0.0001991838662986
 79
     2
 49
16.34697959064519
 49
-6569.897158549879
 53
52.43499999999998
 43
42933.39703202384
 44
4550.189804186713
 45
39.75587516365481
 46
-0.0001991838662986
 79
     2
 49
16.34697959064519
 49
-6569.897158549879
 53
52.43499999999998
 43
42933.39703202384
 44
4416.325936261181
 45
39.75587516365481
 46
-0.0001991838662986
 79
     2
 49
16.34697959064519
 49
-6569.897158549879
 53
52.43499999999998
 43
42933.39703202384
 44
4282.462068335672
 45
39.75587516365481
 46
-0.0001991838662986
 79
     2
 49
16.34697959064519
 49
-6569.897158549879
 53
52.43499999999998
 43
42933.39703202384
 44
4148.598200410138
 45
39.75587516365481
 46
-0.0001991838662986
 79
     2
 49
16.34697959064519
 49
-6569.897158549879
 53
52.43499999999998
 43
42933.39703202384
 44
4014.729572880419
 45
39.75587516365481
 46
-0.0001991838662986
 79
     2
 49
16.34697959064519
 49
-6569.897158549879
 53
52.43499999999998
 43
42933.39703202384
 44
3880.86570495491
 45
39.75587516365481
 46
-0.0001991838662986
 79
     2
 49
16.34697959064519
 49
-6569.897158549879
 53
52.43499999999998
 43
42933.39703202384
 44
3747.001837029405
 45
39.75587516365481
 46
-0.0001991838662986
 79
     2
 49
16.34697959064519
 49
-6569.897158549879
 53
52.43499999999998
 43
42933.39703202384
 44
3613.13796910387
 45
39.75587516365481
 46
-0.0001991838662986
 79
     2
 49
16.34697959064519
 49
-6569.897158549879
 53
52.43499999999998
 43
42933.39703202384
 44
3479.274101178336
 45
39.75587516365481
 46
-0.0001991838662986
 79
     2
 49
16.34697959064519
 49
-6569.897158549879
 53
52.43499999999998
 43
42933.39703202384
 44
3345.41023325283
 45
39.75587516365481
 46
-0.0001991838662986
 79
     2
 49
16.34697959064519
 49
-6569.897158549879
 53
52.43499999999998
 43
42933.39703202384
 44
3211.546365327325
 45
39.75587516365481
 46
-0.0001991838662986
 79
     2
 49
16.34697959064519
 49
-6569.897158549879
 53
52.43499999999998
 43
42933.39703202384
 44
3077.68249740179
 45
39.75587516365481
 46
-0.0001991838662986
 79
     2
 49
16.34697959064519
 49
-6569.897158549879
 53
52.43499999999998
 43
42933.39703202384
 44
2943.818629476281
 45
39.75587516365481
 46
-0.0001991838662986
 79
     2
 49
16.34697959064519
 49
-6569.897158549879
 53
52.43499999999998
 43
42933.39703202384
 44
2809.954761550747
 45
39.75587516365481
 46
-0.0001991838662986
 79
     2
 49
16.34697959064519
 49
-6569.897158549879
 53
52.43499999999998
 43
42933.39703202384
 44
2676.090893625241
 45
39.75587516365481
 46
-0.0001991838662986
 79
     2
 49
16.34697959064519
 49
-6569.897158549879
 53
52.43499999999998
 43
42933.39703202384
 44
2542.227025699732
 45
39.75587516365481
 46
-0.0001991838662986
 79
     2
 49
16.34697959064519
 49
-6569.897158549879
 53
52.43499999999998
 43
42933.39703202384
 44
2408.363157774201
 45
39.75587516365481
 46
-0.0001991838662986
 79
     2
 49
16.34697959064519
 49
-6569.897158549879
 53
52.43499999999998
 43
42933.39703202384
 44
2274.499289848666
 45
39.75587516365481
 46
-0.0001991838662986
 79
     2
 49
16.34697959064519
 49
-6569.897158549879
 53
52.43499999999998
 43
42933.39703202384
 44
2140.635421923157
 45
39.75587516365481
 46
-0.0001991838662986
 79
     2
 49
16.34697959064519
 49
-6569.897158549879
 53
52.43499999999998
 43
42933.39703202384
 44
2006.771553997623
 45
39.75587516365481
 46
-0.0001991838662986
 79
     2
 49
16.34697959064519
 49
-6569.897158549879
 53
52.43499999999998
 43
42933.39703202384
 44
1872.907686072117
 45
39.75587516365481
 46
-0.0001991838662986
 79
     2
 49
16.34697959064519
 49
-6569.897158549879
 53
52.43499999999998
 43
42933.39703202384
 44
1739.043818146582
 45
39.75587516365481
 46
-0.0001991838662986
 79
     2
 49
16.34697959064519
 49
-6569.897158549879
 53
52.43499999999998
 43
42933.39703202384
 44
1605.179950221077
 45
39.75587516365481
 46
-0.0001991838662986
 79
     2
 49
16.34697959064519
 49
-6569.897158549879
 53
52.43499999999998
 43
42933.39703202384
 44
1471.316082295568
 45
39.75587516365481
 46
-0.0001991838662986
 79
     2
 49
16.34697959064519
 49
-6569.897158549879
 53
52.43499999999998
 43
42933.39703202384
 44
1337.452214370033
 45
39.75587516365481
 46
-0.0001991838662986
 79
     2
 49
16.34697959064519
 49
-6569.897158549879
 53
52.43499999999998
 43
42933.39703202384
 44
1203.588346444498
 45
39.75587516365481
 46
-0.0001991838662986
 79
     2
 49
16.34697959064519
 49
-6569.897158549879
 53
52.43499999999998
 43
42933.39703202384
 44
1069.724478518993
 45
39.75587516365481
 46
-0.0001991838662986
 79
     2
 49
16.34697959064519
 49
-6569.897158549879
 53
52.43499999999998
 43
42933.39703202384
 44
935.8606105934841
 45
39.75587516365481
 46
-0.0001991838662986
 79
     2
 49
16.34697959064519
 49
-6569.897158549879
 53
52.43499999999998
 43
42933.39703202384
 44
801.9967426679496
 45
39.75587516365481
 46
-0.0001991838662986
 79
     2
 49
16.34697959064519
 49
-6569.897158549879
 53
52.43499999999998
 43
42933.39703202384
 44
668.1328747424441
 45
39.75587516365481
 46
-0.0001991838662986
 79
     2
 49
16.34697959064519
 49
-6569.897158549879
 53
52.43499999999998
 43
42933.39703202384
 44
534.2690068169095
 45
39.75587516365481
 46
-0.0001991838662986
 79
     2
 49
16.34697959064519
 49
-6569.897158549879
 53
52.43499999999998
 43
42933.39703202384
 44
400.405138891404
 45
39.75587516365481
 46
-0.0001991838662986
 79
     2
 49
16.34697959064519
 49
-6569.897158549879
 53
52.43499999999998
 43
42933.39703202384
 44
266.5412709658694
 45
39.75587516365481
 46
-0.0001991838662986
 79
     2
 49
16.34697959064519
 49
-6569.897158549879
 53
52.43499999999998
 43
42933.39703202384
 44
132.6774030403603
 45
39.75587516365481
 46
-0.0001991838662986
 79
     2
 49
16.34697959064519
 49
-6569.897158549879
 53
25.04599999999999
 43
42932.86498561865
 44
5115.828305878101
 45
39.75589259518684
 46
0.0003200987065788
 79
     2
 49
16.82972244591059
 49
-10734.28048182555
 53
25.04599999999999
 43
42932.86498561865
 44
4981.964437952595
 45
39.75589259518684
 46
0.0003200987065788
 79
     2
 49
16.82972244591059
 49
-10734.28048182555
 53
25.04599999999999
 43
42932.86498561865
 44
4848.10057002706
 45
39.75589259518684
 46
0.0003200987065788
 79
     2
 49
16.82972244591059
 49
-10734.28048182555
 53
25.04599999999999
 43
42932.86498561865
 44
4714.236702101551
 45
39.75589259518684
 46
0.0003200987065788
 79
     2
 49
16.82972244591059
 49
-10734.28048182555
 53
25.04599999999999
 43
42932.86498561865
 44
4580.372834176016
 45
39.75589259518684
 46
0.0003200987065788
 79
     2
 49
16.82972244591059
 49
-10734.28048182555
 53
25.04599999999999
 43
42932.86498561865
 44
4446.508966250507
 45
39.75589259518684
 46
0.0003200987065788
 79
     2
 49
16.82972244591059
 49
-10734.28048182555
 53
25.04599999999999
 43
42932.86498561865
 44
4312.645098325002
 45
39.75589259518684
 46
0.0003200987065788
 79
     2
 49
16.82972244591059
 49
-10734.28048182555
 53
25.04599999999999
 43
42932.86498561865
 44
4178.781230399468
 45
39.75589259518684
 46
0.0003200987065788
 79
     2
 49
16.82972244591059
 49
-10734.28048182555
 53
25.04599999999999
 43
42932.86498561865
 44
4044.917362473933
 45
39.75589259518684
 46
0.0003200987065788
 79
     2
 49
16.82972244591059
 49
-10734.28048182555
 53
25.04599999999999
 43
42932.86498561865
 44
3911.053494548428
 45
39.75589259518684
 46
0.0003200987065788
 79
     2
 49
16.82972244591059
 49
-10734.28048182555
 53
25.04599999999999
 43
42932.86498561865
 44
3777.189626622894
 45
39.75589259518684
 46
0.0003200987065788
 79
     2
 49
16.82972244591059
 49
-10734.28048182555
 53
25.04599999999999
 43
42932.86498561865
 44
3643.325758697385
 45
39.75589259518684
 46
0.0003200987065788
 79
     2
 49
16.82972244591059
 49
-10734.28048182555
 53
25.04599999999999
 43
42932.86498561865
 44
3509.461890771879
 45
39.75589259518684
 46
0.0003200987065788
 79
     2
 49
16.82972244591059
 49
-10734.28048182555
 53
25.04599999999999
 43
42932.86498561865
 44
3375.598022846344
 45
39.75589259518684
 46
0.0003200987065788
 79
     2
 49
16.82972244591059
 49
-10734.28048182555
 53
25.04599999999999
 43
42932.86498561865
 44
3241.734154920839
 45
39.75589259518684
 46
0.0003200987065788
 79
     2
 49
16.82972244591059
 49
-10734.28048182555
 53
25.04599999999999
 43
42932.86498561865
 44
3107.870286995304
 45
39.75589259518684
 46
0.0003200987065788
 79
     2
 49
16.82972244591059
 49
-10734.28048182555
 53
25.04599999999999
 43
42932.86498561865
 44
2974.00641906977
 45
39.75589259518684
 46
0.0003200987065788
 79
     2
 49
16.82972244591059
 49
-10734.28048182555
 53
25.04599999999999
 43
42932.86498561865
 44
2840.142551144261
 45
39.75589259518684
 46
0.0003200987065788
 79
     2
 49
16.82972244591059
 49
-10734.28048182555
 53
25.04599999999999
 43
42932.86498561865
 44
2706.278683218755
 45
39.75589259518684
 46
0.0003200987065788
 79
     2
 49
16.82972244591059
 49
-10734.28048182555
 53
25.04599999999999
 43
42932.86498561865
 44
2572.41481529322
 45
39.75589259518684
 46
0.0003200987065788
 79
     2
 49
16.82972244591059
 49
-10734.28048182555
 53
25.04599999999999
 43
42932.86498561865
 44
2438.550947367715
 45
39.75589259518684
 46
0.0003200987065788
 79
     2
 49
16.82972244591059
 49
-10734.28048182555
 53
25.04599999999999
 43
42932.86498561865
 44
2304.68707944218
 45
39.75589259518684
 46
0.0003200987065788
 79
     2
 49
16.82972244591059
 49
-10734.28048182555
 53
25.04599999999999
 43
42932.86498561865
 44
2170.823211516671
 45
39.75589259518684
 46
0.0003200987065788
 79
     2
 49
16.82972244591059
 49
-10734.28048182555
 53
25.04599999999999
 43
42932.86498561865
 44
2036.959343591166
 45
39.75589259518684
 46
0.0003200987065788
 79
     2
 49
16.82972244591059
 49
-10734.28048182555
 53
25.04599999999999
 43
42932.86498561865
 44
1903.095475665631
 45
39.75589259518684
 46
0.0003200987065788
 79
     2
 49
16.82972244591059
 49
-10734.28048182555
 53
25.04599999999999
 43
42932.86498561865
 44
1769.231607740096
 45
39.75589259518684
 46
0.0003200987065788
 79
     2
 49
16.82972244591059
 49
-10734.28048182555
 53
25.04599999999999
 43
42932.86498561865
 44
1635.367739814591
 45
39.75589259518684
 46
0.0003200987065788
 79
     2
 49
16.82972244591059
 49
-10734.28048182555
 53
25.04599999999999
 43
42932.86498561865
 44
1501.503871889085
 45
39.75589259518684
 46
0.0003200987065788
 79
     2
 49
16.82972244591059
 49
-10734.28048182555
 53
25.04599999999999
 43
42932.86498561865
 44
1367.640003963547
 45
39.75589259518684
 46
0.0003200987065788
 79
     2
 49
16.82972244591059
 49
-10734.28048182555
 53
25.04599999999999
 43
42932.86498561865
 44
1233.776136038013
 45
39.75589259518684
 46
0.0003200987065788
 79
     2
 49
16.82972244591059
 49
-10734.28048182555
 53
25.04599999999999
 43
42932.86498561865
 44
1099.912268112507
 45
39.75589259518684
 46
0.0003200987065788
 79
     2
 49
16.82972244591059
 49
-10734.28048182555
 53
25.04599999999999
 43
42932.86498561865
 44
966.0484001869981
 45
39.75589259518684
 46
0.0003200987065788
 79
     2
 49
16.82972244591059
 49
-10734.28048182555
 53
25.04599999999999
 43
42932.86498561865
 44
832.1845322614672
 45
39.75589259518684
 46
0.0003200987065788
 79
     2
 49
16.82972244591059
 49
-10734.28048182555
 53
25.04599999999999
 43
42932.86498561865
 44
698.3206643359326
 45
39.75589259518684
 46
0.0003200987065788
 79
     2
 49
16.82972244591059
 49
-10734.28048182555
 53
14.07599999999998
 43
42943.36322078891
 44
5232.466214308663
 45
39.75585659252739
 46
-0.0002922356444212
 79
     2
 49
9.670087838729893
 49
-3843.073153322045
 53
14.07599999999998
 43
42943.36322078891
 44
5098.602108402912
 45
39.75585659252739
 46
-0.0002922356444212
 79
     2
 49
9.670087838729893
 49
-3843.073153322045
 53
14.07599999999998
 43
42943.36322078891
 44
4964.738240477402
 45
39.75585659252739
 46
-0.0002922356444212
 79
     2
 49
9.670087838729893
 49
-3843.073153322045
 53
14.07599999999998
 43
42943.36322078891
 44
4830.874372551897
 45
39.75585659252739
 46
-0.0002922356444212
 79
     2
 49
9.670087838729893
 49
-3843.073153322045
 53
14.07599999999998
 43
42943.36322078891
 44
4697.010504626362
 45
39.75585659252739
 46
-0.0002922356444212
 79
     2
 49
9.670087838729893
 49
-3843.073153322045
 53
14.07599999999998
 43
42943.36322078891
 44
4563.146636700831
 45
39.75585659252739
 46
-0.0002922356444212
 79
     2
 49
9.670087838729893
 49
-3843.073153322045
 53
14.07599999999998
 43
42943.36322078891
 44
4429.282768775322
 45
39.75585659252739
 46
-0.0002922356444212
 79
     2
 49
9.670087838729893
 49
-3843.073153322045
 98
        1
 10
4907.651329588134
 20
1011.267649506825
  0
HATCH
  5
5879
330
67
100
AcDbEntity
  8
F_01 sichtbar
370
    13
100
AcDbHatch
 10
0.0
 20
0.0
 30
0.0
210
0.0
220
0.0
230
1.0
  2
BATT_INSULATION
 70
     0
 71
     0
 91
        1
 92
        1
 93
        4
 72
     1
 10
446.1054896136992
 20
825.6305358861318
 11
398.6054896137121
 21
811.5559807573436
 72
     1
 10
398.6054896137121
 20
811.5559807573436
 11
398.6054896137139
 21
683.6167033566589
 72
     1
 10
398.6054896137139
 20
683.6167033566589
 11
446.1054896136992
 21
683.6167033566589
 72
     1
 10
446.1054896136992
 20
683.6167033566589
 11
446.1054896136992
 21
825.6305358861318
 97
        0
 75
     0
 76
     2
 52
270.0
 41
46.15373762819272
 77
     0
 78
   528
 53
90.0
 43
-1372.014348938141
 44
17330.9417844046
 45
51.9229548317168
 46
15.42047143269309
 79
     2
 49
0.0
 49
-15.42047143269309
 53
75.92359999999998
 43
-1366.245131734615
 44
17323.23152561138
 45
-0.0000056969334701
 46
15.42045346660799
 79
     2
 49
3.750821949567946
 49
-1490.646556440059
 53
75.92359999999998
 43
-1314.322176902893
 44
17323.23152561138
 45
-0.0000056969334701
 46
15.42045346660799
 79
     2
 49
3.750821949567946
 49
-1490.646556440059
 53
75.92359999999998
 43
-1262.399222071181
 44
17323.23152561138
 45
-0.0000056969334701
 46
15.42045346660799
 79
     2
 49
3.750821949567946
 49
-1490.646556440059
 53
75.92359999999998
 43
-1210.476267239459
 44
17323.23152561138
 45
-0.0000056969334701
 46
15.42045346660799
 79
     2
 49
3.750821949567946
 49
-1490.646556440059
 53
75.92359999999998
 43
-1158.553312407746
 44
17323.23152561138
 45
-0.0000056969334701
 46
15.42045346660799
 79
     2
 49
3.750821949567946
 49
-1490.646556440059
 53
75.92359999999998
 43
-1106.630357576036
 44
17323.23152561138
 45
-0.0000056969334701
 46
15.42045346660799
 79
     2
 49
3.750821949567946
 49
-1490.646556440059
 53
75.92359999999998
 43
-1054.707402744312
 44
17323.23152561138
 45
-0.0000056969334701
 46
15.42045346660799
 79
     2
 49
3.750821949567946
 49
-1490.646556440059
 53
64.95440000000001
 43
-1322.854618378223
 44
17325.02769061865
 45
0.00001650432676
 46
15.42046743135135
 79
     2
 49
6.527892342656227
 49
-4163.59970204142
 53
64.95440000000001
 43
-1270.931663546502
 44
17325.02769061865
 45
0.00001650432676
 46
15.42046743135135
 79
     2
 49
6.527892342656227
 49
-4163.59970204142
 53
64.95440000000001
 43
-1219.008708714791
 44
17325.02769061865
 45
0.00001650432676
 46
15.42046743135135
 79
     2
 49
6.527892342656227
 49
-4163.59970204142
 53
64.95440000000001
 43
-1167.085753883068
 44
17325.02769061865
 45
0.00001650432676
 46
15.42046743135135
 79
     2
 49
6.527892342656227
 49
-4163.59970204142
 53
64.95440000000001
 43
-1115.162799051351
 44
17325.02769061865
 45
0.00001650432676
 46
15.42046743135135
 79
     2
 49
6.527892342656227
 49
-4163.59970204142
 53
64.95440000000001
 43
-1063.239844219634
 44
17325.02769061865
 45
0.00001650432676
 46
15.42046743135135
 79
     2
 49
6.527892342656227
 49
-4163.59970204142
 53
64.95440000000001
 43
-1011.316889387923
 44
17325.02769061865
 45
0.00001650432676
 46
15.42046743135135
 79
     2
 49
6.527892342656227
 49
-4163.59970204142
 53
64.95440000000001
 43
-959.3939345561993
 44
17325.02769061865
 45
0.00001650432676
 46
15.42046743135135
 79
     2
 49
6.527892342656227
 49
-4163.59970204142
 53
64.95440000000001
 43
-907.4723643366196
 44
17325.02769061865
 45
0.00001650432676
 46
15.42046743135135
 79
     2
 49
6.527892342656227
 49
-4163.59970204142
 53
64.95440000000001
 43
-855.5494095048979
 44
17325.02769061865
 45
0.00001650432676
 46
15.42046743135135
 79
     2
 49
6.527892342656227
 49
-4163.59970204142
 53
64.95440000000001
 43
-803.62645467318
 44
17325.02769061865
 45
0.00001650432676
 46
15.42046743135135
 79
     2
 49
6.527892342656227
 49
-4163.59970204142
 53
64.95440000000001
 43
-751.7034998414637
 44
17325.02769061865
 45
0.00001650432676
 46
15.42046743135135
 79
     2
 49
6.527892342656227
 49
-4163.59970204142
 53
64.95440000000001
 43
-699.7805450097457
 44
17325.02769061865
 45
0.00001650432676
 46
15.42046743135135
 79
     2
 49
6.527892342656227
 49
-4163.59970204142
 53
64.95440000000001
 43
-647.857590178035
 44
17325.02769061865
 45
0.00001650432676
 46
15.42046743135135
 79
     2
 49
6.527892342656227
 49
-4163.59970204142
 53
64.95440000000001
 43
-595.9346353463169
 44
17325.02769061865
 45
0.00001650432676
 46
15.42046743135135
 79
     2
 49
6.527892342656227
 49
-4163.59970204142
 53
64.95440000000001
 43
-544.0116805145954
 44
17325.02769061865
 45
0.00001650432676
 46
15.42046743135135
 79
     2
 49
6.527892342656227
 49
-4163.59970204142
 53
64.95440000000001
 43
-492.0887256828827
 44
17325.02769061865
 45
0.00001650432676
 46
15.42046743135135
 79
     2
 49
6.527892342656227
 49
-4163.59970204142
 53
64.95440000000001
 43
-440.1657708511666
 44
17325.02769061865
 45
0.00001650432676
 46
15.42046743135135
 79
     2
 49
6.527892342656227
 49
-4163.59970204142
 53
64.95440000000001
 43
-388.2428160194486
 44
17325.02769061865
 45
0.00001650432676
 46
15.42046743135135
 79
     2
 49
6.527892342656227
 49
-4163.59970204142
 53
64.95440000000001
 43
-336.3198611877269
 44
17325.02769061865
 45
0.00001650432676
 46
15.42046743135135
 79
     2
 49
6.527892342656227
 49
-4163.59970204142
 53
64.95440000000001
 43
-284.3969063560144
 44
17325.02769061865
 45
0.00001650432676
 46
15.42046743135135
 79
     2
 49
6.527892342656227
 49
-4163.59970204142
 53
64.95440000000001
 43
-232.4739515242982
 44
17325.02769061865
 45
0.00001650432676
 46
15.42046743135135
 79
     2
 49
6.527892342656227
 49
-4163.59970204142
 53
64.95440000000001
 43
-180.550996692582
 44
17325.02769061865
 45
0.00001650432676
 46
15.42046743135135
 79
     2
 49
6.527892342656227
 49
-4163.59970204142
 53
64.95440000000001
 43
-128.6280418608585
 44
17325.02769061865
 45
0.00001650432676
 46
15.42046743135135
 79
     2
 49
6.527892342656227
 49
-4163.59970204142
 53
64.95440000000001
 43
-76.70508702914594
 44
17325.02769061865
 45
0.00001650432676
 46
15.42046743135135
 79
     2
 49
6.527892342656227
 49
-4163.59970204142
 53
64.95440000000001
 43
-24.78213219743338
 44
17325.02769061865
 45
0.00001650432676
 46
15.42046743135135
 79
     2
 49
6.527892342656227
 49
-4163.59970204142
 53
64.95440000000001
 43
27.14082263428645
 44
17325.02769061865
 45
0.00001650432676
 46
15.42046743135135
 79
     2
 49
6.527892342656227
 49
-4163.59970204142
 53
64.95440000000001
 43
79.06377746599901
 44
17325.02769061865
 45
0.00001650432676
 46
15.42046743135135
 79
     2
 49
6.527892342656227
 49
-4163.59970204142
 53
64.95440000000001
 43
130.9867322977225
 44
17325.02769061865
 45
0.00001650432676
 46
15.42046743135135
 79
     2
 49
6.527892342656227
 49
-4163.59970204142
 53
64.95440000000001
 43
182.9096871294441
 44
17325.02769061865
 45
0.00001650432676
 46
15.42046743135135
 79
     2
 49
6.527892342656227
 49
-4163.59970204142
 53
64.95440000000001
 43
234.8326419611549
 44
17325.02769061865
 45
0.00001650432676
 46
15.42046743135135
 79
     2
 49
6.527892342656227
 49
-4163.59970204142
 53
64.95440000000001
 43
286.7555967928674
 44
17325.02769061865
 45
0.00001650432676
 46
15.42046743135135
 79
     2
 49
6.527892342656227
 49
-4163.59970204142
 53
64.95440000000001
 43
338.6785516245909
 44
17325.02769061865
 45
0.00001650432676
 46
15.42046743135135
 79
     2
 49
6.527892342656227
 49
-4163.59970204142
 53
64.95440000000001
 43
390.6015064563071
 44
17325.02769061865
 45
0.00001650432676
 46
15.42046743135135
 79
     2
 49
6.527892342656227
 49
-4163.59970204142
 53
37.5647
 43
-1365.332764649181
 44
17326.86973244113
 45
0.0000034821466346
 46
15.42046066973198
 79
     2
 49
6.340646629098716
 49
-2548.323746346614
 53
37.5647
 43
-1313.409717509987
 44
17326.86973244113
 45
0.0000034821466346
 46
15.42046066973198
 79
     2
 49
6.340646629098716
 49
-2548.323746346614
 53
37.5647
 43
-1261.486762678271
 44
17326.86973244113
 45
0.0000034821466346
 46
15.42046066973198
 79
     2
 49
6.340646629098716
 49
-2548.323746346614
 53
37.5647
 43
-1209.563807846558
 44
17326.86973244113
 45
0.0000034821466346
 46
15.42046066973198
 79
     2
 49
6.340646629098716
 49
-2548.323746346614
 53
37.5647
 43
-1157.640853014836
 44
17326.86973244113
 45
0.0000034821466346
 46
15.42046066973198
 79
     2
 49
6.340646629098716
 49
-2548.323746346614
 53
37.5647
 43
-1105.717898183113
 44
17326.86973244113
 45
0.0000034821466346
 46
15.42046066973198
 79
     2
 49
6.340646629098716
 49
-2548.323746346614
 53
37.5647
 43
-1053.794943351402
 44
17326.86973244113
 45
0.0000034821466346
 46
15.42046066973198
 79
     2
 49
6.340646629098716
 49
-2548.323746346614
 53
37.5647
 43
-1001.87198851969
 44
17326.86973244113
 45
0.0000034821466346
 46
15.42046066973198
 79
     2
 49
6.340646629098716
 49
-2548.323746346614
 53
37.5647
 43
-949.9490336879681
 44
17326.86973244113
 45
0.0000034821466346
 46
15.42046066973198
 79
     2
 49
6.340646629098716
 49
-2548.323746346614
 53
37.5647
 43
-898.0246942441244
 44
17326.86973244113
 45
0.0000034821466346
 46
15.42046066973198
 79
     2
 49
6.340646629098716
 49
-2548.323746346614
 53
37.5647
 43
-846.101739412412
 44
17326.86973244113
 45
0.0000034821466346
 46
15.42046066973198
 79
     2
 49
6.340646629098716
 49
-2548.323746346614
 53
37.5647
 43
-794.1787845806902
 44
17326.86973244113
 45
0.0000034821466346
 46
15.42046066973198
 79
     2
 49
6.340646629098716
 49
-2548.323746346614
 53
37.5647
 43
-742.2558297489667
 44
17326.86973244113
 45
0.0000034821466346
 46
15.42046066973198
 79
     2
 49
6.340646629098716
 49
-2548.323746346614
 53
37.5647
 43
-690.332874917256
 44
17326.86973244113
 45
0.0000034821466346
 46
15.42046066973198
 79
     2
 49
6.340646629098716
 49
-2548.323746346614
 53
37.5647
 43
-638.4099200855435
 44
17326.86973244113
 45
0.0000034821466346
 46
15.42046066973198
 79
     2
 49
6.340646629098716
 49
-2548.323746346614
 53
37.5647
 43
-586.4869652538218
 44
17326.86973244113
 45
0.0000034821466346
 46
15.42046066973198
 79
     2
 49
6.340646629098716
 49
-2548.323746346614
 53
37.5647
 43
-534.5640104221038
 44
17326.86973244113
 45
0.0000034821466346
 46
15.42046066973198
 79
     2
 49
6.340646629098716
 49
-2548.323746346614
 53
37.5647
 43
-482.6410555903875
 44
17326.86973244113
 45
0.0000034821466346
 46
15.42046066973198
 79
     2
 49
6.340646629098716
 49
-2548.323746346614
 53
37.5647
 43
-430.718100758675
 44
17326.86973244113
 45
0.0000034821466346
 46
15.42046066973198
 79
     2
 49
6.340646629098716
 49
-2548.323746346614
 53
37.5647
 43
-378.7951459269534
 44
17326.86973244113
 45
0.0000034821466346
 46
15.42046066973198
 79
     2
 49
6.340646629098716
 49
-2548.323746346614
 53
37.5647
 43
-326.8721910952408
 44
17326.86973244113
 45
0.0000034821466346
 46
15.42046066973198
 79
     2
 49
6.340646629098716
 49
-2548.323746346614
 53
37.5647
 43
-274.9492362635192
 44
17326.86973244113
 45
0.0000034821466346
 46
15.42046066973198
 79
     2
 49
6.340646629098716
 49
-2548.323746346614
 53
37.5647
 43
-223.0262814318066
 44
17326.86973244113
 45
0.0000034821466346
 46
15.42046066973198
 79
     2
 49
6.340646629098716
 49
-2548.323746346614
 53
37.5647
 43
-171.1033266000886
 44
17326.86973244113
 45
0.0000034821466346
 46
15.42046066973198
 79
     2
 49
6.340646629098716
 49
-2548.323746346614
 53
37.5647
 43
-119.1803717683724
 44
17326.86973244113
 45
0.0000034821466346
 46
15.42046066973198
 79
     2
 49
6.340646629098716
 49
-2548.323746346614
 53
37.5647
 43
-67.25741693665077
 44
17326.86973244113
 45
0.0000034821466346
 46
15.42046066973198
 79
     2
 49
6.340646629098716
 49
-2548.323746346614
 53
37.5647
 43
-15.33446210493821
 44
17326.86973244113
 45
0.0000034821466346
 46
15.42046066973198
 79
     2
 49
6.340646629098716
 49
-2548.323746346614
 53
37.5647
 43
36.58849272677253
 44
17326.86973244113
 45
0.0000034821466346
 46
15.42046066973198
 79
     2
 49
6.340646629098716
 49
-2548.323746346614
 53
37.5647
 43
88.51144755849601
 44
17326.86973244113
 45
0.0000034821466346
 46
15.42046066973198
 79
     2
 49
6.340646629098716
 49
-2548.323746346614
 53
37.5647
 43
140.4344023902122
 44
17326.86973244113
 45
0.0000034821466346
 46
15.42046066973198
 79
     2
 49
6.340646629098716
 49
-2548.323746346614
 53
37.5647
 43
192.3573572219302
 44
17326.86973244113
 45
0.0000034821466346
 46
15.42046066973198
 79
     2
 49
6.340646629098716
 49
-2548.323746346614
 53
37.5647
 43
244.2803120536519
 44
17326.86973244113
 45
0.0000034821466346
 46
15.42046066973198
 79
     2
 49
6.340646629098716
 49
-2548.323746346614
 53
37.5647
 43
296.2032668853608
 44
17326.86973244113
 45
0.0000034821466346
 46
15.42046066973198
 79
     2
 49
6.340646629098716
 49
-2548.323746346614
 53
37.5647
 43
348.126221717077
 44
17326.86973244113
 45
0.0000034821466346
 46
15.42046066973198
 79
     2
 49
6.340646629098716
 49
-2548.323746346614
 53
37.5647
 43
400.0491765487968
 44
17326.86973244113
 45
0.0000034821466346
 46
15.42046066973198
 79
     2
 49
6.340646629098716
 49
-2548.323746346614
 53
37.5647
 43
451.9721313805093
 44
17326.86973244113
 45
0.0000034821466346
 46
15.42046066973198
 79
     2
 49
6.340646629098716
 49
-2548.323746346614
 53
37.5647
 43
503.8950862122256
 44
17326.86973244113
 45
0.0000034821466346
 46
15.42046066973198
 79
     2
 49
6.340646629098716
 49
-2548.323746346614
 53
37.5647
 43
555.8180410439454
 44
17326.86973244113
 45
0.0000034821466346
 46
15.42046066973198
 79
     2
 49
6.340646629098716
 49
-2548.323746346614
 53
37.5647
 43
607.7409958756616
 44
17326.86973244113
 45
0.0000034821466346
 46
15.42046066973198
 79
     2
 49
6.340646629098716
 49
-2548.323746346614
 53
22.93839999999997
 43
-1349.022726077441
 44
17316.94204040045
 45
0.0000064260253368
 46
15.42047545591863
 79
     2
 49
11.80815684974733
 49
-2243.446094003543
 53
22.93839999999997
 43
-1297.099909706936
 44
17316.94204040045
 45
0.0000064260253368
 46
15.42047545591863
 79
     2
 49
11.80815684974733
 49
-2243.446094003543
 53
22.93839999999997
 43
-1245.176954875214
 44
17316.94204040045
 45
0.0000064260253368
 46
15.42047545591863
 79
     2
 49
11.80815684974733
 49
-2243.446094003543
 53
22.93839999999997
 43
-1193.254000043502
 44
17316.94204040045
 45
0.0000064260253368
 46
15.42047545591863
 79
     2
 49
11.80815684974733
 49
-2243.446094003543
 53
22.93839999999997
 43
-1141.331045211789
 44
17316.94204040045
 45
0.0000064260253368
 46
15.42047545591863
 79
     2
 49
11.80815684974733
 49
-2243.446094003543
 53
22.93839999999997
 43
-1089.408090380068
 44
17316.94204040045
 45
0.0000064260253368
 46
15.42047545591863
 79
     2
 49
11.80815684974733
 49
-2243.446094003543
 53
22.93839999999997
 43
-1037.485135548351
 44
17316.94204040045
 45
0.0000064260253368
 46
15.42047545591863
 79
     2
 49
11.80815684974733
 49
-2243.446094003543
 53
22.93839999999997
 43
-985.5621807166334
 44
17316.94204040045
 45
0.0000064260253368
 46
15.42047545591863
 79
     2
 49
11.80815684974733
 49
-2243.446094003543
 53
22.93839999999997
 43
-933.639225884921
 44
17316.94204040045
 45
0.0000064260253368
 46
15.42047545591863
 79
     2
 49
11.80815684974733
 49
-2243.446094003543
 53
22.93839999999997
 43
-881.7139633663209
 44
17316.94204040045
 45
0.0000064260253368
 46
15.42047545591863
 79
     2
 49
11.80815684974733
 49
-2243.446094003543
 53
22.93839999999997
 43
-829.7910085346048
 44
17316.94204040045
 45
0.0000064260253368
 46
15.42047545591863
 79
     2
 49
11.80815684974733
 49
-2243.446094003543
 53
22.93839999999997
 43
-777.8680537028813
 44
17316.94204040045
 45
0.0000064260253368
 46
15.42047545591863
 79
     2
 49
11.80815684974733
 49
-2243.446094003543
 53
22.93839999999997
 43
-725.9450988711705
 44
17316.94204040045
 45
0.0000064260253368
 46
15.42047545591863
 79
     2
 49
11.80815684974733
 49
-2243.446094003543
 53
22.93839999999997
 43
-674.022144039458
 44
17316.94204040045
 45
0.0000064260253368
 46
15.42047545591863
 79
     2
 49
11.80815684974733
 49
-2243.446094003543
 53
22.93839999999997
 43
-622.0991892077363
 44
17316.94204040045
 45
0.0000064260253368
 46
15.42047545591863
 79
     2
 49
11.80815684974733
 49
-2243.446094003543
 53
22.93839999999997
 43
-570.1762343760183
 44
17316.94204040045
 45
0.0000064260253368
 46
15.42047545591863
 79
     2
 49
11.80815684974733
 49
-2243.446094003543
 53
22.93839999999997
 43
-518.2532795443021
 44
17316.94204040045
 45
0.0000064260253368
 46
15.42047545591863
 79
     2
 49
11.80815684974733
 49
-2243.446094003543
 53
22.93839999999997
 43
-466.3303247125841
 44
17316.94204040045
 45
0.0000064260253368
 46
15.42047545591863
 79
     2
 49
11.80815684974733
 49
-2243.446094003543
 53
22.93839999999997
 43
-414.4073698808734
 44
17316.94204040045
 45
0.0000064260253368
 46
15.42047545591863
 79
     2
 49
11.80815684974733
 49
-2243.446094003543
 53
22.93839999999997
 43
-362.4844150491554
 44
17316.94204040045
 45
0.0000064260253368
 46
15.42047545591863
 79
     2
 49
11.80815684974733
 49
-2243.446094003543
 53
22.93839999999997
 43
-310.5614602174337
 44
17316.94204040045
 45
0.0000064260253368
 46
15.42047545591863
 79
     2
 49
11.80815684974733
 49
-2243.446094003543
 53
22.93839999999997
 43
-258.6385053857211
 44
17316.94204040045
 45
0.0000064260253368
 46
15.42047545591863
 79
     2
 49
11.80815684974733
 49
-2243.446094003543
 53
22.93839999999997
 43
-206.7155505540049
 44
17316.94204040045
 45
0.0000064260253368
 46
15.42047545591863
 79
     2
 49
11.80815684974733
 49
-2243.446094003543
 53
22.93839999999997
 43
-154.7925957222869
 44
17316.94204040045
 45
0.0000064260253368
 46
15.42047545591863
 79
     2
 49
11.80815684974733
 49
-2243.446094003543
 53
22.93839999999997
 43
-102.8696408905652
 44
17316.94204040045
 45
0.0000064260253368
 46
15.42047545591863
 79
     2
 49
11.80815684974733
 49
-2243.446094003543
 53
22.93839999999997
 43
-50.94668605885272
 44
17316.94204040045
 45
0.0000064260253368
 46
15.42047545591863
 79
     2
 49
11.80815684974733
 49
-2243.446094003543
 53
22.93839999999997
 43
0.9762687728689343
 44
17316.94204040045
 45
0.0000064260253368
 46
15.42047545591863
 79
     2
 49
11.80815684974733
 49
-2243.446094003543
 53
22.93839999999997
 43
52.89922360458149
 44
17316.94204040045
 45
0.0000064260253368
 46
15.42047545591863
 79
     2
 49
11.80815684974733
 49
-2243.446094003543
 53
22.93839999999997
 43
104.8221784363031
 44
17316.94204040045
 45
0.0000064260253368
 46
15.42047545591863
 79
     2
 49
11.80815684974733
 49
-2243.446094003543
 53
22.93839999999997
 43
156.7451332680139
 44
17316.94204040045
 45
0.0000064260253368
 46
15.42047545591863
 79
     2
 49
11.80815684974733
 49
-2243.446094003543
 53
22.93839999999997
 43
208.6680880997264
 44
17316.94204040045
 45
0.0000064260253368
 46
15.42047545591863
 79
     2
 49
11.80815684974733
 49
-2243.446094003543
 53
22.93839999999997
 43
260.5910429314499
 44
17316.94204040045
 45
0.0000064260253368
 46
15.42047545591863
 79
     2
 49
11.80815684974733
 49
-2243.446094003543
 53
22.93839999999997
 43
312.5139977631661
 44
17316.94204040045
 45
0.0000064260253368
 46
15.42047545591863
 79
     2
 49
11.80815684974733
 49
-2243.446094003543
 53
22.93839999999997
 43
364.4369525948823
 44
17316.94204040045
 45
0.0000064260253368
 46
15.42047545591863
 79
     2
 49
11.80815684974733
 49
-2243.446094003543
 53
22.93839999999997
 43
416.3599074265984
 44
17316.94204040045
 45
0.0000064260253368
 46
15.42047545591863
 79
     2
 49
11.80815684974733
 49
-2243.446094003543
 53
22.93839999999997
 43
468.2828622583183
 44
17316.94204040045
 45
0.0000064260253368
 46
15.42047545591863
 79
     2
 49
11.80815684974733
 49
-2243.446094003543
 53
22.93839999999997
 43
520.2058170900309
 44
17316.94204040045
 45
0.0000064260253368
 46
15.42047545591863
 79
     2
 49
11.80815684974733
 49
-2243.446094003543
 53
22.93839999999997
 43
572.128771921747
 44
17316.94204040045
 45
0.0000064260253368
 46
15.42047545591863
 79
     2
 49
11.80815684974733
 49
-2243.446094003543
 53
22.93839999999997
 43
624.0517267534669
 44
17316.94204040045
 45
0.0000064260253368
 46
15.42047545591863
 79
     2
 49
11.80815684974733
 49
-2243.446094003543
 53
22.93839999999997
 43
675.9746815851794
 44
17316.94204040045
 45
0.0000064260253368
 46
15.42047545591863
 79
     2
 49
11.80815684974733
 49
-2243.446094003543
 53
15.10899999999998
 43
-1327.801606745901
 44
17323.69306298766
 45
51.92292317524827
 46
0.0000001396797961
 79
     2
 49
5.123664875318557
 49
-586.4794671091432
 53
15.10899999999998
 43
-1327.801606745901
 44
17339.11353442036
 45
51.92292317524827
 46
0.0000001396797961
 79
     2
 49
5.123664875318557
 49
-586.4794671091432
 53
15.10899999999998
 43
-1327.801606745901
 44
17354.53400585305
 45
51.92292317524827
 46
0.0000001396797961
 79
     2
 49
5.123664875318557
 49
-586.4794671091432
 53
15.10899999999998
 43
-1327.801606745901
 44
17369.95456959322
 45
51.92292317524827
 46
0.0000001396797961
 79
     2
 49
5.123664875318557
 49
-586.4794671091432
 53
15.10899999999998
 43
-1327.801606745901
 44
17385.37499487217
 45
51.92292317524827
 46
0.0000001396797961
 79
     2
 49
5.123664875318557
 49
-586.4794671091432
 53
15.10899999999998
 43
-1327.801606745901
 44
17400.79542015113
 45
51.92292317524827
 46
0.0000001396797961
 79
     2
 49
5.123664875318557
 49
-586.4794671091432
 53
15.10899999999998
 43
-1327.801606745901
 44
17416.21584543008
 45
51.92292317524827
 46
0.0000001396797961
 79
     2
 49
5.123664875318557
 49
-586.4794671091432
 53
15.10899999999998
 43
-1327.801606745901
 44
17431.63627070904
 45
51.92292317524827
 46
0.0000001396797961
 79
     2
 49
5.123664875318557
 49
-586.4794671091432
 53
15.10899999999998
 43
-1327.801606745901
 44
17447.05669598799
 45
51.92292317524827
 46
0.0000001396797961
 79
     2
 49
5.123664875318557
 49
-586.4794671091432
 53
15.10899999999998
 43
-1327.801606745901
 44
17462.47712126695
 45
51.92292317524827
 46
0.0000001396797961
 79
     2
 49
5.123664875318557
 49
-586.4794671091432
 53
6.747399999999972
 43
-1338.148074724955
 44
17321.54359111885
 45
51.92304656764545
 46
0.0000050432755578
 79
     2
 49
10.4188831934011
 49
-6420.647671753949
 53
6.747399999999972
 43
-1338.148074724955
 44
17336.96406255153
 45
51.92304656764545
 46
0.0000050432755578
 79
     2
 49
10.4188831934011
 49
-6420.647671753949
 53
6.747399999999972
 43
-1338.148074724955
 44
17352.38453398422
 45
51.92304656764545
 46
0.0000050432755578
 79
     2
 49
10.4188831934011
 49
-6420.647671753949
 53
6.747399999999972
 43
-1338.148074724955
 44
17367.80519003188
 45
51.92304656764545
 46
0.0000050432755578
 79
     2
 49
10.4188831934011
 49
-6420.647671753949
 53
6.747399999999972
 43
-1338.148074724955
 44
17383.22561531083
 45
51.92304656764545
 46
0.0000050432755578
 79
     2
 49
10.4188831934011
 49
-6420.647671753949
 53
6.747399999999972
 43
-1338.148074724955
 44
17398.64604058979
 45
51.92304656764545
 46
0.0000050432755578
 79
     2
 49
10.4188831934011
 49
-6420.647671753949
 53
6.747399999999972
 43
-1338.148074724955
 44
17414.06646586874
 45
51.92304656764545
 46
0.0000050432755578
 79
     2
 49
10.4188831934011
 49
-6420.647671753949
 53
6.747399999999972
 43
-1338.148074724955
 44
17429.48689114769
 45
51.92304656764545
 46
0.0000050432755578
 79
     2
 49
10.4188831934011
 49
-6420.647671753949
 53
6.747399999999972
 43
-1338.148074724955
 44
17444.90731642665
 45
51.92304656764545
 46
0.0000050432755578
 79
     2
 49
10.4188831934011
 49
-6420.647671753949
 53
6.747399999999972
 43
-1338.148074724955
 44
17460.32774170561
 45
51.92304656764545
 46
0.0000050432755578
 79
     2
 49
10.4188831934011
 49
-6420.647671753949
 53
6.747399999999972
 43
-1338.148074724955
 44
17475.74816698456
 45
51.92304656764545
 46
0.0000050432755578
 79
     2
 49
10.4188831934011
 49
-6420.647671753949
 53
6.747399999999972
 43
-1338.148074724955
 44
17491.16859226352
 45
51.92304656764545
 46
0.0000050432755578
 79
     2
 49
10.4188831934011
 49
-6420.647671753949
 53
6.747399999999972
 43
-1338.148074724955
 44
17506.58901754247
 45
51.92304656764545
 46
0.0000050432755578
 79
     2
 49
10.4188831934011
 49
-6420.647671753949
 53
6.747399999999972
 43
-1338.148074724955
 44
17522.00944282143
 45
51.92304656764545
 46
0.0000050432755578
 79
     2
 49
10.4188831934011
 49
-6420.647671753949
 53
6.747399999999972
 43
-1338.148074724955
 44
17537.43032963776
 45
51.92304656764545
 46
0.0000050432755578
 79
     2
 49
10.4188831934011
 49
-6420.647671753949
 53
6.747399999999972
 43
-1338.148074724955
 44
17552.85075491672
 45
51.92304656764545
 46
0.0000050432755578
 79
     2
 49
10.4188831934011
 49
-6420.647671753949
 53
6.747399999999972
 43
-1338.148074724955
 44
17568.27118019566
 45
51.92304656764545
 46
0.0000050432755578
 79
     2
 49
10.4188831934011
 49
-6420.647671753949
 53
6.747399999999972
 43
-1338.148074724955
 44
17583.69160547463
 45
51.92304656764545
 46
0.0000050432755578
 79
     2
 49
10.4188831934011
 49
-6420.647671753949
 53
6.747399999999972
 43
-1338.148074724955
 44
17599.11203075357
 45
51.92304656764545
 46
0.0000050432755578
 79
     2
 49
10.4188831934011
 49
-6420.647671753949
 53
6.747399999999972
 43
-1338.148074724955
 44
17614.53245603254
 45
51.92304656764545
 46
0.0000050432755578
 79
     2
 49
10.4188831934011
 49
-6420.647671753949
 53
6.747399999999972
 43
-1338.148074724955
 44
17629.95288131149
 45
51.92304656764545
 46
0.0000050432755578
 79
     2
 49
10.4188831934011
 49
-6420.647671753949
 53
6.747399999999972
 43
-1338.148074724955
 44
17645.37330659045
 45
51.92304656764545
 46
0.0000050432755578
 79
     2
 49
10.4188831934011
 49
-6420.647671753949
 53
6.747399999999972
 43
-1338.148074724955
 44
17660.79373186941
 45
51.92304656764545
 46
0.0000050432755578
 79
     2
 49
10.4188831934011
 49
-6420.647671753949
 53
6.747399999999972
 43
-1338.148074724955
 44
17676.21415714836
 45
51.92304656764545
 46
0.0000050432755578
 79
     2
 49
10.4188831934011
 49
-6420.647671753949
 53
6.747399999999972
 43
-1338.148074724955
 44
17691.6350439647
 45
51.92304656764545
 46
0.0000050432755578
 79
     2
 49
10.4188831934011
 49
-6420.647671753949
 53
6.747399999999972
 43
-1338.148074724955
 44
17707.05546924364
 45
51.92304656764545
 46
0.0000050432755578
 79
     2
 49
10.4188831934011
 49
-6420.647671753949
 53
6.747399999999972
 43
-1338.148074724955
 44
17722.4758945226
 45
51.92304656764545
 46
0.0000050432755578
 79
     2
 49
10.4188831934011
 49
-6420.647671753949
 53
6.747399999999972
 43
-1338.148074724955
 44
17737.89631980156
 45
51.92304656764545
 46
0.0000050432755578
 79
     2
 49
10.4188831934011
 49
-6420.647671753949
 53
6.747399999999972
 43
-1338.148074724955
 44
17753.31674508052
 45
51.92304656764545
 46
0.0000050432755578
 79
     2
 49
10.4188831934011
 49
-6420.647671753949
 53
6.747399999999972
 43
-1338.148074724955
 44
17768.73717035947
 45
51.92304656764545
 46
0.0000050432755578
 79
     2
 49
10.4188831934011
 49
-6420.647671753949
 53
6.747399999999972
 43
-1338.148074724955
 44
17784.15713410105
 45
51.92304656764545
 46
0.0000050432755578
 79
     2
 49
10.4188831934011
 49
-6420.647671753949
 53
6.747399999999972
 43
-1338.148074724955
 44
17799.57709784263
 45
51.92304656764545
 46
0.0000050432755578
 79
     2
 49
10.4188831934011
 49
-6420.647671753949
 53
6.747399999999972
 43
-1338.148074724955
 44
17814.9970615842
 45
51.92304656764545
 46
0.0000050432755578
 79
     2
 49
10.4188831934011
 49
-6420.647671753949
 53
6.747399999999972
 43
-1338.148074724955
 44
17830.41702532578
 45
51.92304656764545
 46
0.0000050432755578
 79
     2
 49
10.4188831934011
 49
-6420.647671753949
 53
6.747399999999972
 43
-1338.148074724955
 44
17845.84160444113
 45
51.92304656764545
 46
0.0000050432755578
 79
     2
 49
10.4188831934011
 49
-6420.647671753949
 53
6.747399999999972
 43
-1338.148074724955
 44
17861.26156818271
 45
51.92304656764545
 46
0.0000050432755578
 79
     2
 49
10.4188831934011
 49
-6420.647671753949
 53
6.747399999999972
 43
-1338.148074724955
 44
17876.68153192428
 45
51.92304656764545
 46
0.0000050432755578
 79
     2
 49
10.4188831934011
 49
-6420.647671753949
 53
6.747399999999972
 43
-1338.148074724955
 44
17892.10149566586
 45
51.92304656764545
 46
0.0000050432755578
 79
     2
 49
10.4188831934011
 49
-6420.647671753949
 53
6.747399999999972
 43
-1338.148074724955
 44
17907.52145940743
 45
51.92304656764545
 46
0.0000050432755578
 79
     2
 49
10.4188831934011
 49
-6420.647671753949
 53
6.747399999999972
 43
-1338.148074724955
 44
17922.94142314902
 45
51.92304656764545
 46
0.0000050432755578
 79
     2
 49
10.4188831934011
 49
-6420.647671753949
 53
6.747399999999972
 43
-1338.148074724955
 44
17938.3613868906
 45
51.92304656764545
 46
0.0000050432755578
 79
     2
 49
10.4188831934011
 49
-6420.647671753949
 53
6.747399999999972
 43
-1338.148074724955
 44
17953.78135063218
 45
51.92304656764545
 46
0.0000050432755578
 79
     2
 49
10.4188831934011
 49
-6420.647671753949
 53
6.747399999999972
 43
-1338.148074724955
 44
17969.20131437375
 45
51.92304656764545
 46
0.0000050432755578
 79
     2
 49
10.4188831934011
 49
-6420.647671753949
 53
6.747399999999972
 43
-1338.148074724955
 44
17984.62589348909
 45
51.92304656764545
 46
0.0000050432755578
 79
     2
 49
10.4188831934011
 49
-6420.647671753949
 53
6.747399999999972
 43
-1338.148074724955
 44
18000.04585723068
 45
51.92304656764545
 46
0.0000050432755578
 79
     2
 49
10.4188831934011
 49
-6420.647671753949
 53
6.747399999999972
 43
-1338.148074724955
 44
18015.46582097225
 45
51.92304656764545
 46
0.0000050432755578
 79
     2
 49
10.4188831934011
 49
-6420.647671753949
 53
6.747399999999972
 43
-1338.148074724955
 44
18030.88578471384
 45
51.92304656764545
 46
0.0000050432755578
 79
     2
 49
10.4188831934011
 49
-6420.647671753949
 53
6.747399999999972
 43
-1338.148074724955
 44
18046.30574845541
 45
51.92304656764545
 46
0.0000050432755578
 79
     2
 49
10.4188831934011
 49
-6420.647671753949
 53
6.747399999999972
 43
-1338.148074724955
 44
18061.725712197
 45
51.92304656764545
 46
0.0000050432755578
 79
     2
 49
10.4188831934011
 49
-6420.647671753949
 53
6.141599999999983
 43
-1360.306807236424
 44
17315.72768248664
 45
51.92281660003864
 46
-0.0000502503489585
 79
     2
 49
11.34925023651022
 49
-3592.016307598095
 53
6.141599999999983
 43
-1360.306807236424
 44
17331.14813776554
 45
51.92281660003864
 46
-0.0000502503489585
 79
     2
 49
11.34925023651022
 49
-3592.016307598095
 53
6.141599999999983
 43
-1360.306807236424
 44
17346.56860919823
 45
51.92281660003864
 46
-0.0000502503489585
 79
     2
 49
11.34925023651022
 49
-3592.016307598095
 53
6.141599999999983
 43
-1360.306807236424
 44
17361.98889601597
 45
51.92281660003864
 46
-0.0000502503489585
 79
     2
 49
11.34925023651022
 49
-3592.016307598095
 53
6.141599999999983
 43
-1360.306807236424
 44
17377.4097828323
 45
51.92281660003864
 46
-0.0000502503489585
 79
     2
 49
11.34925023651022
 49
-3592.016307598095
 53
6.141599999999983
 43
-1360.306807236424
 44
17392.83020811125
 45
51.92281660003864
 46
-0.0000502503489585
 79
     2
 49
11.34925023651022
 49
-3592.016307598095
 53
6.141599999999983
 43
-1360.306807236424
 44
17408.2506333902
 45
51.92281660003864
 46
-0.0000502503489585
 79
     2
 49
11.34925023651022
 49
-3592.016307598095
 53
6.141599999999983
 43
-1360.306807236424
 44
17423.67105866917
 45
51.92281660003864
 46
-0.0000502503489585
 79
     2
 49
11.34925023651022
 49
-3592.016307598095
 53
6.141599999999983
 43
-1360.306807236424
 44
17439.09148394812
 45
51.92281660003864
 46
-0.0000502503489585
 79
     2
 49
11.34925023651022
 49
-3592.016307598095
 53
6.141599999999983
 43
-1360.306807236424
 44
17454.51190922708
 45
51.92281660003864
 46
-0.0000502503489585
 79
     2
 49
11.34925023651022
 49
-3592.016307598095
 53
6.141599999999983
 43
-1360.306807236424
 44
17469.93233450604
 45
51.92281660003864
 46
-0.0000502503489585
 79
     2
 49
11.34925023651022
 49
-3592.016307598095
 53
6.141599999999983
 43
-1360.306807236424
 44
17485.35275978499
 45
51.92281660003864
 46
-0.0000502503489585
 79
     2
 49
11.34925023651022
 49
-3592.016307598095
 53
6.141599999999983
 43
-1360.306807236424
 44
17500.77318506395
 45
51.92281660003864
 46
-0.0000502503489585
 79
     2
 49
11.34925023651022
 49
-3592.016307598095
 53
6.141599999999983
 43
-1360.306807236424
 44
17516.19361034289
 45
51.92281660003864
 46
-0.0000502503489585
 79
     2
 49
11.34925023651022
 49
-3592.016307598095
 53
6.141599999999983
 43
-1360.306807236424
 44
17531.61403562186
 45
51.92281660003864
 46
-0.0000502503489585
 79
     2
 49
11.34925023651022
 49
-3592.016307598095
 53
6.141599999999983
 43
-1360.306807236424
 44
17547.03492243818
 45
51.92281660003864
 46
-0.0000502503489585
 79
     2
 49
11.34925023651022
 49
-3592.016307598095
 53
6.141599999999983
 43
-1360.306807236424
 44
17562.45534771715
 45
51.92281660003864
 46
-0.0000502503489585
 79
     2
 49
11.34925023651022
 49
-3592.016307598095
 53
6.141599999999983
 43
-1360.306807236424
 44
17577.87577299609
 45
51.92281660003864
 46
-0.0000502503489585
 79
     2
 49
11.34925023651022
 49
-3592.016307598095
 53
6.141599999999983
 43
-1360.306807236424
 44
17593.29619827505
 45
51.92281660003864
 46
-0.0000502503489585
 79
     2
 49
11.34925023651022
 49
-3592.016307598095
 53
6.141599999999983
 43
-1360.306807236424
 44
17608.71662355401
 45
51.92281660003864
 46
-0.0000502503489585
 79
     2
 49
11.34925023651022
 49
-3592.016307598095
 53
6.141599999999983
 43
-1360.306807236424
 44
17624.13704883296
 45
51.92281660003864
 46
-0.0000502503489585
 79
     2
 49
11.34925023651022
 49
-3592.016307598095
 53
6.141599999999983
 43
-1360.306807236424
 44
17639.55747411192
 45
51.92281660003864
 46
-0.0000502503489585
 79
     2
 49
11.34925023651022
 49
-3592.016307598095
 53
6.141599999999983
 43
-1360.306807236424
 44
17654.97789939087
 45
51.92281660003864
 46
-0.0000502503489585
 79
     2
 49
11.34925023651022
 49
-3592.016307598095
 53
6.141599999999983
 43
-1360.306807236424
 44
17670.39832466983
 45
51.92281660003864
 46
-0.0000502503489585
 79
     2
 49
11.34925023651022
 49
-3592.016307598095
 53
6.141599999999983
 43
-1360.306807236424
 44
17685.81874994879
 45
51.92281660003864
 46
-0.0000502503489585
 79
     2
 49
11.34925023651022
 49
-3592.016307598095
 53
173.8580000000001
 43
-1349.022726077441
 44
17329.52103389919
 45
0.0000964139596056
 46
15.42045503177991
 79
     2
 49
11.34925023651006
 49
-3592.016307598054
 53
173.8580000000001
 43
-1297.099909706936
 44
17329.52103389919
 45
0.0000964139596056
 46
15.42045503177991
 79
     2
 49
11.34925023651006
 49
-3592.016307598054
 53
173.8580000000001
 43
-1245.176954875214
 44
17329.52103389919
 45
0.0000964139596056
 46
15.42045503177991
 79
     2
 49
11.34925023651006
 49
-3592.016307598054
 53
173.8580000000001
 43
-1193.254000043502
 44
17329.52103389919
 45
0.0000964139596056
 46
15.42045503177991
 79
     2
 49
11.34925023651006
 49
-3592.016307598054
 53
173.8580000000001
 43
-1141.331045211789
 44
17329.52103389919
 45
0.0000964139596056
 46
15.42045503177991
 79
     2
 49
11.34925023651006
 49
-3592.016307598054
 53
173.8580000000001
 43
-1089.408090380068
 44
17329.52103389919
 45
0.0000964139596056
 46
15.42045503177991
 79
     2
 49
11.34925023651006
 49
-3592.016307598054
 53
173.8580000000001
 43
-1037.485135548351
 44
17329.52103389919
 45
0.0000964139596056
 46
15.42045503177991
 79
     2
 49
11.34925023651006
 49
-3592.016307598054
 53
173.8580000000001
 43
-985.5621807166334
 44
17329.52103389919
 45
0.0000964139596056
 46
15.42045503177991
 79
     2
 49
11.34925023651006
 49
-3592.016307598054
 53
173.8580000000001
 43
-933.639225884921
 44
17329.52103389919
 45
0.0000964139596056
 46
15.42045503177991
 79
     2
 49
11.34925023651006
 49
-3592.016307598054
 53
173.8580000000001
 43
-881.7139633663209
 44
17329.52103389919
 45
0.0000964139596056
 46
15.42045503177991
 79
     2
 49
11.34925023651006
 49
-3592.016307598054
 53
173.8580000000001
 43
-829.7910085346048
 44
17329.52103389919
 45
0.0000964139596056
 46
15.42045503177991
 79
     2
 49
11.34925023651006
 49
-3592.016307598054
 53
173.8580000000001
 43
-777.8680537028813
 44
17329.52103389919
 45
0.0000964139596056
 46
15.42045503177991
 79
     2
 49
11.34925023651006
 49
-3592.016307598054
 53
173.8580000000001
 43
-725.9450988711705
 44
17329.52103389919
 45
0.0000964139596056
 46
15.42045503177991
 79
     2
 49
11.34925023651006
 49
-3592.016307598054
 53
173.8580000000001
 43
-674.022144039458
 44
17329.52103389919
 45
0.0000964139596056
 46
15.42045503177991
 79
     2
 49
11.34925023651006
 49
-3592.016307598054
 53
173.8580000000001
 43
-622.0991892077363
 44
17329.52103389919
 45
0.0000964139596056
 46
15.42045503177991
 79
     2
 49
11.34925023651006
 49
-3592.016307598054
 53
173.8580000000001
 43
-570.1762343760183
 44
17329.52103389919
 45
0.0000964139596056
 46
15.42045503177991
 79
     2
 49
11.34925023651006
 49
-3592.016307598054
 53
173.8580000000001
 43
-518.2532795443021
 44
17329.52103389919
 45
0.0000964139596056
 46
15.42045503177991
 79
     2
 49
11.34925023651006
 49
-3592.016307598054
 53
173.8580000000001
 43
-466.3303247125841
 44
17329.52103389919
 45
0.0000964139596056
 46
15.42045503177991
 79
     2
 49
11.34925023651006
 49
-3592.016307598054
 53
173.8580000000001
 43
-414.4073698808734
 44
17329.52103389919
 45
0.0000964139596056
 46
15.42045503177991
 79
     2
 49
11.34925023651006
 49
-3592.016307598054
 53
173.8580000000001
 43
-362.4844150491554
 44
17329.52103389919
 45
0.0000964139596056
 46
15.42045503177991
 79
     2
 49
11.34925023651006
 49
-3592.016307598054
 53
173.8580000000001
 43
-310.5614602174337
 44
17329.52103389919
 45
0.0000964139596056
 46
15.42045503177991
 79
     2
 49
11.34925023651006
 49
-3592.016307598054
 53
173.8580000000001
 43
-258.6385053857211
 44
17329.52103389919
 45
0.0000964139596056
 46
15.42045503177991
 79
     2
 49
11.34925023651006
 49
-3592.016307598054
 53
173.8580000000001
 43
-206.7155505540049
 44
17329.52103389919
 45
0.0000964139596056
 46
15.42045503177991
 79
     2
 49
11.34925023651006
 49
-3592.016307598054
 53
173.8580000000001
 43
-154.7925957222869
 44
17329.52103389919
 45
0.0000964139596056
 46
15.42045503177991
 79
     2
 49
11.34925023651006
 49
-3592.016307598054
 53
173.8580000000001
 43
-102.8696408905652
 44
17329.52103389919
 45
0.0000964139596056
 46
15.42045503177991
 79
     2
 49
11.34925023651006
 49
-3592.016307598054
 53
173.8580000000001
 43
-50.94668605885272
 44
17329.52103389919
 45
0.0000964139596056
 46
15.42045503177991
 79
     2
 49
11.34925023651006
 49
-3592.016307598054
 53
173.8580000000001
 43
0.9762687728689343
 44
17329.52103389919
 45
0.0000964139596056
 46
15.42045503177991
 79
     2
 49
11.34925023651006
 49
-3592.016307598054
 53
173.8580000000001
 43
52.89922360458149
 44
17329.52103389919
 45
0.0000964139596056
 46
15.42045503177991
 79
     2
 49
11.34925023651006
 49
-3592.016307598054
 53
173.8580000000001
 43
104.8221784363031
 44
17329.52103389919
 45
0.0000964139596056
 46
15.42045503177991
 79
     2
 49
11.34925023651006
 49
-3592.016307598054
 53
173.8580000000001
 43
156.7451332680139
 44
17329.52103389919
 45
0.0000964139596056
 46
15.42045503177991
 79
     2
 49
11.34925023651006
 49
-3592.016307598054
 53
173.8580000000001
 43
208.6680880997264
 44
17329.52103389919
 45
0.0000964139596056
 46
15.42045503177991
 79
     2
 49
11.34925023651006
 49
-3592.016307598054
 53
173.8580000000001
 43
260.5910429314499
 44
17329.52103389919
 45
0.0000964139596056
 46
15.42045503177991
 79
     2
 49
11.34925023651006
 49
-3592.016307598054
 53
173.8580000000001
 43
312.5139977631661
 44
17329.52103389919
 45
0.0000964139596056
 46
15.42045503177991
 79
     2
 49
11.34925023651006
 49
-3592.016307598054
 53
173.8580000000001
 43
364.4369525948823
 44
17329.52103389919
 45
0.0000964139596056
 46
15.42045503177991
 79
     2
 49
11.34925023651006
 49
-3592.016307598054
 53
173.8580000000001
 43
416.3599074265984
 44
17329.52103389919
 45
0.0000964139596056
 46
15.42045503177991
 79
     2
 49
11.34925023651006
 49
-3592.016307598054
 53
173.8580000000001
 43
468.2828622583183
 44
17329.52103389919
 45
0.0000964139596056
 46
15.42045503177991
 79
     2
 49
11.34925023651006
 49
-3592.016307598054
 53
173.8580000000001
 43
520.2058170900309
 44
17329.52103389919
 45
0.0000964139596056
 46
15.42045503177991
 79
     2
 49
11.34925023651006
 49
-3592.016307598054
 53
173.8580000000001
 43
572.128771921747
 44
17329.52103389919
 45
0.0000964139596056
 46
15.42045503177991
 79
     2
 49
11.34925023651006
 49
-3592.016307598054
 53
173.8580000000001
 43
624.0517267534669
 44
17329.52103389919
 45
0.0000964139596056
 46
15.42045503177991
 79
     2
 49
11.34925023651006
 49
-3592.016307598054
 53
173.8580000000001
 43
675.9746815851794
 44
17329.52103389919
 45
0.0000964139596056
 46
15.42045503177991
 79
     2
 49
11.34925023651006
 49
-3592.016307598054
 53
173.8580000000001
 43
727.8976364168993
 44
17329.52103389919
 45
0.0000964139596056
 46
15.42045503177991
 79
     2
 49
11.34925023651006
 49
-3592.016307598054
 53
173.8580000000001
 43
779.8205912486155
 44
17329.52103389919
 45
0.0000964139596056
 46
15.42045503177991
 79
     2
 49
11.34925023651006
 49
-3592.016307598054
 53
173.8580000000001
 43
831.7435460803316
 44
17329.52103389919
 45
0.0000964139596056
 46
15.42045503177991
 79
     2
 49
11.34925023651006
 49
-3592.016307598054
 53
173.8580000000001
 43
883.6665009120478
 44
17329.52103389919
 45
0.0000964139596056
 46
15.42045503177991
 79
     2
 49
11.34925023651006
 49
-3592.016307598054
 53
173.8580000000001
 43
935.5894557437677
 44
17329.52103389919
 45
0.0000964139596056
 46
15.42045503177991
 79
     2
 49
11.34925023651006
 49
-3592.016307598054
 53
173.8580000000001
 43
987.5124105754839
 44
17329.52103389919
 45
0.0000964139596056
 46
15.42045503177991
 79
     2
 49
11.34925023651006
 49
-3592.016307598054
 53
173.8580000000001
 43
1039.4353654072
 44
17329.52103389919
 45
0.0000964139596056
 46
15.42045503177991
 79
     2
 49
11.34925023651006
 49
-3592.016307598054
 53
173.8580000000001
 43
1091.358320238923
 44
17329.52103389919
 45
0.0000964139596056
 46
15.42045503177991
 79
     2
 49
11.34925023651006
 49
-3592.016307598054
 53
173.8580000000001
 43
1143.281275070629
 44
17329.52103389919
 45
0.0000964139596056
 46
15.42045503177991
 79
     2
 49
11.34925023651006
 49
-3592.016307598054
 53
173.8580000000001
 43
1195.204229902345
 44
17329.52103389919
 45
0.0000964139596056
 46
15.42045503177991
 79
     2
 49
11.34925023651006
 49
-3592.016307598054
 53
173.8580000000001
 43
1247.127184734069
 44
17329.52103389919
 45
0.0000964139596056
 46
15.42045503177991
 79
     2
 49
11.34925023651006
 49
-3592.016307598054
 53
173.8580000000001
 43
1299.050139565785
 44
17329.52103389919
 45
0.0000964139596056
 46
15.42045503177991
 79
     2
 49
11.34925023651006
 49
-3592.016307598054
 53
173.8580000000001
 43
1350.973094397504
 44
17329.52103389919
 45
0.0000964139596056
 46
15.42045503177991
 79
     2
 49
11.34925023651006
 49
-3592.016307598054
 53
173.8580000000001
 43
1402.896049229221
 44
17329.52103389919
 45
0.0000964139596056
 46
15.42045503177991
 79
     2
 49
11.34925023651006
 49
-3592.016307598054
 53
173.8580000000001
 43
1454.819004060933
 44
17329.52103389919
 45
0.0000964139596056
 46
15.42045503177991
 79
     2
 49
11.34925023651006
 49
-3592.016307598054
 53
173.8580000000001
 43
1506.741958892649
 44
17329.52103389919
 45
0.0000964139596056
 46
15.42045503177991
 79
     2
 49
11.34925023651006
 49
-3592.016307598054
 53
173.8580000000001
 43
1558.664913724373
 44
17329.52103389919
 45
0.0000964139596056
 46
15.42045503177991
 79
     2
 49
11.34925023651006
 49
-3592.016307598054
 53
173.8580000000001
 43
1610.587868556082
 44
17329.52103389919
 45
0.0000964139596056
 46
15.42045503177991
 79
     2
 49
11.34925023651006
 49
-3592.016307598054
 53
173.8580000000001
 43
1662.510823387801
 44
17329.52103389919
 45
0.0000964139596056
 46
15.42045503177991
 79
     2
 49
11.34925023651006
 49
-3592.016307598054
 53
173.8580000000001
 43
1714.433778219518
 44
17329.52103389919
 45
0.0000964139596056
 46
15.42045503177991
 79
     2
 49
11.34925023651006
 49
-3592.016307598054
 53
173.8580000000001
 43
1766.356733051234
 44
17329.52103389919
 45
0.0000964139596056
 46
15.42045503177991
 79
     2
 49
11.34925023651006
 49
-3592.016307598054
 53
173.8580000000001
 43
1818.27968788295
 44
17329.52103389919
 45
0.0000964139596056
 46
15.42045503177991
 79
     2
 49
11.34925023651006
 49
-3592.016307598054
 53
173.8580000000001
 43
1870.202642714667
 44
17329.52103389919
 45
0.0000964139596056
 46
15.42045503177991
 79
     2
 49
11.34925023651006
 49
-3592.016307598054
 53
173.8580000000001
 43
1922.125597546386
 44
17329.52103389919
 45
0.0000964139596056
 46
15.42045503177991
 79
     2
 49
11.34925023651006
 49
-3592.016307598054
 53
173.8580000000001
 43
1974.048552378102
 44
17329.52103389919
 45
0.0000964139596056
 46
15.42045503177991
 79
     2
 49
11.34925023651006
 49
-3592.016307598054
 53
173.8580000000001
 43
2025.971507209822
 44
17329.52103389919
 45
0.0000964139596056
 46
15.42045503177991
 79
     2
 49
11.34925023651006
 49
-3592.016307598054
 53
173.8580000000001
 43
2077.894462041539
 44
17329.52103389919
 45
0.0000964139596056
 46
15.42045503177991
 79
     2
 49
11.34925023651006
 49
-3592.016307598054
 53
173.8580000000001
 43
2129.817416873247
 44
17329.52103389919
 45
0.0000964139596056
 46
15.42045503177991
 79
     2
 49
11.34925023651006
 49
-3592.016307598054
 53
173.8580000000001
 43
2181.740371704971
 44
17329.52103389919
 45
0.0000964139596056
 46
15.42045503177991
 79
     2
 49
11.34925023651006
 49
-3592.016307598054
 53
173.253
 43
-1327.801606745901
 44
17323.69306298766
 45
-0.0001124430909783
 46
15.42047771894057
 79
     2
 49
10.4188831934011
 49
-6420.647671753946
 53
173.253
 43
-1275.878882682869
 44
17323.69306298766
 45
-0.0001124430909783
 46
15.42047771894057
 79
     2
 49
10.4188831934011
 49
-6420.647671753946
 53
173.253
 43
-1223.955927851151
 44
17323.69306298766
 45
-0.0001124430909783
 46
15.42047771894057
 79
     2
 49
10.4188831934011
 49
-6420.647671753946
 53
173.253
 43
-1172.032973019435
 44
17323.69306298766
 45
-0.0001124430909783
 46
15.42047771894057
 79
     2
 49
10.4188831934011
 49
-6420.647671753946
 53
173.253
 43
-1120.110018187723
 44
17323.69306298766
 45
-0.0001124430909783
 46
15.42047771894057
 79
     2
 49
10.4188831934011
 49
-6420.647671753946
 53
173.253
 43
-1068.187063356006
 44
17323.69306298766
 45
-0.0001124430909783
 46
15.42047771894057
 79
     2
 49
10.4188831934011
 49
-6420.647671753946
 53
173.253
 43
-1016.264108524283
 44
17323.69306298766
 45
-0.0001124430909783
 46
15.42047771894057
 79
     2
 49
10.4188831934011
 49
-6420.647671753946
 53
173.253
 43
-964.3411536925723
 44
17323.69306298766
 45
-0.0001124430909783
 46
15.42047771894057
 79
     2
 49
10.4188831934011
 49
-6420.647671753946
 53
173.253
 43
-912.4181988608507
 44
17323.69306298766
 45
-0.0001124430909783
 46
15.42047771894057
 79
     2
 49
10.4188831934011
 49
-6420.647671753946
 53
173.253
 43
-860.49709017864
 44
17323.69306298766
 45
-0.0001124430909783
 46
15.42047771894057
 79
     2
 49
10.4188831934011
 49
-6420.647671753946
 53
173.253
 43
-808.5741353469275
 44
17323.69306298766
 45
-0.0001124430909783
 46
15.42047771894057
 79
     2
 49
10.4188831934011
 49
-6420.647671753946
 53
173.253
 43
-756.6511805152059
 44
17323.69306298766
 45
-0.0001124430909783
 46
15.42047771894057
 79
     2
 49
10.4188831934011
 49
-6420.647671753946
 53
173.253
 43
-704.7282256834951
 44
17323.69306298766
 45
-0.0001124430909783
 46
15.42047771894057
 79
     2
 49
10.4188831934011
 49
-6420.647671753946
 53
173.253
 43
-652.8052708517716
 44
17323.69306298766
 45
-0.0001124430909783
 46
15.42047771894057
 79
     2
 49
10.4188831934011
 49
-6420.647671753946
 53
173.253
 43
-600.8823160200499
 44
17323.69306298766
 45
-0.0001124430909783
 46
15.42047771894057
 79
     2
 49
10.4188831934011
 49
-6420.647671753946
 53
173.253
 43
-548.9593611883374
 44
17323.69306298766
 45
-0.0001124430909783
 46
15.42047771894057
 79
     2
 49
10.4188831934011
 49
-6420.647671753946
 53
173.253
 43
-497.0364063566266
 44
17323.69306298766
 45
-0.0001124430909783
 46
15.42047771894057
 79
     2
 49
10.4188831934011
 49
-6420.647671753946
 53
173.253
 43
-445.1134515249032
 44
17323.69306298766
 45
-0.0001124430909783
 46
15.42047771894057
 79
     2
 49
10.4188831934011
 49
-6420.647671753946
 53
173.253
 43
-393.190496693187
 44
17323.69306298766
 45
-0.0001124430909783
 46
15.42047771894057
 79
     2
 49
10.4188831934011
 49
-6420.647671753946
 53
173.253
 43
-341.267541861469
 44
17323.69306298766
 45
-0.0001124430909783
 46
15.42047771894057
 79
     2
 49
10.4188831934011
 49
-6420.647671753946
 53
173.253
 43
-289.3445870297583
 44
17323.69306298766
 45
-0.0001124430909783
 46
15.42047771894057
 79
     2
 49
10.4188831934011
 49
-6420.647671753946
 53
173.253
 43
-237.4216321980457
 44
17323.69306298766
 45
-0.0001124430909783
 46
15.42047771894057
 79
     2
 49
10.4188831934011
 49
-6420.647671753946
 53
173.253
 43
-185.4986773663222
 44
17323.69306298766
 45
-0.0001124430909783
 46
15.42047771894057
 79
     2
 49
10.4188831934011
 49
-6420.647671753946
 53
173.253
 43
-133.5757225346024
 44
17323.69306298766
 45
-0.0001124430909783
 46
15.42047771894057
 79
     2
 49
10.4188831934011
 49
-6420.647671753946
 53
173.253
 43
-81.65276770288983
 44
17323.69306298766
 45
-0.0001124430909783
 46
15.42047771894057
 79
     2
 49
10.4188831934011
 49
-6420.647671753946
 53
173.253
 43
-29.72981287117182
 44
17323.69306298766
 45
-0.0001124430909783
 46
15.42047771894057
 79
     2
 49
10.4188831934011
 49
-6420.647671753946
 53
173.253
 43
22.19314196054438
 44
17323.69306298766
 45
-0.0001124430909783
 46
15.42047771894057
 79
     2
 49
10.4188831934011
 49
-6420.647671753946
 53
173.253
 43
74.1160967922624
 44
17323.69306298766
 45
-0.0001124430909783
 46
15.42047771894057
 79
     2
 49
10.4188831934011
 49
-6420.647671753946
 53
173.253
 43
126.0390516239786
 44
17323.69306298766
 45
-0.0001124430909783
 46
15.42047771894057
 79
     2
 49
10.4188831934011
 49
-6420.647671753946
 53
173.253
 43
177.9620064556948
 44
17323.69306298766
 45
-0.0001124430909783
 46
15.42047771894057
 79
     2
 49
10.4188831934011
 49
-6420.647671753946
 53
173.253
 43
229.8849612874128
 44
17323.69306298766
 45
-0.0001124430909783
 46
15.42047771894057
 79
     2
 49
10.4188831934011
 49
-6420.647671753946
 53
173.253
 43
281.8079161191308
 44
17323.69306298766
 45
-0.0001124430909783
 46
15.42047771894057
 79
     2
 49
10.4188831934011
 49
-6420.647671753946
 53
173.253
 43
333.730870950847
 44
17323.69306298766
 45
-0.0001124430909783
 46
15.42047771894057
 79
     2
 49
10.4188831934011
 49
-6420.647671753946
 53
173.253
 43
385.6538257825596
 44
17323.69306298766
 45
-0.0001124430909783
 46
15.42047771894057
 79
     2
 49
10.4188831934011
 49
-6420.647671753946
 53
173.253
 43
437.5767806142757
 44
17323.69306298766
 45
-0.0001124430909783
 46
15.42047771894057
 79
     2
 49
10.4188831934011
 49
-6420.647671753946
 53
173.253
 43
489.499735445992
 44
17323.69306298766
 45
-0.0001124430909783
 46
15.42047771894057
 79
     2
 49
10.4188831934011
 49
-6420.647671753946
 53
173.253
 43
541.4226902777154
 44
17323.69306298766
 45
-0.0001124430909783
 46
15.42047771894057
 79
     2
 49
10.4188831934011
 49
-6420.647671753946
 53
173.253
 43
593.3456451094279
 44
17323.69306298766
 45
-0.0001124430909783
 46
15.42047771894057
 79
     2
 49
10.4188831934011
 49
-6420.647671753946
 53
173.253
 43
645.2685999411515
 44
17323.69306298766
 45
-0.0001124430909783
 46
15.42047771894057
 79
     2
 49
10.4188831934011
 49
-6420.647671753946
 53
173.253
 43
697.1915547728603
 44
17323.69306298766
 45
-0.0001124430909783
 46
15.42047771894057
 79
     2
 49
10.4188831934011
 49
-6420.647671753946
 53
173.253
 43
749.1145096045802
 44
17323.69306298766
 45
-0.0001124430909783
 46
15.42047771894057
 79
     2
 49
10.4188831934011
 49
-6420.647671753946
 53
173.253
 43
801.0374644362965
 44
17323.69306298766
 45
-0.0001124430909783
 46
15.42047771894057
 79
     2
 49
10.4188831934011
 49
-6420.647671753946
 53
173.253
 43
852.9604192680126
 44
17323.69306298766
 45
-0.0001124430909783
 46
15.42047771894057
 79
     2
 49
10.4188831934011
 49
-6420.647671753946
 53
173.253
 43
904.8833740997288
 44
17323.69306298766
 45
-0.0001124430909783
 46
15.42047771894057
 79
     2
 49
10.4188831934011
 49
-6420.647671753946
 53
173.253
 43
956.8063289314487
 44
17323.69306298766
 45
-0.0001124430909783
 46
15.42047771894057
 79
     2
 49
10.4188831934011
 49
-6420.647671753946
 53
173.253
 43
1008.729283763165
 44
17323.69306298766
 45
-0.0001124430909783
 46
15.42047771894057
 79
     2
 49
10.4188831934011
 49
-6420.647671753946
 53
173.253
 43
1060.652238594877
 44
17323.69306298766
 45
-0.0001124430909783
 46
15.42047771894057
 79
     2
 49
10.4188831934011
 49
-6420.647671753946
 53
173.253
 43
1112.575193426597
 44
17323.69306298766
 45
-0.0001124430909783
 46
15.42047771894057
 79
     2
 49
10.4188831934011
 49
-6420.647671753946
 53
173.253
 43
1164.498148258317
 44
17323.69306298766
 45
-0.0001124430909783
 46
15.42047771894057
 79
     2
 49
10.4188831934011
 49
-6420.647671753946
 53
173.253
 43
1216.421103090033
 44
17323.69306298766
 45
-0.0001124430909783
 46
15.42047771894057
 79
     2
 49
10.4188831934011
 49
-6420.647671753946
 53
173.253
 43
1268.344057921749
 44
17323.69306298766
 45
-0.0001124430909783
 46
15.42047771894057
 79
     2
 49
10.4188831934011
 49
-6420.647671753946
 53
173.253
 43
1320.267012753462
 44
17323.69306298766
 45
-0.0001124430909783
 46
15.42047771894057
 79
     2
 49
10.4188831934011
 49
-6420.647671753946
 53
173.253
 43
1372.189967585178
 44
17323.69306298766
 45
-0.0001124430909783
 46
15.42047771894057
 79
     2
 49
10.4188831934011
 49
-6420.647671753946
 53
173.253
 43
1424.112922416894
 44
17323.69306298766
 45
-0.0001124430909783
 46
15.42047771894057
 79
     2
 49
10.4188831934011
 49
-6420.647671753946
 53
173.253
 43
1476.035877248618
 44
17323.69306298766
 45
-0.0001124430909783
 46
15.42047771894057
 79
     2
 49
10.4188831934011
 49
-6420.647671753946
 53
173.253
 43
1527.95883208033
 44
17323.69306298766
 45
-0.0001124430909783
 46
15.42047771894057
 79
     2
 49
10.4188831934011
 49
-6420.647671753946
 53
173.253
 43
1579.881786912054
 44
17323.69306298766
 45
-0.0001124430909783
 46
15.42047771894057
 79
     2
 49
10.4188831934011
 49
-6420.647671753946
 53
173.253
 43
1631.804741743763
 44
17323.69306298766
 45
-0.0001124430909783
 46
15.42047771894057
 79
     2
 49
10.4188831934011
 49
-6420.647671753946
 53
173.253
 43
1683.727696575483
 44
17323.69306298766
 45
-0.0001124430909783
 46
15.42047771894057
 79
     2
 49
10.4188831934011
 49
-6420.647671753946
 53
173.253
 43
1735.650651407199
 44
17323.69306298766
 45
-0.0001124430909783
 46
15.42047771894057
 79
     2
 49
10.4188831934011
 49
-6420.647671753946
 53
173.253
 43
1787.573606238915
 44
17323.69306298766
 45
-0.0001124430909783
 46
15.42047771894057
 79
     2
 49
10.4188831934011
 49
-6420.647671753946
 53
173.253
 43
1839.496561070631
 44
17323.69306298766
 45
-0.0001124430909783
 46
15.42047771894057
 79
     2
 49
10.4188831934011
 49
-6420.647671753946
 53
173.253
 43
1891.419515902347
 44
17323.69306298766
 45
-0.0001124430909783
 46
15.42047771894057
 79
     2
 49
10.4188831934011
 49
-6420.647671753946
 53
173.253
 43
1943.342470734067
 44
17323.69306298766
 45
-0.0001124430909783
 46
15.42047771894057
 79
     2
 49
10.4188831934011
 49
-6420.647671753946
 53
173.253
 43
1995.265425565784
 44
17323.69306298766
 45
-0.0001124430909783
 46
15.42047771894057
 79
     2
 49
10.4188831934011
 49
-6420.647671753946
 53
173.253
 43
2047.188380397496
 44
17323.69306298766
 45
-0.0001124430909783
 46
15.42047771894057
 79
     2
 49
10.4188831934011
 49
-6420.647671753946
 53
173.253
 43
2099.11133522922
 44
17323.69306298766
 45
-0.0001124430909783
 46
15.42047771894057
 79
     2
 49
10.4188831934011
 49
-6420.647671753946
 53
173.253
 43
2151.034290060936
 44
17323.69306298766
 45
-0.0001124430909783
 46
15.42047771894057
 79
     2
 49
10.4188831934011
 49
-6420.647671753946
 53
173.253
 43
2202.957244892652
 44
17323.69306298766
 45
-0.0001124430909783
 46
15.42047771894057
 79
     2
 49
10.4188831934011
 49
-6420.647671753946
 53
173.253
 43
2254.880199724365
 44
17323.69306298766
 45
-0.0001124430909783
 46
15.42047771894057
 79
     2
 49
10.4188831934011
 49
-6420.647671753946
 53
173.253
 43
2306.803154556081
 44
17323.69306298766
 45
-0.0001124430909783
 46
15.42047771894057
 79
     2
 49
10.4188831934011
 49
-6420.647671753946
 53
173.253
 43
2358.726109387797
 44
17323.69306298766
 45
-0.0001124430909783
 46
15.42047771894057
 79
     2
 49
10.4188831934011
 49
-6420.647671753946
 53
173.253
 43
2410.649064219521
 44
17323.69306298766
 45
-0.0001124430909783
 46
15.42047771894057
 79
     2
 49
10.4188831934011
 49
-6420.647671753946
 53
173.253
 43
2462.572019051233
 44
17323.69306298766
 45
-0.0001124430909783
 46
15.42047771894057
 79
     2
 49
10.4188831934011
 49
-6420.647671753946
 53
173.253
 43
2514.494973882942
 44
17323.69306298766
 45
-0.0001124430909783
 46
15.42047771894057
 79
     2
 49
10.4188831934011
 49
-6420.647671753946
 53
173.253
 43
2566.417928714666
 44
17323.69306298766
 45
-0.0001124430909783
 46
15.42047771894057
 79
     2
 49
10.4188831934011
 49
-6420.647671753946
 53
173.253
 43
2618.340883546382
 44
17323.69306298766
 45
-0.0001124430909783
 46
15.42047771894057
 79
     2
 49
10.4188831934011
 49
-6420.647671753946
 53
173.253
 43
2670.263838378098
 44
17323.69306298766
 45
-0.0001124430909783
 46
15.42047771894057
 79
     2
 49
10.4188831934011
 49
-6420.647671753946
 53
173.253
 43
2722.186793209818
 44
17323.69306298766
 45
-0.0001124430909783
 46
15.42047771894057
 79
     2
 49
10.4188831934011
 49
-6420.647671753946
 53
173.253
 43
2774.109748041534
 44
17323.69306298766
 45
-0.0001124430909783
 46
15.42047771894057
 79
     2
 49
10.4188831934011
 49
-6420.647671753946
 53
173.253
 43
2826.032702873254
 44
17323.69306298766
 45
-0.0001124430909783
 46
15.42047771894057
 79
     2
 49
10.4188831934011
 49
-6420.647671753946
 53
173.253
 43
2877.95565770497
 44
17323.69306298766
 45
-0.0001124430909783
 46
15.42047771894057
 79
     2
 49
10.4188831934011
 49
-6420.647671753946
 53
173.253
 43
2929.878612536686
 44
17323.69306298766
 45
-0.0001124430909783
 46
15.42047771894057
 79
     2
 49
10.4188831934011
 49
-6420.647671753946
 53
173.253
 43
2981.801567368399
 44
17323.69306298766
 45
-0.0001124430909783
 46
15.42047771894057
 79
     2
 49
10.4188831934011
 49
-6420.647671753946
 53
173.253
 43
3033.724522200119
 44
17323.69306298766
 45
-0.0001124430909783
 46
15.42047771894057
 79
     2
 49
10.4188831934011
 49
-6420.647671753946
 53
173.253
 43
3085.647477031835
 44
17323.69306298766
 45
-0.0001124430909783
 46
15.42047771894057
 79
     2
 49
10.4188831934011
 49
-6420.647671753946
 53
173.253
 43
3137.570431863547
 44
17323.69306298766
 45
-0.0001124430909783
 46
15.42047771894057
 79
     2
 49
10.4188831934011
 49
-6420.647671753946
 53
173.253
 43
3189.493386695267
 44
17323.69306298766
 45
-0.0001124430909783
 46
15.42047771894057
 79
     2
 49
10.4188831934011
 49
-6420.647671753946
 53
173.253
 43
3241.416341526984
 44
17323.69306298766
 45
-0.0001124430909783
 46
15.42047771894057
 79
     2
 49
10.4188831934011
 49
-6420.647671753946
 53
173.253
 43
3293.343911732467
 44
17323.69306298766
 45
-0.0001124430909783
 46
15.42047771894057
 79
     2
 49
10.4188831934011
 49
-6420.647671753946
 53
173.253
 43
3345.266866564183
 44
17323.69306298766
 45
-0.0001124430909783
 46
15.42047771894057
 79
     2
 49
10.4188831934011
 49
-6420.647671753946
 53
173.253
 43
3397.1898213959
 44
17323.69306298766
 45
-0.0001124430909783
 46
15.42047771894057
 79
     2
 49
10.4188831934011
 49
-6420.647671753946
 53
173.253
 43
3449.112776227612
 44
17323.69306298766
 45
-0.0001124430909783
 46
15.42047771894057
 79
     2
 49
10.4188831934011
 49
-6420.647671753946
 53
173.253
 43
3501.035731059328
 44
17323.69306298766
 45
-0.0001124430909783
 46
15.42047771894057
 79
     2
 49
10.4188831934011
 49
-6420.647671753946
 53
173.253
 43
3552.958685891052
 44
17323.69306298766
 45
-0.0001124430909783
 46
15.42047771894057
 79
     2
 49
10.4188831934011
 49
-6420.647671753946
 53
173.253
 43
3604.881640722768
 44
17323.69306298766
 45
-0.0001124430909783
 46
15.42047771894057
 79
     2
 49
10.4188831934011
 49
-6420.647671753946
 53
173.253
 43
3656.804595554484
 44
17323.69306298766
 45
-0.0001124430909783
 46
15.42047771894057
 79
     2
 49
10.4188831934011
 49
-6420.647671753946
 53
173.253
 43
3708.727550386204
 44
17323.69306298766
 45
-0.0001124430909783
 46
15.42047771894057
 79
     2
 49
10.4188831934011
 49
-6420.647671753946
 53
173.253
 43
3760.650505217917
 44
17323.69306298766
 45
-0.0001124430909783
 46
15.42047771894057
 79
     2
 49
10.4188831934011
 49
-6420.647671753946
 53
173.253
 43
3812.573460049633
 44
17323.69306298766
 45
-0.0001124430909783
 46
15.42047771894057
 79
     2
 49
10.4188831934011
 49
-6420.647671753946
 53
173.253
 43
3864.496414881357
 44
17323.69306298766
 45
-0.0001124430909783
 46
15.42047771894057
 79
     2
 49
10.4188831934011
 49
-6420.647671753946
 53
173.253
 43
3916.419369713065
 44
17323.69306298766
 45
-0.0001124430909783
 46
15.42047771894057
 79
     2
 49
10.4188831934011
 49
-6420.647671753946
 53
173.253
 43
3968.342324544781
 44
17323.69306298766
 45
-0.0001124430909783
 46
15.42047771894057
 79
     2
 49
10.4188831934011
 49
-6420.647671753946
 53
173.253
 43
4020.265279376501
 44
17323.69306298766
 45
-0.0001124430909783
 46
15.42047771894057
 79
     2
 49
10.4188831934011
 49
-6420.647671753946
 53
173.253
 43
4072.188234208217
 44
17323.69306298766
 45
-0.0001124430909783
 46
15.42047771894057
 79
     2
 49
10.4188831934011
 49
-6420.647671753946
 53
173.253
 43
4124.111189039933
 44
17323.69306298766
 45
-0.0001124430909783
 46
15.42047771894057
 79
     2
 49
10.4188831934011
 49
-6420.647671753946
 53
173.253
 43
4176.034143871652
 44
17323.69306298766
 45
-0.0001124430909783
 46
15.42047771894057
 79
     2
 49
10.4188831934011
 49
-6420.647671753946
 53
173.253
 43
4227.957098703369
 44
17323.69306298766
 45
-0.0001124430909783
 46
15.42047771894057
 79
     2
 49
10.4188831934011
 49
-6420.647671753946
 53
173.253
 43
4279.880053535086
 44
17323.69306298766
 45
-0.0001124430909783
 46
15.42047771894057
 79
     2
 49
10.4188831934011
 49
-6420.647671753946
 53
173.253
 43
4331.803008366809
 44
17323.69306298766
 45
-0.0001124430909783
 46
15.42047771894057
 79
     2
 49
10.4188831934011
 49
-6420.647671753946
 53
173.253
 43
4383.725963198518
 44
17323.69306298766
 45
-0.0001124430909783
 46
15.42047771894057
 79
     2
 49
10.4188831934011
 49
-6420.647671753946
 53
173.253
 43
4435.648918030234
 44
17323.69306298766
 45
-0.0001124430909783
 46
15.42047771894057
 79
     2
 49
10.4188831934011
 49
-6420.647671753946
 53
173.253
 43
4487.571872861954
 44
17323.69306298766
 45
-0.0001124430909783
 46
15.42047771894057
 79
     2
 49
10.4188831934011
 49
-6420.647671753946
 53
173.253
 43
4539.49482769367
 44
17323.69306298766
 45
-0.0001124430909783
 46
15.42047771894057
 79
     2
 49
10.4188831934011
 49
-6420.647671753946
 53
173.253
 43
4591.41778252539
 44
17323.69306298766
 45
-0.0001124430909783
 46
15.42047771894057
 79
     2
 49
10.4188831934011
 49
-6420.647671753946
 53
173.253
 43
4643.340737357106
 44
17323.69306298766
 45
-0.0001124430909783
 46
15.42047771894057
 79
     2
 49
10.4188831934011
 49
-6420.647671753946
 53
173.253
 43
4695.263692188819
 44
17323.69306298766
 45
-0.0001124430909783
 46
15.42047771894057
 79
     2
 49
10.4188831934011
 49
-6420.647671753946
 53
173.253
 43
4747.186647020535
 44
17323.69306298766
 45
-0.0001124430909783
 46
15.42047771894057
 79
     2
 49
10.4188831934011
 49
-6420.647671753946
 53
173.253
 43
4799.109601852254
 44
17323.69306298766
 45
-0.0001124430909783
 46
15.42047771894057
 79
     2
 49
10.4188831934011
 49
-6420.647671753946
 53
173.253
 43
4851.032556683971
 44
17323.69306298766
 45
-0.0001124430909783
 46
15.42047771894057
 79
     2
 49
10.4188831934011
 49
-6420.647671753946
 53
173.253
 43
4902.955511515687
 44
17323.69306298766
 45
-0.0001124430909783
 46
15.42047771894057
 79
     2
 49
10.4188831934011
 49
-6420.647671753946
 53
173.253
 43
4954.878466347404
 44
17323.69306298766
 45
-0.0001124430909783
 46
15.42047771894057
 79
     2
 49
10.4188831934011
 49
-6420.647671753946
 53
173.253
 43
5006.801421179119
 44
17323.69306298766
 45
-0.0001124430909783
 46
15.42047771894057
 79
     2
 49
10.4188831934011
 49
-6420.647671753946
 53
164.891
 43
-1322.854618378223
 44
17321.43540675784
 45
0.0000042855372929
 46
15.42045352479333
 79
     2
 49
5.123664875318557
 49
-586.4794671091429
 53
164.891
 43
-1270.931663546502
 44
17321.43540675784
 45
0.0000042855372929
 46
15.42045352479333
 79
     2
 49
5.123664875318557
 49
-586.4794671091429
 53
164.891
 43
-1219.008708714791
 44
17321.43540675784
 45
0.0000042855372929
 46
15.42045352479333
 79
     2
 49
5.123664875318557
 49
-586.4794671091429
 53
164.891
 43
-1167.085753883068
 44
17321.43540675784
 45
0.0000042855372929
 46
15.42045352479333
 79
     2
 49
5.123664875318557
 49
-586.4794671091429
 53
164.891
 43
-1115.162799051351
 44
17321.43540675784
 45
0.0000042855372929
 46
15.42045352479333
 79
     2
 49
5.123664875318557
 49
-586.4794671091429
 53
164.891
 43
-1063.239844219634
 44
17321.43540675784
 45
0.0000042855372929
 46
15.42045352479333
 79
     2
 49
5.123664875318557
 49
-586.4794671091429
 53
164.891
 43
-1011.316889387923
 44
17321.43540675784
 45
0.0000042855372929
 46
15.42045352479333
 79
     2
 49
5.123664875318557
 49
-586.4794671091429
 53
164.891
 43
-959.3939345561993
 44
17321.43540675784
 45
0.0000042855372929
 46
15.42045352479333
 79
     2
 49
5.123664875318557
 49
-586.4794671091429
 53
164.891
 43
-907.4723643366196
 44
17321.43540675784
 45
0.0000042855372929
 46
15.42045352479333
 79
     2
 49
5.123664875318557
 49
-586.4794671091429
 53
164.891
 43
-855.5494095048979
 44
17321.43540675784
 45
0.0000042855372929
 46
15.42045352479333
 79
     2
 49
5.123664875318557
 49
-586.4794671091429
 53
164.891
 43
-803.62645467318
 44
17321.43540675784
 45
0.0000042855372929
 46
15.42045352479333
 79
     2
 49
5.123664875318557
 49
-586.4794671091429
 53
157.062
 43
-1338.148074724955
 44
17324.91950625766
 45
-0.0001140812529166
 46
15.42047545549798
 79
     2
 49
11.80815684974729
 49
-2243.446094003534
 53
157.062
 43
-1286.225166046983
 44
17324.91950625766
 45
-0.0001140812529166
 46
15.42047545549798
 79
     2
 49
11.80815684974729
 49
-2243.446094003534
 53
157.062
 43
-1234.302211215267
 44
17324.91950625766
 45
-0.0001140812529166
 46
15.42047545549798
 79
     2
 49
11.80815684974729
 49
-2243.446094003534
 53
157.062
 43
-1182.379256383548
 44
17324.91950625766
 45
-0.0001140812529166
 46
15.42047545549798
 79
     2
 49
11.80815684974729
 49
-2243.446094003534
 53
157.062
 43
-1130.456301551827
 44
17324.91950625766
 45
-0.0001140812529166
 46
15.42047545549798
 79
     2
 49
11.80815684974729
 49
-2243.446094003534
 53
157.062
 43
-1078.533346720114
 44
17324.91950625766
 45
-0.0001140812529166
 46
15.42047545549798
 79
     2
 49
11.80815684974729
 49
-2243.446094003534
 53
157.062
 43
-1026.610391888398
 44
17324.91950625766
 45
-0.0001140812529166
 46
15.42047545549798
 79
     2
 49
11.80815684974729
 49
-2243.446094003534
 53
157.062
 43
-974.6874370566802
 44
17324.91950625766
 45
-0.0001140812529166
 46
15.42047545549798
 79
     2
 49
11.80815684974729
 49
-2243.446094003534
 53
157.062
 43
-922.7644822249695
 44
17324.91950625766
 45
-0.0001140812529166
 46
15.42047545549798
 79
     2
 49
11.80815684974729
 49
-2243.446094003534
 53
157.062
 43
-870.840142781115
 44
17324.91950625766
 45
-0.0001140812529166
 46
15.42047545549798
 79
     2
 49
11.80815684974729
 49
-2243.446094003534
 53
157.062
 43
-818.9171879494024
 44
17324.91950625766
 45
-0.0001140812529166
 46
15.42047545549798
 79
     2
 49
11.80815684974729
 49
-2243.446094003534
 53
157.062
 43
-766.9942331176807
 44
17324.91950625766
 45
-0.0001140812529166
 46
15.42047545549798
 79
     2
 49
11.80815684974729
 49
-2243.446094003534
 53
157.062
 43
-715.0712782859682
 44
17324.91950625766
 45
-0.0001140812529166
 46
15.42047545549798
 79
     2
 49
11.80815684974729
 49
-2243.446094003534
 53
157.062
 43
-663.1483234542574
 44
17324.91950625766
 45
-0.0001140812529166
 46
15.42047545549798
 79
     2
 49
11.80815684974729
 49
-2243.446094003534
 53
157.062
 43
-611.225368622534
 44
17324.91950625766
 45
-0.0001140812529166
 46
15.42047545549798
 79
     2
 49
11.80815684974729
 49
-2243.446094003534
 53
157.062
 43
-559.3024137908233
 44
17324.91950625766
 45
-0.0001140812529166
 46
15.42047545549798
 79
     2
 49
11.80815684974729
 49
-2243.446094003534
 53
157.062
 43
-507.3794589590997
 44
17324.91950625766
 45
-0.0001140812529166
 46
15.42047545549798
 79
     2
 49
11.80815684974729
 49
-2243.446094003534
 53
157.062
 43
-455.4565041273781
 44
17324.91950625766
 45
-0.0001140812529166
 46
15.42047545549798
 79
     2
 49
11.80815684974729
 49
-2243.446094003534
 53
157.062
 43
-403.5335492956655
 44
17324.91950625766
 45
-0.0001140812529166
 46
15.42047545549798
 79
     2
 49
11.80815684974729
 49
-2243.446094003534
 53
157.062
 43
-351.610594463953
 44
17324.91950625766
 45
-0.0001140812529166
 46
15.42047545549798
 79
     2
 49
11.80815684974729
 49
-2243.446094003534
 53
157.062
 43
-299.6876396322332
 44
17324.91950625766
 45
-0.0001140812529166
 46
15.42047545549798
 79
     2
 49
11.80815684974729
 49
-2243.446094003534
 53
157.062
 43
-247.7646848005152
 44
17324.91950625766
 45
-0.0001140812529166
 46
15.42047545549798
 79
     2
 49
11.80815684974729
 49
-2243.446094003534
 53
157.062
 43
-195.8417299687971
 44
17324.91950625766
 45
-0.0001140812529166
 46
15.42047545549798
 79
     2
 49
11.80815684974729
 49
-2243.446094003534
 53
157.062
 43
-143.9187751370809
 44
17324.91950625766
 45
-0.0001140812529166
 46
15.42047545549798
 79
     2
 49
11.80815684974729
 49
-2243.446094003534
 53
157.062
 43
-91.9958203053684
 44
17324.91950625766
 45
-0.0001140812529166
 46
15.42047545549798
 79
     2
 49
11.80815684974729
 49
-2243.446094003534
 53
157.062
 43
-40.0728654736522
 44
17324.91950625766
 45
-0.0001140812529166
 46
15.42047545549798
 79
     2
 49
11.80815684974729
 49
-2243.446094003534
 53
157.062
 43
11.85008935807127
 44
17324.91950625766
 45
-0.0001140812529166
 46
15.42047545549798
 79
     2
 49
11.80815684974729
 49
-2243.446094003534
 53
157.062
 43
63.77304418978201
 44
17324.91950625766
 45
-0.0001140812529166
 46
15.42047545549798
 79
     2
 49
11.80815684974729
 49
-2243.446094003534
 53
157.062
 43
115.6959990215
 44
17324.91950625766
 45
-0.0001140812529166
 46
15.42047545549798
 79
     2
 49
11.80815684974729
 49
-2243.446094003534
 53
157.062
 43
167.6189538532162
 44
17324.91950625766
 45
-0.0001140812529166
 46
15.42047545549798
 79
     2
 49
11.80815684974729
 49
-2243.446094003534
 53
157.062
 43
219.5419086849397
 44
17324.91950625766
 45
-0.0001140812529166
 46
15.42047545549798
 79
     2
 49
11.80815684974729
 49
-2243.446094003534
 53
157.062
 43
271.4648635166486
 44
17324.91950625766
 45
-0.0001140812529166
 46
15.42047545549798
 79
     2
 49
11.80815684974729
 49
-2243.446094003534
 53
157.062
 43
323.3878183483684
 44
17324.91950625766
 45
-0.0001140812529166
 46
15.42047545549798
 79
     2
 49
11.80815684974729
 49
-2243.446094003534
 53
157.062
 43
375.3107731800847
 44
17324.91950625766
 45
-0.0001140812529166
 46
15.42047545549798
 79
     2
 49
11.80815684974729
 49
-2243.446094003534
 53
157.062
 43
427.2337280118008
 44
17324.91950625766
 45
-0.0001140812529166
 46
15.42047545549798
 79
     2
 49
11.80815684974729
 49
-2243.446094003534
 53
157.062
 43
479.1566828435207
 44
17324.91950625766
 45
-0.0001140812529166
 46
15.42047545549798
 79
     2
 49
11.80815684974729
 49
-2243.446094003534
 53
157.062
 43
531.0796376752368
 44
17324.91950625766
 45
-0.0001140812529166
 46
15.42047545549798
 79
     2
 49
11.80815684974729
 49
-2243.446094003534
 53
157.062
 43
583.0025925069494
 44
17324.91950625766
 45
-0.0001140812529166
 46
15.42047545549798
 79
     2
 49
11.80815684974729
 49
-2243.446094003534
 53
157.062
 43
634.9255473386656
 44
17324.91950625766
 45
-0.0001140812529166
 46
15.42047545549798
 79
     2
 49
11.80815684974729
 49
-2243.446094003534
 53
157.062
 43
686.8485021703854
 44
17324.91950625766
 45
-0.0001140812529166
 46
15.42047545549798
 79
     2
 49
11.80815684974729
 49
-2243.446094003534
 53
142.435
 43
-1360.306807236424
 44
17315.72768248664
 45
0.0000772591966259
 46
15.42046066953884
 79
     2
 49
6.340646629098743
 49
-2548.32374634662
 53
142.435
 43
-1308.384037019659
 44
17315.72768248664
 45
0.0000772591966259
 46
15.42046066953884
 79
     2
 49
6.340646629098743
 49
-2548.32374634662
 53
142.435
 43
-1256.461082187936
 44
17315.72768248664
 45
0.0000772591966259
 46
15.42046066953884
 79
     2
 49
6.340646629098743
 49
-2548.32374634662
 53
142.435
 43
-1204.538127356214
 44
17315.72768248664
 45
0.0000772591966259
 46
15.42046066953884
 79
     2
 49
6.340646629098743
 49
-2548.32374634662
 53
142.435
 43
-1152.615172524502
 44
17315.72768248664
 45
0.0000772591966259
 46
15.42046066953884
 79
     2
 49
6.340646629098743
 49
-2548.32374634662
 53
142.435
 43
-1100.692217692791
 44
17315.72768248664
 45
0.0000772591966259
 46
15.42046066953884
 79
     2
 49
6.340646629098743
 49
-2548.32374634662
 53
142.435
 43
-1048.769262861073
 44
17315.72768248664
 45
0.0000772591966259
 46
15.42046066953884
 79
     2
 49
6.340646629098743
 49
-2548.32374634662
 53
142.435
 43
-996.8463080293568
 44
17315.72768248664
 45
0.0000772591966259
 46
15.42046066953884
 79
     2
 49
6.340646629098743
 49
-2548.32374634662
 53
142.435
 43
-944.9233531976332
 44
17315.72768248664
 45
0.0000772591966259
 46
15.42046066953884
 79
     2
 49
6.340646629098743
 49
-2548.32374634662
 53
142.435
 43
-892.9985522164097
 44
17315.72768248664
 45
0.0000772591966259
 46
15.42046066953884
 79
     2
 49
6.340646629098743
 49
-2548.32374634662
 53
142.435
 43
-841.0755973846971
 44
17315.72768248664
 45
0.0000772591966259
 46
15.42046066953884
 79
     2
 49
6.340646629098743
 49
-2548.32374634662
 53
142.435
 43
-789.1526425529846
 44
17315.72768248664
 45
0.0000772591966259
 46
15.42046066953884
 79
     2
 49
6.340646629098743
 49
-2548.32374634662
 53
142.435
 43
-737.229687721263
 44
17315.72768248664
 45
0.0000772591966259
 46
15.42046066953884
 79
     2
 49
6.340646629098743
 49
-2548.32374634662
 53
142.435
 43
-685.3067328895413
 44
17315.72768248664
 45
0.0000772591966259
 46
15.42046066953884
 79
     2
 49
6.340646629098743
 49
-2548.32374634662
 53
142.435
 43
-633.3837780578287
 44
17315.72768248664
 45
0.0000772591966259
 46
15.42046066953884
 79
     2
 49
6.340646629098743
 49
-2548.32374634662
 53
142.435
 43
-581.4608232261179
 44
17315.72768248664
 45
0.0000772591966259
 46
15.42046066953884
 79
     2
 49
6.340646629098743
 49
-2548.32374634662
 53
142.435
 43
-529.5378683943945
 44
17315.72768248664
 45
0.0000772591966259
 46
15.42046066953884
 79
     2
 49
6.340646629098743
 49
-2548.32374634662
 53
142.435
 43
-477.6149135626837
 44
17315.72768248664
 45
0.0000772591966259
 46
15.42046066953884
 79
     2
 49
6.340646629098743
 49
-2548.32374634662
 53
142.435
 43
-425.6919587309603
 44
17315.72768248664
 45
0.0000772591966259
 46
15.42046066953884
 79
     2
 49
6.340646629098743
 49
-2548.32374634662
 53
142.435
 43
-373.7690038992478
 44
17315.72768248664
 45
0.0000772591966259
 46
15.42046066953884
 79
     2
 49
6.340646629098743
 49
-2548.32374634662
 53
142.435
 43
-321.846049067537
 44
17315.72768248664
 45
0.0000772591966259
 46
15.42046066953884
 79
     2
 49
6.340646629098743
 49
-2548.32374634662
 53
142.435
 43
-269.9230942358154
 44
17315.72768248664
 45
0.0000772591966259
 46
15.42046066953884
 79
     2
 49
6.340646629098743
 49
-2548.32374634662
 53
142.435
 43
-218.0001394040919
 44
17315.72768248664
 45
0.0000772591966259
 46
15.42046066953884
 79
     2
 49
6.340646629098743
 49
-2548.32374634662
 53
142.435
 43
-166.0771845723811
 44
17315.72768248664
 45
0.0000772591966259
 46
15.42046066953884
 79
     2
 49
6.340646629098743
 49
-2548.32374634662
 53
142.435
 43
-114.1542297406595
 44
17315.72768248664
 45
0.0000772591966259
 46
15.42046066953884
 79
     2
 49
6.340646629098743
 49
-2548.32374634662
 53
142.435
 43
-62.23127490894694
 44
17315.72768248664
 45
0.0000772591966259
 46
15.42046066953884
 79
     2
 49
6.340646629098743
 49
-2548.32374634662
 53
142.435
 43
-10.30832007722347
 44
17315.72768248664
 45
0.0000772591966259
 46
15.42046066953884
 79
     2
 49
6.340646629098743
 49
-2548.32374634662
 53
142.435
 43
41.61463475448726
 44
17315.72768248664
 45
0.0000772591966259
 46
15.42046066953884
 79
     2
 49
6.340646629098743
 49
-2548.32374634662
 53
142.435
 43
93.53758958620529
 44
17315.72768248664
 45
0.0000772591966259
 46
15.42046066953884
 79
     2
 49
6.340646629098743
 49
-2548.32374634662
 53
142.435
 43
145.4605444179215
 44
17315.72768248664
 45
0.0000772591966259
 46
15.42046066953884
 79
     2
 49
6.340646629098743
 49
-2548.32374634662
 53
142.435
 43
197.3834992496377
 44
17315.72768248664
 45
0.0000772591966259
 46
15.42046066953884
 79
     2
 49
6.340646629098743
 49
-2548.32374634662
 53
142.435
 43
249.3064540813557
 44
17315.72768248664
 45
0.0000772591966259
 46
15.42046066953884
 79
     2
 49
6.340646629098743
 49
-2548.32374634662
 53
142.435
 43
301.2294089130701
 44
17315.72768248664
 45
0.0000772591966259
 46
15.42046066953884
 79
     2
 49
6.340646629098743
 49
-2548.32374634662
 53
142.435
 43
353.1523637447899
 44
17315.72768248664
 45
0.0000772591966259
 46
15.42046066953884
 79
     2
 49
6.340646629098743
 49
-2548.32374634662
 53
142.435
 43
405.0753185765024
 44
17315.72768248664
 45
0.0000772591966259
 46
15.42046066953884
 79
     2
 49
6.340646629098743
 49
-2548.32374634662
 53
142.435
 43
456.9982734082259
 44
17315.72768248664
 45
0.0000772591966259
 46
15.42046066953884
 79
     2
 49
6.340646629098743
 49
-2548.32374634662
 53
142.435
 43
508.9212282399421
 44
17315.72768248664
 45
0.0000772591966259
 46
15.42046066953884
 79
     2
 49
6.340646629098743
 49
-2548.32374634662
 53
142.435
 43
560.8441830716583
 44
17315.72768248664
 45
0.0000772591966259
 46
15.42046066953884
 79
     2
 49
6.340646629098743
 49
-2548.32374634662
 53
142.435
 43
612.7671379033708
 44
17315.72768248664
 45
0.0000772591966259
 46
15.42046066953884
 79
     2
 49
6.340646629098743
 49
-2548.32374634662
 53
115.046
 43
-1320.091394106424
 44
17315.52131297191
 45
-0.0001241594983084
 46
15.42046743086035
 79
     2
 49
6.527892342656238
 49
-4163.599702041431
 53
115.046
 43
-1268.168439274706
 44
17315.52131297191
 45
-0.0001241594983084
 46
15.42046743086035
 79
     2
 49
6.527892342656238
 49
-4163.599702041431
 53
115.046
 43
-1216.245484442985
 44
17315.52131297191
 45
-0.0001241594983084
 46
15.42046743086035
 79
     2
 49
6.527892342656238
 49
-4163.599702041431
 53
115.046
 43
-1164.322529611272
 44
17315.52131297191
 45
-0.0001241594983084
 46
15.42046743086035
 79
     2
 49
6.527892342656238
 49
-4163.599702041431
 53
115.046
 43
-1112.39957477955
 44
17315.52131297191
 45
-0.0001241594983084
 46
15.42046743086035
 79
     2
 49
6.527892342656238
 49
-4163.599702041431
 53
115.046
 43
-1060.476619947838
 44
17315.52131297191
 45
-0.0001241594983084
 46
15.42046743086035
 79
     2
 49
6.527892342656238
 49
-4163.599702041431
 53
115.046
 43
-1008.553665116122
 44
17315.52131297191
 45
-0.0001241594983084
 46
15.42046743086035
 79
     2
 49
6.527892342656238
 49
-4163.599702041431
 53
115.046
 43
-956.6307102844039
 44
17315.52131297191
 45
-0.0001241594983084
 46
15.42046743086035
 79
     2
 49
6.527892342656238
 49
-4163.599702041431
 53
115.046
 43
-904.7077554526822
 44
17315.52131297191
 45
-0.0001241594983084
 46
15.42046743086035
 79
     2
 49
6.527892342656238
 49
-4163.599702041431
 53
115.046
 43
-852.7848006209696
 44
17315.52131297191
 45
-0.0001241594983084
 46
15.42046743086035
 79
     2
 49
6.527892342656238
 49
-4163.599702041431
 53
115.046
 43
-800.8618457892479
 44
17315.52131297191
 45
-0.0001241594983084
 46
15.42046743086035
 79
     2
 49
6.527892342656238
 49
-4163.599702041431
 53
115.046
 43
-748.9388909575354
 44
17315.52131297191
 45
-0.0001241594983084
 46
15.42046743086035
 79
     2
 49
6.527892342656238
 49
-4163.599702041431
 53
115.046
 43
-697.0159361258229
 44
17315.52131297191
 45
-0.0001241594983084
 46
15.42046743086035
 79
     2
 49
6.527892342656238
 49
-4163.599702041431
 53
115.046
 43
-645.0929812941012
 44
17315.52131297191
 45
-0.0001241594983084
 46
15.42046743086035
 79
     2
 49
6.527892342656238
 49
-4163.599702041431
 53
115.046
 43
-593.1700264623905
 44
17315.52131297191
 45
-0.0001241594983084
 46
15.42046743086035
 79
     2
 49
6.527892342656238
 49
-4163.599702041431
 53
115.046
 43
-541.247071630667
 44
17315.52131297191
 45
-0.0001241594983084
 46
15.42046743086035
 79
     2
 49
6.527892342656238
 49
-4163.599702041431
 53
115.046
 43
-489.3241167989454
 44
17315.52131297191
 45
-0.0001241594983084
 46
15.42046743086035
 79
     2
 49
6.527892342656238
 49
-4163.599702041431
 53
115.046
 43
-437.4011619672328
 44
17315.52131297191
 45
-0.0001241594983084
 46
15.42046743086035
 79
     2
 49
6.527892342656238
 49
-4163.599702041431
 53
115.046
 43
-385.4782071355221
 44
17315.52131297191
 45
-0.0001241594983084
 46
15.42046743086035
 79
     2
 49
6.527892342656238
 49
-4163.599702041431
 53
115.046
 43
-333.5552523037986
 44
17315.52131297191
 45
-0.0001241594983084
 46
15.42046743086035
 79
     2
 49
6.527892342656238
 49
-4163.599702041431
 53
115.046
 43
-281.6322974720879
 44
17315.52131297191
 45
-0.0001241594983084
 46
15.42046743086035
 79
     2
 49
6.527892342656238
 49
-4163.599702041431
 53
115.046
 43
-229.7093426403662
 44
17315.52131297191
 45
-0.0001241594983084
 46
15.42046743086035
 79
     2
 49
6.527892342656238
 49
-4163.599702041431
 53
115.046
 43
-177.7863878086482
 44
17315.52131297191
 45
-0.0001241594983084
 46
15.42046743086035
 79
     2
 49
6.527892342656238
 49
-4163.599702041431
 53
115.046
 43
-125.8634329769356
 44
17315.52131297191
 45
-0.0001241594983084
 46
15.42046743086035
 79
     2
 49
6.527892342656238
 49
-4163.599702041431
 53
115.046
 43
-73.94047814521946
 44
17315.52131297191
 45
-0.0001241594983084
 46
15.42046743086035
 79
     2
 49
6.527892342656238
 49
-4163.599702041431
 53
115.046
 43
-22.0175233134978
 44
17315.52131297191
 45
-0.0001241594983084
 46
15.42046743086035
 79
     2
 49
6.527892342656238
 49
-4163.599702041431
 53
115.046
 43
29.90543151821476
 44
17315.52131297191
 45
-0.0001241594983084
 46
15.42046743086035
 79
     2
 49
6.527892342656238
 49
-4163.599702041431
 53
115.046
 43
81.82838634993277
 44
17315.52131297191
 45
-0.0001241594983084
 46
15.42046743086035
 79
     2
 49
6.527892342656238
 49
-4163.599702041431
 53
115.046
 43
133.7513411816489
 44
17315.52131297191
 45
-0.0001241594983084
 46
15.42046743086035
 79
     2
 49
6.527892342656238
 49
-4163.599702041431
 53
115.046
 43
185.6742960133706
 44
17315.52131297191
 45
-0.0001241594983084
 46
15.42046743086035
 79
     2
 49
6.527892342656238
 49
-4163.599702041431
 53
115.046
 43
237.5972508450832
 44
17315.52131297191
 45
-0.0001241594983084
 46
15.42046743086035
 79
     2
 49
6.527892342656238
 49
-4163.599702041431
 53
115.046
 43
289.5202056767994
 44
17315.52131297191
 45
-0.0001241594983084
 46
15.42046743086035
 79
     2
 49
6.527892342656238
 49
-4163.599702041431
 53
115.046
 43
341.4431605085156
 44
17315.52131297191
 45
-0.0001241594983084
 46
15.42046743086035
 79
     2
 49
6.527892342656238
 49
-4163.599702041431
 53
115.046
 43
393.3661153402354
 44
17315.52131297191
 45
-0.0001241594983084
 46
15.42046743086035
 79
     2
 49
6.527892342656238
 49
-4163.599702041431
 53
104.0759999999998
 43
-1365.332764649181
 44
17319.59335570461
 45
0.000113352007534
 46
15.42045346619244
 79
     2
 49
3.750821949567952
 49
-1490.646556440063
 53
104.0759999999998
 43
-1313.409717509987
 44
17319.59335570461
 45
0.000113352007534
 46
15.42045346619244
 79
     2
 49
3.750821949567952
 49
-1490.646556440063
 53
104.0759999999998
 43
-1261.486762678271
 44
17319.59335570461
 45
0.000113352007534
 46
15.42045346619244
 79
     2
 49
3.750821949567952
 49
-1490.646556440063
 53
104.0759999999998
 43
-1209.563807846558
 44
17319.59335570461
 45
0.000113352007534
 46
15.42045346619244
 79
     2
 49
3.750821949567952
 49
-1490.646556440063
 53
104.0759999999998
 43
-1157.640853014836
 44
17319.59335570461
 45
0.000113352007534
 46
15.42045346619244
 79
     2
 49
3.750821949567952
 49
-1490.646556440063
 53
104.0759999999998
 43
-1105.717898183113
 44
17319.59335570461
 45
0.000113352007534
 46
15.42045346619244
 79
     2
 49
3.750821949567952
 49
-1490.646556440063
 53
104.0759999999998
 43
-1053.794943351402
 44
17319.59335570461
 45
0.000113352007534
 46
15.42045346619244
 79
     2
 49
3.750821949567952
 49
-1490.646556440063
 98
        1
 10
271.9806180618325
 20
2566.347531238847
  0
HATCH
  5
587A
330
67
100
AcDbEntity
  8
F_01 sichtbar
370
    13
100
AcDbHatch
 10
0.0
 20
0.0
 30
0.0
210
0.0
220
0.0
230
1.0
  2
HEX
 70
     0
 71
     0
 91
        1
 92
        1
 93
        4
 72
     1
 10
279.1618370498618
 20
750.6167033566607
 11
279.1618370498618
 21
705.6167033566589
 72
     1
 10
279.1618370498618
 20
705.6167033566589
 11
371.6054896137139
 21
705.6167033566589
 72
     1
 10
371.6054896137139
 20
705.6167033566589
 11
371.6054896137139
 21
750.6167033566589
 72
     1
 10
371.6054896137139
 20
750.6167033566589
 11
279.1618370498618
 21
750.6167033566607
 97
        0
 75
     0
 76
     1
 52
0.0
 41
2.0
 77
     0
 78
     3
 53
0.0
 43
-33467.87217275934
 44
-13973.43169087829
 45
0.0
 46
10.99852
 79
     2
 49
6.349999999999999
 49
-12.7
 53
120.0
 43
-33467.87217275934
 44
-13973.43169087829
 45
-9.524997724031223
 46
-5.499259999999996
 79
     2
 49
6.349999999999983
 49
-12.69999999999997
 53
60.0
 43
-33461.52217275933
 44
-13973.43169087829
 45
-9.524997724031223
 46
5.49926
 79
     2
 49
6.349999999999999
 49
-12.7
 98
        1
 10
293.8575702683156
 20
705.0357278846158
1001
ACAD
1010
0.0
1020
0.0
1030
0.0
  0
HATCH
  5
587B
330
67
100
AcDbEntity
  8
F_01 sichtbar
370
    13
100
AcDbHatch
 10
0.0
 20
0.0
 30
0.0
210
0.0
220
0.0
230
1.0
  2
HEX
 70
     0
 71
     0
 91
        1
 92
        1
 93
        4
 72
     1
 10
279.1618370498636
 20
558.6167033566589
 11
279.1618370498618
 21
521.616703356658
 72
     1
 10
279.1618370498618
 20
521.616703356658
 11
443.6054896136993
 21
521.6167033566589
 72
     1
 10
443.6054896136993
 20
521.6167033566589
 11
443.6054896136993
 21
558.6167033566589
 72
     1
 10
443.6054896136993
 20
558.6167033566589
 11
279.1618370498636
 21
558.6167033566589
 97
        0
 75
     0
 76
     1
 52
0.0
 41
2.0
 77
     0
 78
     3
 53
0.0
 43
-33398.37217275934
 44
-14165.43169087829
 45
0.0
 46
10.99852
 79
     2
 49
6.349999999999999
 49
-12.7
 53
120.0
 43
-33398.37217275934
 44
-14165.43169087829
 45
-9.524997724031223
 46
-5.499259999999996
 79
     2
 49
6.349999999999982
 49
-12.69999999999996
 53
60.0
 43
-33392.02217275933
 44
-14165.43169087829
 45
-9.524997724031223
 46
5.49926
 79
     2
 49
6.349999999999999
 49
-12.7
 98
        1
 10
363.3575702683156
 20
513.0357278846158
1001
ACAD
1010
0.0
1020
0.0
1030
0.0
  0
POLYLINE
  5
587C
330
67
100
AcDbEntity
  8
F_0 sichtbar
370
    13
100
AcDb2dPolyline
 66
     1
 10
0.0
 20
0.0
 30
0.0
  0
VERTEX
  5
587D
330
587C
100
AcDbEntity
  8
F_0 sichtbar
370
    13
100
AcDbVertex
100
AcDb2dVertex
 10
349.8622481617658
 20
797.1130452000497
 30
0.0
  0
VERTEX
  5
587E
330
587C
100
AcDbEntity
  8
F_0 sichtbar
370
    13
100
AcDbVertex
100
AcDb2dVertex
 10
500.2969562283997
 20
841.6878155572621
 30
0.0
  0
SEQEND
  5
587F
330
587C
100
AcDbEntity
  8
F_0 sichtbar
370
    13
  0
POLYLINE
  5
5880
330
67
100
AcDbEntity
  8
F_0 sichtbar
370
    13
100
AcDb2dPolyline
 66
     1
 10
0.0
 20
0.0
 30
0.0
  0
VERTEX
  5
5881
330
5880
100
AcDbEntity
  8
F_0 sichtbar
370
    13
100
AcDbVertex
100
AcDb2dVertex
 10
347.0212755999801
 20
806.7009998778312
 30
0.0
  0
VERTEX
  5
5882
330
5880
100
AcDbEntity
  8
F_0 sichtbar
370
    13
100
AcDbVertex
100
AcDb2dVertex
 10
497.455983666614
 20
851.2757702350436
 30
0.0
  0
SEQEND
  5
5883
330
5880
100
AcDbEntity
  8
F_0 sichtbar
370
    13
  0
HATCH
  5
5884
330
67
100
AcDbEntity
  8
F_01 sichtbar
370
    13
100
AcDbHatch
 10
0.0
 20
0.0
 30
0.0
210
0.0
220
0.0
230
1.0
  2
CROSS
 70
     0
 71
     0
 91
        2
 92
        1
 93
        5
 72
     1
 10
443.6054896136847
 20
338.6167033566589
 11
341.7884087969505
 21
338.6167033566589
 72
     1
 10
341.7884087969505
 20
338.6167033566589
 11
341.7884087969505
 21
326.6167033566553
 72
     1
 10
341.7884087969505
 20
326.6167033566553
 11
403.1054713065532
 21
326.6167046181099
 72
     1
 10
403.1054713065532
 20
326.6167046181099
 11
443.6054896136847
 21
326.6167046181099
 72
     1
 10
443.6054896136847
 20
326.6167046181099
 11
443.6054896136847
 21
338.6167033566589
 97
        0
 92
        1
 93
        4
 72
     1
 10
341.7884087969505
 20
338.6167033566589
 11
279.1618370498618
 21
338.6167033566589
 72
     1
 10
279.1618370498618
 20
338.6167033566589
 11
279.1618370498618
 21
326.6167033566553
 72
     1
 10
279.1618370498618
 20
326.6167033566553
 11
341.7884087969505
 21
326.6167033566553
 72
     1
 10
341.7884087969505
 20
326.6167033566553
 11
341.7884087969505
 21
338.6167033566589
 97
        0
 75
     0
 76
     1
 52
0.0
 41
1.0
 77
     0
 78
     2
 53
0.0
 43
-33398.37217275935
 44
-14072.43169072059
 45
6.349999999999999
 46
6.349999999999999
 79
     2
 49
3.174999999999999
 49
-9.525
 53
90.0
 43
-33396.78467275934
 44
-14074.01919072059
 45
-6.349999999999999
 46
6.349999999999999
 79
     2
 49
3.174999999999999
 49
-9.525
 98
        2
 10
355.737534835971
 20
328.6357060324581
 10
327.8682473527006
 20
328.009756030292
1001
ACAD
1010
0.0
1020
0.0
1030
0.0
  0
POLYLINE
  5
5885
330
67
100
AcDbEntity
  8
F_01 sichtbar
370
    13
100
AcDb2dPolyline
 66
     1
 10
0.0
 20
0.0
 30
0.0
  0
VERTEX
  5
5886
330
5885
100
AcDbEntity
  8
F_01 sichtbar
370
    13
100
AcDbVertex
100
AcDb2dVertex
 10
279.1618370498618
 20
338.6167033566589
 30
0.0
  0
VERTEX
  5
5887
330
5885
100
AcDbEntity
  8
F_01 sichtbar
370
    13
100
AcDbVertex
100
AcDb2dVertex
 10
443.6054896136847
 20
338.6167033566589
 30
0.0
  0
VERTEX
  5
5888
330
5885
100
AcDbEntity
  8
F_01 sichtbar
370
    13
100
AcDbVertex
100
AcDb2dVertex
 10
443.6054896136847
 20
326.6167033566553
 30
0.0
  0
VERTEX
  5
5889
330
5885
100
AcDbEntity
  8
F_01 sichtbar
370
    13
100
AcDbVertex
100
AcDb2dVertex
 10
279.1618370498618
 20
326.6167033566553
 30
0.0
  0
SEQEND
  5
588A
330
5885
100
AcDbEntity
  8
F_01 sichtbar
370
    13
  0
LINE
  5
588B
330
67
100
AcDbEntity
  8
F_02 unsichtbar
370
    13
100
AcDbLine
 10
443.6054896136993
 20
340.116703356659
 30
0.0
 11
279.161837049869
 21
340.116703356659
 31
0.0
  0
TEXT
  5
588C
330
67
100
AcDbEntity
  8
F_01 sichtbar
370
    13
100
AcDbText
 10
348.3768910642611
 20
251.349689198074
 30
0.0
 40
15.0
  1
RH
 50
90.0
  7
Arial
100
AcDbText
  0
LINE
  5
588D
330
67
100
AcDbEntity
  8
F_01 sichtbar
370
    13
100
AcDbLine
 10
353.3768910642611
 20
319.1167020952007
 30
0.0
 11
353.3768910642611
 21
132.5286858293821
 31
0.0
  0
SOLID
  5
588E
330
67
100
AcDbEntity
  8
F_01 sichtbar
370
    13
100
AcDbTrace
 10
350.8768910642611
 20
311.6167020952007
 30
0.0
 11
355.8768910642612
 21
311.6167020952007
 31
0.0
 12
353.3768910642611
 22
326.6167020952007
 32
0.0
 13
353.3768910642611
 23
326.6167020952007
 33
0.0
  0
SOLID
  5
588F
330
67
100
AcDbEntity
  8
F_01 sichtbar
370
    13
100
AcDbTrace
 10
350.8768908540187
 20
341.6167033566553
 30
0.0
 11
355.8768908540187
 21
341.6167033566553
 31
0.0
 12
353.3768908540187
 22
326.6167033566553
 32
0.0
 13
353.3768908540187
 23
326.6167033566553
 33
0.0
  0
SOLID
  5
5890
330
67
100
AcDbEntity
  8
F_01 sichtbar
370
    13
100
AcDbTrace
 10
350.8768908540187
 20
506.6167033566589
 30
0.0
 11
355.8768908540187
 21
506.6167033566589
 31
0.0
 12
353.3768908540187
 22
521.6167033566589
 32
0.0
 13
353.3768908540187
 23
521.6167033566589
 33
0.0
  0
TEXT
  5
5891
330
67
100
AcDbEntity
  8
F_01 sichtbar
370
    13
100
AcDbText
 10
348.3768908540187
 20
418.4761724746176
 30
0.0
 40
15.0
  1
D1
 50
90.0
  7
Arial
100
AcDbText
  0
SOLID
  5
5892
330
67
100
AcDbEntity
  8
F_01 sichtbar
370
    13
100
AcDbTrace
 10
350.8768908540187
 20
536.6167033566589
 30
0.0
 11
355.8768908540187
 21
536.6167033566589
 31
0.0
 12
353.3768908540187
 22
521.6167033566589
 32
0.0
 13
353.3768908540187
 23
521.6167033566589
 33
0.0
  0
SOLID
  5
5893
330
67
100
AcDbEntity
  8
F_01 sichtbar
370
    13
100
AcDbTrace
 10
350.8768908540187
 20
735.6167033566598
 30
0.0
 11
355.8768908540187
 21
735.6167033566598
 31
0.0
 12
353.3768908540187
 22
750.6167033566598
 32
0.0
 13
353.3768908540187
 23
750.6167033566598
 33
0.0
  0
TEXT
  5
5894
330
67
100
AcDbEntity
  8
F_01 sichtbar
370
    13
100
AcDbText
 10
348.3768908540187
 20
630.2474255710412
 30
0.0
 40
15.0
  1
D2
 50
90.0
  7
Arial
100
AcDbText
  0
LINE
  5
5895
330
67
100
AcDbEntity
  8
F_01 sichtbar
370
    13
100
AcDbLine
 10
353.3768908540187
 20
743.1167033566598
 30
0.0
 11
353.3768908540187
 21
529.1167033566589
 31
0.0
  0
LINE
  5
5896
330
67
100
AcDbEntity
  8
F_01 sichtbar
370
    13
100
AcDbLine
 10
353.3768908540187
 20
514.1167033566589
 30
0.0
 11
353.3768908540187
 21
334.1167033566553
 31
0.0
  0
MTEXT
  5
5897
330
67
100
AcDbEntity
  8
F_01 sichtbar
370
    13
100
AcDbMText
 10
304.1618370498509
 20
875.6167033566597
 30
0.0
 40
30.0
 41
187.1747820159653
 71
     1
 72
     5
  1
\A1;{\fArial Narrow|b1|i0|c0|p34;B}
 73
     1
 44
1.0
  0
POLYLINE
  5
5898
330
67
100
AcDbEntity
  8
F_31 Ansichtsfenster
370
    13
100
AcDb2dPolyline
 66
     1
 10
0.0
 20
0.0
 30
0.0
  0
VERTEX
  5
5899
330
5898
100
AcDbEntity
  8
F_31 Ansichtsfenster
370
    13
100
AcDbVertex
100
AcDb2dVertex
 10
279.1618370498582
 20
326.6167033566553
 30
0.0
  0
VERTEX
  5
589A
330
5898
100
AcDbEntity
  8
F_31 Ansichtsfenster
370
    13
100
AcDbVertex
100
AcDb2dVertex
 10
279.1618370498582
 20
750.6167033566598
 30
0.0
  0
SEQEND
  5
589B
330
5898
100
AcDbEntity
  8
F_31 Ansichtsfenster
370
    13
  0
HATCH
  5
589C
330
67
100
AcDbEntity
  8
F_18 Schr-Holz hell
370
    13
100
AcDbHatch
 10
0.0
 20
0.0
 30
0.0
210
0.0
220
0.0
230
1.0
  2
SOLID
 70
     1
 71
     0
 91
        1
 92
        1
 93
        6
 72
     1
 10
448.6054799841221
 20
326.6167015695928
 11
460.6054793668445
 21
326.6167033566553
 72
     1
 10
460.6054793668445
 20
326.6167033566553
 11
460.6054761080813
 21
363.6167028310474
 72
     1
 10
460.6054761080813
 20
363.6167028310474
 11
473.6056032990454
 21
363.6167378320643
 72
     1
 10
473.6056032990454
 20
363.6167378320643
 11
473.6064930518987
 21
833.7792598648274
 72
     1
 10
473.6064930518987
 20
833.7792598648274
 11
448.6054896136993
 21
826.3713019455417
 72
     1
 10
448.6054896136993
 20
826.3713019455417
 11
448.6054799841221
 21
326.6167015695928
 97
        0
 75
     0
 76
     1
 98
        1
 10
-34294.15816996578
 20
-14069.43169250765
450
        0
451
        0
460
0.0
461
0.0
452
        1
462
1.0
453
        2
463
0.0
 63
     5
421
      255
463
1.0
 63
     7
421
 16777215
470
LINEAR
1001
ACAD
1010
0.0
1020
0.0
1030
0.0
  0
HATCH
  5
589D
330
67
100
AcDbEntity
  8
F_29 Bemassung M
370
    13
100
AcDbHatch
 10
0.0
 20
0.0
 30
0.0
210
0.0
220
0.0
230
1.0
  2
SOLID
 70
     1
 71
     0
 91
        1
 92
        1
 93
        4
 72
     1
 10
460.6054895301276
 20
323.6167015695928
 11
460.6054895301276
 21
326.6167015695928
 72
     1
 10
460.6054895301276
 20
326.6167015695928
 11
430.6054895301277
 21
326.6167015695928
 72
     1
 10
430.6054895301277
 20
326.6167015695928
 11
430.6054895301277
 21
323.6167015695928
 72
     1
 10
430.6054895301277
 20
323.6167015695928
 11
460.6054895301276
 21
323.6167015695928
 97
        0
 75
     0
 76
     1
 98
        1
 10
-34294.15816996578
 20
-14069.43169429472
450
        0
451
        0
460
0.0
461
0.0
452
        1
462
1.0
453
        2
463
0.0
 63
     5
421
      255
463
1.0
 63
     7
421
 16777215
470
LINEAR
1001
ACAD
1010
0.0
1020
0.0
1030
0.0
  0
LINE
  5
589E
330
67
100
AcDbEntity
  8
F_01 sichtbar
370
    13
100
AcDbLine
 10
472.1054761080795
 20
833.3344989021961
 30
0.0
 11
472.1054761080814
 21
363.616704197625
 31
0.0
  0
HATCH
  5
589F
330
67
100
AcDbEntity
  8
F_01 sichtbar
370
    13
100
AcDbHatch
 10
0.0
 20
0.0
 30
0.0
210
0.0
220
0.0
230
1.0
  2
JIS_WOOD
 70
     0
 71
     0
 91
        1
 92
        1
 93
        6
 72
     1
 10
450.105483900601
 20
326.6167017272755
 11
460.6054895301276
 21
326.6167033566553
 72
     1
 10
460.6054895301276
 20
326.6167033566553
 11
460.6054761080813
 21
360.616711841426
 72
     1
 10
460.6054761080813
 20
360.616711841426
 11
472.1054761080814
 21
360.6167378356067
 72
     1
 10
472.1054761080814
 20
360.6167378356067
 11
472.1054761080795
 21
833.3344989021961
 72
     1
 10
472.1054761080795
 20
833.3344989021961
 11
450.1054761080795
 21
826.8157575793875
 72
     1
 10
450.1054761080795
 20
826.8157575793875
 11
450.105483900601
 21
326.6167017272755
 97
        0
 75
     0
 76
     1
 52
315.0
 41
30.0
 77
     0
 78
     1
 53
0.0
 43
-23260.21544303856
 44
-14159.92401135238
 45
0.0000000000000071
 46
21.2132034
 79
     0
 98
        1
 10
-23260.21544303856
 20
-14159.92401135238
1001
ACAD
1010
0.0
1020
0.0
1030
0.0
  0
LWPOLYLINE
  5
58A0
330
67
100
AcDbEntity
  8
F_01 sichtbar
370
    13
100
AcDbPolyline
 90
       10
 70
     1
 43
0.0
 10
460.6054793668445
 20
326.6167028310474
 10
460.6054761080813
 20
363.6167028310474
 10
460.6054761080813
 20
363.6167028310474
 10
460.6054761080813
 20
363.6167028310474
 10
460.6054761080813
 20
363.6167028310474
 10
460.6054761080813
 20
363.6167028310474
 10
473.6054825558276
 20
363.6167041976182
 10
473.6064930518987
 20
833.7792598648274
 10
448.6054896136993
 20
826.3713019455417
 10
448.6054793668444
 20
326.6167015695928
  0
LWPOLYLINE
  5
58A1
330
67
100
AcDbEntity
  8
F_01 sichtbar
370
    13
100
AcDbPolyline
 90
        4
 70
     1
 43
0.0
 10
460.6054895301276
 20
323.6167033566553
 10
460.6054895301276
 20
326.6167033566553
 10
430.6054895301277
 20
326.6167033566553
 10
430.6054895301277
 20
323.6167033566553
  0
MTEXT
  5
58A2
330
67
100
AcDbEntity
  8
F_01 sichtbar
370
    13
100
AcDbMText
 10
415.7486912528838
 20
271.5963456492664
 30
0.0
 40
15.0
 41
173.6657447330071
 71
     1
 72
     5
  1
\A1;{\fArial Narrow|b0|i0|c0|p34;Metall-Flachrahmen\P30/3 mm}
 73
     1
 44
1.0
  0
LINE
  5
58A3
330
67
100
AcDbEntity
  8
F_01 sichtbar
370
    13
100
AcDbLine
 10
437.6054895301276
 20
308.6167033566553
 30
0.0
 11
437.6054895301276
 21
275.2938081748061
 31
0.0
  0
SOLID
  5
58A4
330
67
100
AcDbEntity
  8
F_01 sichtbar
370
    13
100
AcDbTrace
 10
435.1054895301277
 20
308.6167033566553
 30
0.0
 11
440.1054895301276
 21
308.6167033566553
 31
0.0
 12
437.6054895301276
 22
323.6167033566553
 32
0.0
 13
437.6054895301276
 23
323.6167033566553
 33
0.0
  0
LINE
  5
58A5
330
67
100
AcDbEntity
  8
F_01 sichtbar
370
    13
100
AcDbLine
 10
450.1054761080813
 20
326.6167028310474
 30
0.0
 11
450.1054761080795
 21
826.8157575793875
 31
0.0
  0
LINE
  5
58A6
330
67
100
AcDbEntity
  8
F_01 sichtbar
370
    13
100
AcDbLine
 10
463.6054575296038
 20
363.6167378356058
 30
0.0
 11
463.6054575296038
 21
323.6167378356058
 31
0.0
  0
LINE
  5
58A7
330
67
100
AcDbEntity
  8
F_01 sichtbar
370
    13
100
AcDbLine
 10
463.6054575296038
 20
323.6167378356058
 30
0.0
 11
503.6054575296039
 21
323.6167378356058
 31
0.0
  0
LINE
  5
58A8
330
67
100
AcDbEntity
  8
F_01 sichtbar
370
    13
100
AcDbLine
 10
679.947834256276
 20
323.6167378356058
 30
0.0
 11
679.947834256276
 21
328.6167378356058
 31
0.0
  0
LINE
  5
58A9
330
67
100
AcDbEntity
  8
F_01 sichtbar
370
    13
100
AcDbLine
 10
503.6054575296039
 20
328.6167378356058
 30
0.0
 11
483.6054575296039
 21
328.6167378356058
 31
0.0
  0
LINE
  5
58AA
330
67
100
AcDbEntity
  8
F_01 sichtbar
370
    13
100
AcDbLine
 10
483.6054575296039
 20
328.6167378356058
 30
0.0
 11
483.6054575296039
 21
363.6167378356058
 31
0.0
  0
LINE
  5
58AB
330
67
100
AcDbEntity
  8
F_01 sichtbar
370
    13
100
AcDbLine
 10
483.6054575296039
 20
363.6167378356058
 30
0.0
 11
463.6054575296038
 21
363.6167378356058
 31
0.0
  0
LINE
  5
58AC
330
67
100
AcDbEntity
  8
F_02 unsichtbar
370
    13
100
AcDbLine
 10
466.1054575296039
 20
361.1167378356058
 30
0.0
 11
466.1054575296039
 21
326.1167378356058
 31
0.0
  0
LINE
  5
58AD
330
67
100
AcDbEntity
  8
F_02 unsichtbar
370
    13
100
AcDbLine
 10
466.1054575296039
 20
326.1167378356058
 30
0.0
 11
481.1054575296038
 21
326.1167378356058
 31
0.0
  0
LINE
  5
58AE
330
67
100
AcDbEntity
  8
F_02 unsichtbar
370
    13
100
AcDbLine
 10
481.1054575296038
 20
326.1167378356058
 30
0.0
 11
481.1054575296038
 21
361.1167378356058
 31
0.0
  0
LINE
  5
58AF
330
67
100
AcDbEntity
  8
F_02 unsichtbar
370
    13
100
AcDbLine
 10
481.1054575296038
 20
361.1167378356058
 30
0.0
 11
466.1054575296039
 21
361.1167378356058
 31
0.0
  0
LINE
  5
58B0
330
67
100
AcDbEntity
  8
F_02 unsichtbar
370
    13
100
AcDbLine
 10
481.3725628314896
 20
326.1167378356058
 30
0.0
 11
501.1054575296038
 21
326.1167378356058
 31
0.0
  0
LINE
  5
58B1
330
67
100
AcDbEntity
  8
F_01 sichtbar
370
    13
100
AcDbLine
 10
483.6054575296039
 20
328.6167378356058
 30
0.0
 11
679.947834256276
 21
328.6167378356058
 31
0.0
  0
LINE
  5
58B2
330
67
100
AcDbEntity
  8
F_01 sichtbar
370
    13
100
AcDbLine
 10
483.6054575296039
 20
358.6167378356058
 30
0.0
 11
483.6054575296039
 21
363.6167378356058
 31
0.0
  0
LINE
  5
58B3
330
67
100
AcDbEntity
  8
F_01 sichtbar
370
    13
100
AcDbLine
 10
503.6054575296039
 20
323.6167378356058
 30
0.0
 11
679.947834256276
 21
323.6167378356058
 31
0.0
  0
LINE
  5
58B4
330
67
100
AcDbEntity
  8
F_02 unsichtbar
370
    13
100
AcDbLine
 10
495.6054575296039
 20
328.6167378356058
 30
0.0
 11
495.6054575296039
 21
323.6167378356058
 31
0.0
  0
LINE
  5
58B5
330
67
100
AcDbEntity
  8
F_01 sichtbar
370
    13
100
AcDbLine
 10
484.6054575296002
 20
334.6167378356058
 30
0.0
 11
679.947834256276
 21
334.6167378356058
 31
0.0
  0
LWPOLYLINE
  5
58B6
330
67
100
AcDbEntity
  8
F_01 sichtbar
370
    13
100
AcDbPolyline
 90
        4
 70
     0
 43
0.0
 10
679.947834256276
 20
331.6167378356058
 10
484.6054575296002
 20
331.6167378356058
 10
484.6054575296002
 20
334.6167378356058
 10
679.947834256276
 20
334.6167378356022
  0
CIRCLE
  5
58B7
330
67
100
AcDbEntity
  8
F_01 sichtbar
370
    13
100
AcDbCircle
 10
661.1054575295966
 20
330.1167378356058
 30
0.0
 40
1.5
  0
CIRCLE
  5
58B8
330
67
100
AcDbEntity
  8
F_01 sichtbar
370
    13
100
AcDbCircle
 10
626.1054575295966
 20
330.1167378356058
 30
0.0
 40
1.5
  0
CIRCLE
  5
58B9
330
67
100
AcDbEntity
  8
F_01 sichtbar
370
    13
100
AcDbCircle
 10
591.1054575295966
 20
330.1167378356058
 30
0.0
 40
1.5
  0
CIRCLE
  5
58BA
330
67
100
AcDbEntity
  8
F_01 sichtbar
370
    13
100
AcDbCircle
 10
556.1054575295965
 20
330.1167378356058
 30
0.0
 40
1.5
  0
CIRCLE
  5
58BB
330
67
100
AcDbEntity
  8
F_01 sichtbar
370
    13
100
AcDbCircle
 10
661.1054575295966
 20
330.1167378356058
 30
0.0
 40
1.5
  0
CIRCLE
  5
58BC
330
67
100
AcDbEntity
  8
F_01 sichtbar
370
    13
100
AcDbCircle
 10
626.1054575295966
 20
330.1167378356058
 30
0.0
 40
1.5
  0
CIRCLE
  5
58BD
330
67
100
AcDbEntity
  8
F_01 sichtbar
370
    13
100
AcDbCircle
 10
591.1054575295966
 20
330.1167378356058
 30
0.0
 40
1.5
  0
CIRCLE
  5
58BE
330
67
100
AcDbEntity
  8
F_01 sichtbar
370
    13
100
AcDbCircle
 10
556.1054575295965
 20
330.1167378356058
 30
0.0
 40
1.5
  0
CIRCLE
  5
58BF
330
67
100
AcDbEntity
  8
F_01 sichtbar
370
    13
100
AcDbCircle
 10
521.1054575295966
 20
330.1167378356058
 30
0.0
 40
1.5
  0
CIRCLE
  5
58C0
330
67
100
AcDbEntity
  8
F_01 sichtbar
370
    13
100
AcDbCircle
 10
486.1054575295965
 20
330.1167378356058
 30
0.0
 40
1.5
  0
POLYLINE
  5
58C1
330
67
100
AcDbEntity
  8
F_31 Ansichtsfenster
370
    13
100
AcDb2dPolyline
 66
     1
 10
0.0
 20
0.0
 30
0.0
  0
VERTEX
  5
58C2
330
58C1
100
AcDbEntity
  8
F_31 Ansichtsfenster
370
    13
100
AcDbVertex
100
AcDb2dVertex
 10
679.947834256276
 20
323.6167378356054
 30
0.0
  0
VERTEX
  5
58C3
330
58C1
100
AcDbEntity
  8
F_31 Ansichtsfenster
370
    13
100
AcDbVertex
100
AcDb2dVertex
 10
679.947834256276
 20
334.6167378356022
 30
0.0
  0
SEQEND
  5
58C4
330
58C1
100
AcDbEntity
  8
F_31 Ansichtsfenster
370
    13
  0
MTEXT
  5
58C5
102
{ACAD_XDICTIONARY
360
5906
102
}
330
67
100
AcDbEntity
  8
F_01 sichtbar
370
    13
100
AcDbMText
 10
482.9436486194972
 20
439.3117299946407
 30
0.0
 40
15.0
 41
267.009647861938
 71
     1
 72
     5
  1
\A1;{\fArial Narrow|b0|i0|c0|p34;Gitterrost mit\PDrahtgeflecht \U+00D8 3 mm\PMaschenweite 35 x 35 mm}
 73
     1
 44
1.0
  0
ENDSEC
  0
SECTION
  2
OBJECTS
  0
DICTIONARY
  5
C
330
0
100
AcDbDictionary
281
     1
  3
ACAD_2007HEADERVARS_RT
350
58D6
  3
ACAD_COLOR
350
5E
  3
ACAD_GROUP
350
D
  3
ACAD_LAYOUT
350
5D
  3
ACAD_MATERIAL
350
10
  3
ACAD_MLEADERSTYLE
350
61
  3
ACAD_MLINESTYLE
350
5A
  3
ACAD_PLOTSETTINGS
350
5C
  3
ACAD_PLOTSTYLENAME
350
E
  3
ACAD_SCALELIST
350
3D
  3
ACAD_TABLESTYLE
350
5F
  3
ACAD_VISUALSTYLE
350
29
  3
ACDB_RECOMPOSE_DATA
350
58D5
  3
AcDbVariableDictionary
350
58CA
  3
AEC_PROPERTY_SET_DEFS
350
57FE
  0
DICTIONARY
  5
5731
330
2
100
AcDbDictionary
280
     1
281
     1
  3
ACAD_LAYERSTATES
360
5732
  0
DICTIONARY
  5
5724
330
5723
100
AcDbDictionary
280
     1
281
     1
  0
DICTIONARY
  5
5726
330
5725
100
AcDbDictionary
280
     1
281
     1
  0
DICTIONARY
  5
5701
330
5700
100
AcDbDictionary
280
     1
281
     1
  3
ACAD_SORTENTS
360
5702
  0
DICTIONARY
  5
5707
330
5706
100
AcDbDictionary
280
     1
281
     1
  3
ACAD_SORTENTS
360
5708
  0
DICTIONARY
  5
5906
330
58C5
100
AcDbDictionary
280
     1
281
     1
  3
ACAD_MTEXT_2008_RT
360
5907
  0
DICTIONARY
  5
58D6
102
{ACAD_REACTORS
330
C
102
}
330
C
100
AcDbDictionary
281
     1
  3
DIMJOGANG
350
58D7
  0
DICTIONARY
  5
5E
102
{ACAD_REACTORS
330
C
102
}
330
C
100
AcDbDictionary
281
     1
  0
DICTIONARY
  5
D
102
{ACAD_REACTORS
330
C
102
}
330
C
100
AcDbDictionary
281
     1
  0
DICTIONARY
  5
5D
102
{ACAD_REACTORS
330
C
102
}
330
C
100
AcDbDictionary
281
     1
  3
Layout1
350
66
  3
Layout2
350
6E
  3
Model
350
6A
  0
DICTIONARY
  5
10
102
{ACAD_REACTORS
330
C
102
}
330
C
100
AcDbDictionary
281
     1
  3
ByBlock
350
19
  3
ByLayer
350
11
  3
Global
350
21
  0
DICTIONARY
  5
61
102
{ACAD_REACTORS
330
C
102
}
330
C
100
AcDbDictionary
281
     1
  3
Standard
350
62
  0
DICTIONARY
  5
5A
102
{ACAD_REACTORS
330
C
102
}
330
C
100
AcDbDictionary
281
     1
  3
Standard
350
5B
  0
DICTIONARY
  5
5C
102
{ACAD_REACTORS
330
C
102
}
330
C
100
AcDbDictionary
281
     1
  0
ACDBDICTIONARYWDFLT
  5
E
102
{ACAD_REACTORS
330
C
102
}
330
C
100
AcDbDictionary
281
     1
  3
Normal
350
F
100
AcDbDictionaryWithDefault
340
F
  0
DICTIONARY
  5
3D
102
{ACAD_REACTORS
330
C
102
}
330
C
100
AcDbDictionary
281
     1
  3
A0
350
3E
  3
A1
350
3F
  3
A2
350
40
  3
A3
350
41
  3
A4
350
42
  3
A5
350
43
  3
A6
350
44
  3
A7
350
45
  3
A8
350
46
  3
A9
350
47
  3
B0
350
48
  3
B1
350
49
  3
B2
350
4A
  3
B3
350
4B
  3
B4
350
4C
  3
B5
350
4D
  3
B6
350
4E
  0
DICTIONARY
  5
5F
102
{ACAD_REACTORS
330
C
102
}
330
C
100
AcDbDictionary
281
     1
  3
Standard
350
60
  0
DICTIONARY
  5
29
102
{ACAD_REACTORS
330
C
102
}
330
C
100
AcDbDictionary
281
     1
  3
2dWireframe
350
2F
  3
3D Hidden
350
31
  3
3dWireframe
350
30
  3
Basic
350
2E
  3
Brighten
350
35
  3
ColorChange
350
39
  3
Conceptual
350
32
  3
Dim
350
34
  3
EdgeColorOff
350
3C
  3
Facepattern
350
38
  3
Flat
350
2A
  3
FlatWithEdges
350
2B
  3
Gouraud
350
2C
  3
GouraudWithEdges
350
2D
  3
JitterOff
350
3A
  3
Linepattern
350
37
  3
OverhangOff
350
3B
  3
Realistic
350
33
  3
Thicken
350
36
  0
XRECORD
  5
58D5
102
{ACAD_REACTORS
330
C
102
}
330
C
100
AcDbXrecord
280
     1
 90
        1
330
60
  0
DICTIONARY
  5
58CA
102
{ACAD_REACTORS
330
C
102
}
330
C
100
AcDbDictionary
281
     1
  3
CANNOSCALE
350
58CE
  3
CMLEADERSTYLE
350
58CC
  3
CTABLESTYLE
350
58CB
  3
LAYEREVAL
350
58D0
  3
LAYERNOTIFY
350
58D1
  3
LIGHTINGUNITS
350
58CF
  3
MSLTSCALE
350
58CD
  3
XCLIPFRAME
350
58D2
  0
DICTIONARY
  5
57FE
102
{ACAD_REACTORS
330
C
102
}
330
C
100
AcDbDictionary
281
     1
  0
DICTIONARY
  5
5732
102
{ACAD_REACTORS
330
5731
102
}
330
5731
100
AcDbDictionary
281
     1
  0
SORTENTSTABLE
  5
5702
102
{ACAD_REACTORS
330
5701
102
}
330
5701
100
AcDbSortentsTable
330
5700
  0
SORTENTSTABLE
  5
5708
102
{ACAD_REACTORS
330
5707
102
}
330
5707
100
AcDbSortentsTable
330
5706
  0
XRECORD
  5
5907
102
{ACAD_REACTORS
330
5906
102
}
330
5906
100
AcDbXrecord
280
     1
 40
441939.0
  1
\A1;{\fArial Narrow|b0|i0|c0|p34;Gitterrost mit\PDrahtgeflecht Ø 3 mm\PMaschenweite 35 x 35 mm}
  0
XRECORD
  5
58D7
102
{ACAD_REACTORS
330
58D6
102
}
330
58D6
100
AcDbXrecord
280
     1
 40
1.570796326794896
  0
LAYOUT
  5
66
102
{ACAD_REACTORS
330
5D
102
}
330
5D
100
AcDbPlotSettings
  1

  2
HP Deskjet 1280 series
  4

  6

 40
0.0
 41
0.0
 42
0.0
 43
0.0
 44
0.0
 45
0.0
 46
0.0
 47
0.0
 48
0.0
 49
0.0
140
0.0
141
0.0
142
1.0
143
1.0
 70
   688
 72
     0
 73
     0
 74
     5
  7

 75
    16
147
1.0
 76
     0
 77
     2
 78
   300
148
0.0
149
0.0
100
AcDbLayout
  1
Layout1
 70
     1
 71
     1
 10
0.0
 20
0.0
 11
420.0
 21
297.0
 12
0.0
 22
0.0
 32
0.0
 14
1.000000000000000E+20
 24
1.000000000000000E+20
 34
1.000000000000000E+20
 15
-1.000000000000000E+20
 25
-1.000000000000000E+20
 35
-1.000000000000000E+20
146
0.0
 13
0.0
 23
0.0
 33
0.0
 16
1.0
 26
0.0
 36
0.0
 17
0.0
 27
1.0
 37
0.0
 76
     0
330
63
  0
LAYOUT
  5
6E
102
{ACAD_REACTORS
330
5D
102
}
330
5D
100
AcDbPlotSettings
  1

  2
HP Deskjet 1280 series
  4

  6

 40
0.0
 41
0.0
 42
0.0
 43
0.0
 44
0.0
 45
0.0
 46
0.0
 47
0.0
 48
0.0
 49
0.0
140
0.0
141
0.0
142
1.0
143
1.0
 70
   688
 72
     0
 73
     0
 74
     5
  7

 75
    16
147
1.0
 76
     0
 77
     2
 78
   300
148
0.0
149
0.0
100
AcDbLayout
  1
Layout2
 70
     1
 71
     2
 10
0.0
 20
0.0
 11
12.0
 21
9.0
 12
0.0
 22
0.0
 32
0.0
 14
0.0
 24
0.0
 34
0.0
 15
0.0
 25
0.0
 35
0.0
146
0.0
 13
0.0
 23
0.0
 33
0.0
 16
1.0
 26
0.0
 36
0.0
 17
0.0
 27
1.0
 37
0.0
 76
     0
330
6B
  0
LAYOUT
  5
6A
102
{ACAD_REACTORS
330
5D
102
}
330
5D
100
AcDbPlotSettings
  1

  2
HP Deskjet 1280 series
  4

  6

 40
0.0
 41
0.0
 42
0.0
 43
0.0
 44
0.0
 45
0.0
 46
0.0
 47
0.0
 48
0.0
 49
0.0
140
0.0
141
0.0
142
1.0
143
1.0
 70
  1712
 72
     0
 73
     0
 74
     0
  7

 75
     0
147
1.0
 76
     0
 77
     2
 78
   300
148
0.0
149
0.0
100
AcDbLayout
  1
Model
 70
     1
 71
     0
 10
0.0
 20
0.0
 11
12.0
 21
9.0
 12
0.0
 22
0.0
 32
0.0
 14
0.0
 24
0.0
 34
0.0
 15
0.0
 25
0.0
 35
0.0
146
0.0
 13
0.0
 23
0.0
 33
0.0
 16
1.0
 26
0.0
 36
0.0
 17
0.0
 27
1.0
 37
0.0
 76
     0
330
67
331
52
  0
MATERIAL
  5
19
102
{ACAD_XDICTIONARY
360
1A
102
}
102
{ACAD_REACTORS
330
10
102
}
330
10
100
AcDbMaterial
  1
ByBlock
 72
     0
 43
0.0208333333333333
 43
0.0
 43
0.0
 43
0.0
 43
0.0
 43
0.0208333333333333
 43
0.0
 43
0.0
 43
0.0
 43
0.0
 43
1.0
 43
0.0
 43
0.0
 43
0.0
 43
0.0
 43
1.0
 77
     0
 47
0.0208333333333333
 47
0.0
 47
0.0
 47
0.0
 47
0.0
 47
0.0208333333333333
 47
0.0
 47
0.0
 47
0.0
 47
0.0
 47
1.0
 47
0.0
 47
0.0
 47
0.0
 47
0.0
 47
1.0
171
     0
 49
0.0208333333333333
 49
0.0
 49
0.0
 49
0.0
 49
0.0
 49
0.0208333333333333
 49
0.0
 49
0.0
 49
0.0
 49
0.0
 49
1.0
 49
0.0
 49
0.0
 49
0.0
 49
0.0
 49
1.0
175
     0
142
0.0208333333333333
142
0.0
142
0.0
142
0.0
142
0.0
142
0.0208333333333333
142
0.0
142
0.0
142
0.0
142
0.0
142
1.0
142
0.0
142
0.0
142
0.0
142
0.0
142
1.0
179
     0
144
0.0208333333333333
144
0.0
144
0.0
144
0.0
144
0.0
144
0.0208333333333333
144
0.0
144
0.0
144
0.0
144
0.0
144
1.0
144
0.0
144
0.0
144
0.0
144
0.0
144
1.0
147
0.0208333333333333
147
0.0
147
0.0
147
0.0
147
0.0
147
0.0208333333333333
147
0.0
147
0.0
147
0.0
147
0.0
147
1.0
147
0.0
147
0.0
147
0.0
147
0.0
147
1.0
  0
MATERIAL
  5
11
102
{ACAD_XDICTIONARY
360
12
102
}
102
{ACAD_REACTORS
330
10
102
}
330
10
100
AcDbMaterial
  1
ByLayer
 72
     0
 43
0.0208333333333333
 43
0.0
 43
0.0
 43
0.0
 43
0.0
 43
0.0208333333333333
 43
0.0
 43
0.0
 43
0.0
 43
0.0
 43
1.0
 43
0.0
 43
0.0
 43
0.0
 43
0.0
 43
1.0
 77
     0
 47
0.0208333333333333
 47
0.0
 47
0.0
 47
0.0
 47
0.0
 47
0.0208333333333333
 47
0.0
 47
0.0
 47
0.0
 47
0.0
 47
1.0
 47
0.0
 47
0.0
 47
0.0
 47
0.0
 47
1.0
171
     0
 49
0.0208333333333333
 49
0.0
 49
0.0
 49
0.0
 49
0.0
 49
0.0208333333333333
 49
0.0
 49
0.0
 49
0.0
 49
0.0
 49
1.0
 49
0.0
 49
0.0
 49
0.0
 49
0.0
 49
1.0
175
     0
142
0.0208333333333333
142
0.0
142
0.0
142
0.0
142
0.0
142
0.0208333333333333
142
0.0
142
0.0
142
0.0
142
0.0
142
1.0
142
0.0
142
0.0
142
0.0
142
0.0
142
1.0
179
     0
144
0.0208333333333333
144
0.0
144
0.0
144
0.0
144
0.0
144
0.0208333333333333
144
0.0
144
0.0
144
0.0
144
0.0
144
1.0
144
0.0
144
0.0
144
0.0
144
0.0
144
1.0
147
0.0208333333333333
147
0.0
147
0.0
147
0.0
147
0.0
147
0.0208333333333333
147
0.0
147
0.0
147
0.0
147
0.0
147
1.0
147
0.0
147
0.0
147
0.0
147
0.0
147
1.0
  0
MATERIAL
  5
21
102
{ACAD_XDICTIONARY
360
22
102
}
102
{ACAD_REACTORS
330
10
102
}
330
10
100
AcDbMaterial
  1
Global
 72
     0
 43
0.0208333333333333
 43
0.0
 43
0.0
 43
0.0
 43
0.0
 43
0.0208333333333333
 43
0.0
 43
0.0
 43
0.0
 43
0.0
 43
1.0
 43
0.0
 43
0.0
 43
0.0
 43
0.0
 43
1.0
 77
     0
 47
0.0208333333333333
 47
0.0
 47
0.0
 47
0.0
 47
0.0
 47
0.0208333333333333
 47
0.0
 47
0.0
 47
0.0
 47
0.0
 47
1.0
 47
0.0
 47
0.0
 47
0.0
 47
0.0
 47
1.0
171
     0
 49
0.0208333333333333
 49
0.0
 49
0.0
 49
0.0
 49
0.0
 49
0.0208333333333333
 49
0.0
 49
0.0
 49
0.0
 49
0.0
 49
1.0
 49
0.0
 49
0.0
 49
0.0
 49
0.0
 49
1.0
175
     0
142
0.0208333333333333
142
0.0
142
0.0
142
0.0
142
0.0
142
0.0208333333333333
142
0.0
142
0.0
142
0.0
142
0.0
142
1.0
142
0.0
142
0.0
142
0.0
142
0.0
142
1.0
179
     0
144
0.0208333333333333
144
0.0
144
0.0
144
0.0
144
0.0
144
0.0208333333333333
144
0.0
144
0.0
144
0.0
144
0.0
144
1.0
144
0.0
144
0.0
144
0.0
144
0.0
144
1.0
147
0.0208333333333333
147
0.0
147
0.0
147
0.0
147
0.0
147
0.0208333333333333
147
0.0
147
0.0
147
0.0
147
0.0
147
1.0
147
0.0
147
0.0
147
0.0
147
0.0
147
1.0
  0
MLEADERSTYLE
  5
62
102
{ACAD_REACTORS
330
61
102
}
330
61
100
AcDbMLeaderStyle
170
     2
171
     1
172
     0
 90
        2
 40
0.0
 41
0.0
173
     1
 91
-1056964608
340
56
 92
       -2
290
     1
 42
0.09
291
     1
 43
0.36
  3
Standard
 44
0.18
300

342
50
174
     1
178
     6
175
     1
176
     0
 93
-1056964608
 45
0.18
292
     0
297
     0
 46
0.18
 94
-1056964608
 47
1.0
 49
1.0
140
1.0
293
     1
141
0.0
294
     1
177
     0
142
1.0
295
     0
296
     0
143
0.125
1001
ACAD_MLEADERVER
1070
     2
  0
MLINESTYLE
  5
5B
102
{ACAD_REACTORS
330
5A
102
}
330
5A
100
AcDbMlineStyle
  2
STANDARD
 70
     0
  3

 62
   256
 51
90.0
 52
90.0
 71
     2
 49
0.5
 62
   256
  6
BYLAYER
 49
-0.5
 62
   256
  6
BYLAYER
  0
ACDBPLACEHOLDER
  5
F
102
{ACAD_REACTORS
330
E
102
}
330
E
  0
SCALE
  5
3E
102
{ACAD_REACTORS
330
3D
102
}
330
3D
100
AcDbScale
 70
     0
300
1:1
140
1.0
141
1.0
290
     1
  0
SCALE
  5
3F
102
{ACAD_REACTORS
330
3D
102
}
330
3D
100
AcDbScale
 70
     0
300
1:2
140
1.0
141
2.0
290
     0
  0
SCALE
  5
40
102
{ACAD_REACTORS
330
3D
102
}
330
3D
100
AcDbScale
 70
     0
300
1:4
140
1.0
141
4.0
290
     0
  0
SCALE
  5
41
102
{ACAD_REACTORS
330
3D
102
}
330
3D
100
AcDbScale
 70
     0
300
1:5
140
1.0
141
5.0
290
     0
  0
SCALE
  5
42
102
{ACAD_REACTORS
330
3D
102
}
330
3D
100
AcDbScale
 70
     0
300
1:8
140
1.0
141
8.0
290
     0
  0
SCALE
  5
43
102
{ACAD_REACTORS
330
3D
102
}
330
3D
100
AcDbScale
 70
     0
300
1:10
140
1.0
141
10.0
290
     0
  0
SCALE
  5
44
102
{ACAD_REACTORS
330
3D
102
}
330
3D
100
AcDbScale
 70
     0
300
1:16
140
1.0
141
16.0
290
     0
  0
SCALE
  5
45
102
{ACAD_REACTORS
330
3D
102
}
330
3D
100
AcDbScale
 70
     0
300
1:20
140
1.0
141
20.0
290
     0
  0
SCALE
  5
46
102
{ACAD_REACTORS
330
3D
102
}
330
3D
100
AcDbScale
 70
     0
300
1:30
140
1.0
141
30.0
290
     0
  0
SCALE
  5
47
102
{ACAD_REACTORS
330
3D
102
}
330
3D
100
AcDbScale
 70
     0
300
1:40
140
1.0
141
40.0
290
     0
  0
SCALE
  5
48
102
{ACAD_REACTORS
330
3D
102
}
330
3D
100
AcDbScale
 70
     0
300
1:50
140
1.0
141
50.0
290
     0
  0
SCALE
  5
49
102
{ACAD_REACTORS
330
3D
102
}
330
3D
100
AcDbScale
 70
     0
300
1:100
140
1.0
141
100.0
290
     0
  0
SCALE
  5
4A
102
{ACAD_REACTORS
330
3D
102
}
330
3D
100
AcDbScale
 70
     0
300
2:1
140
2.0
141
1.0
290
     0
  0
SCALE
  5
4B
102
{ACAD_REACTORS
330
3D
102
}
330
3D
100
AcDbScale
 70
     0
300
4:1
140
4.0
141
1.0
290
     0
  0
SCALE
  5
4C
102
{ACAD_REACTORS
330
3D
102
}
330
3D
100
AcDbScale
 70
     0
300
8:1
140
8.0
141
1.0
290
     0
  0
SCALE
  5
4D
102
{ACAD_REACTORS
330
3D
102
}
330
3D
100
AcDbScale
 70
     0
300
10:1
140
10.0
141
1.0
290
     0
  0
SCALE
  5
4E
102
{ACAD_REACTORS
330
3D
102
}
330
3D
100
AcDbScale
 70
     0
300
100:1
140
100.0
141
1.0
290
     0
  0
TABLESTYLE
  5
60
102
{ACAD_XDICTIONARY
360
58D3
102
}
102
{ACAD_REACTORS
330
5F
102
}
330
5F
100
AcDbTableStyle
  3
Standard
 70
     0
 71
     0
 40
1.5
 41
1.5
280
     0
281
     0
  7
Standard
140
4.5
170
     2
 62
     0
 63
     7
283
     0
274
    -2
284
     1
 64
     0
275
    -2
285
     1
 65
     0
276
    -2
286
     1
 66
     0
277
    -2
287
     1
 67
     0
278
    -2
288
     1
 68
     0
279
    -2
289
     1
 69
     0
  7
Standard
140
6.0
170
     5
 62
     0
 63
     7
283
     0
274
    -2
284
     1
 64
     0
275
    -2
285
     1
 65
     0
276
    -2
286
     1
 66
     0
277
    -2
287
     1
 67
     0
278
    -2
288
     1
 68
     0
279
    -2
289
     1
 69
     0
  7
Standard
140
4.5
170
     5
 62
     0
 63
     7
283
     0
274
    -2
284
     1
 64
     0
275
    -2
285
     1
 65
     0
276
    -2
286
     1
 66
     0
277
    -2
287
     1
 67
     0
278
    -2
288
     1
 68
     0
279
    -2
289
     1
 69
     0
  0
VISUALSTYLE
  5
2F
102
{ACAD_XDICTIONARY
360
58E5
102
}
102
{ACAD_REACTORS
330
29
102
}
330
29
100
AcDbVisualStyle
  2
2dWireframe
 70
     4
 71
     0
 72
     2
 73
     0
 90
        0
 40
-0.6
 41
-30.0
 62
     5
 63
     7
421
 16777215
 74
     1
 91
        4
 64
     7
 65
   257
 75
     1
175
     1
 42
1.0
 92
        0
 66
   257
 43
1.0
 76
     1
 77
     6
 78
     2
 67
     7
 79
     5
170
     0
171
     0
290
     0
174
     0
 93
        1
 44
0.0
173
     0
291
     0
 45
0.0
1001
ACAD
1000
AcDbSavedByObjectVersion
1070
     0
  0
VISUALSTYLE
  5
31
102
{ACAD_XDICTIONARY
360
58E9
102
}
102
{ACAD_REACTORS
330
29
102
}
330
29
100
AcDbVisualStyle
  2
3D Hidden
 70
     6
 71
     1
 72
     2
 73
     2
 90
        0
 40
-0.6
 41
-30.0
 62
     5
 63
     7
421
 16777215
 74
     2
 91
        2
 64
     7
 65
   257
 75
     2
175
     1
 42
179.0
 92
        0
 66
   257
 43
1.0
 76
     1
 77
     6
 78
     2
 67
     7
 79
     3
170
     0
171
     0
290
     0
174
     0
 93
        1
 44
0.0
173
     0
291
     0
 45
0.0
1001
ACAD
1000
AcDbSavedByObjectVersion
1070
     0
  0
VISUALSTYLE
  5
30
102
{ACAD_XDICTIONARY
360
58E7
102
}
102
{ACAD_REACTORS
330
29
102
}
330
29
100
AcDbVisualStyle
  2
3dWireframe
 70
     5
 71
     0
 72
     2
 73
     0
 90
        0
 40
-0.6
 41
-30.0
 62
     5
 63
     7
421
 16777215
 74
     1
 91
        4
 64
     7
 65
   257
 75
     1
175
     1
 42
1.0
 92
        0
 66
   257
 43
1.0
 76
     1
 77
     6
 78
     2
 67
     7
 79
     5
170
     0
171
     0
290
     0
174
     0
 93
        1
 44
0.0
173
     0
291
     0
 45
0.0
1001
ACAD
1000
AcDbSavedByObjectVersion
1070
     0
  0
VISUALSTYLE
  5
2E
102
{ACAD_XDICTIONARY
360
58E3
102
}
102
{ACAD_REACTORS
330
29
102
}
330
29
100
AcDbVisualStyle
  2
Basic
 70
     7
 71
     1
 72
     0
 73
     1
 90
        0
 40
-0.6
 41
-30.0
 62
     5
 63
     7
421
 16777215
 74
     0
 91
        4
 64
     7
 65
   257
 75
     1
175
     1
 42
1.0
 92
        8
 66
     7
 43
1.0
 76
     1
 77
     6
 78
     2
 67
     7
 79
     5
170
     0
171
     0
290
     0
174
     0
 93
        1
 44
0.0
173
     0
291
     1
 45
0.0
1001
ACAD
1000
AcDbSavedByObjectVersion
1070
     0
  0
VISUALSTYLE
  5
35
102
{ACAD_XDICTIONARY
360
58F1
102
}
102
{ACAD_REACTORS
330
29
102
}
330
29
100
AcDbVisualStyle
  2
Brighten
 70
    12
 71
     2
 72
     2
 73
     0
 90
        0
 40
-0.6
 41
-30.0
 62
     5
 63
     7
421
 16777215
 74
     1
 91
        4
 64
     7
 65
   257
 75
     1
175
     1
 42
1.0
 92
        8
 66
     7
 43
1.0
 76
     1
 77
     6
 78
     2
 67
     7
 79
     5
170
     0
171
     0
290
     0
174
     0
 93
        1
 44
50.0
173
     0
291
     1
 45
0.0
1001
ACAD
1000
AcDbSavedByObjectVersion
1070
     0
  0
VISUALSTYLE
  5
39
102
{ACAD_XDICTIONARY
360
58F9
102
}
102
{ACAD_REACTORS
330
29
102
}
330
29
100
AcDbVisualStyle
  2
ColorChange
 70
    16
 71
     2
 72
     2
 73
     3
 90
        0
 40
-0.6
 41
-30.0
 62
     5
 63
     8
421
  8421504
 74
     1
 91
        4
 64
     7
 65
   257
 75
     1
175
     1
 42
1.0
 92
        8
 66
     8
424
  8421504
 43
1.0
 76
     1
 77
     6
 78
     2
 67
     7
 79
     5
170
     0
171
     0
290
     0
174
     0
 93
        1
 44
0.0
173
     0
291
     1
 45
0.0
1001
ACAD
1000
AcDbSavedByObjectVersion
1070
     0
  0
VISUALSTYLE
  5
32
102
{ACAD_XDICTIONARY
360
58EB
102
}
102
{ACAD_REACTORS
330
29
102
}
330
29
100
AcDbVisualStyle
  2
Conceptual
 70
     9
 71
     3
 72
     2
 73
     0
 90
        0
 40
-0.6
 41
-30.0
 62
     5
 63
     7
421
 16777215
 74
     2
 91
        2
 64
     7
 65
   257
 75
     1
175
     1
 42
179.0
 92
        8
 66
     7
 43
1.0
 76
     1
 77
     6
 78
     2
 67
     7
 79
     3
170
     0
171
     0
290
     0
174
     0
 93
        1
 44
0.0
173
     0
291
     0
 45
0.0
1001
ACAD
1000
AcDbSavedByObjectVersion
1070
     0
  0
VISUALSTYLE
  5
34
102
{ACAD_XDICTIONARY
360
58EF
102
}
102
{ACAD_REACTORS
330
29
102
}
330
29
100
AcDbVisualStyle
  2
Dim
 70
    11
 71
     2
 72
     2
 73
     0
 90
        0
 40
-0.6
 41
-30.0
 62
     5
 63
     7
421
 16777215
 74
     1
 91
        4
 64
     7
 65
   257
 75
     1
175
     1
 42
1.0
 92
        8
 66
     7
 43
1.0
 76
     1
 77
     6
 78
     2
 67
     7
 79
     5
170
     0
171
     0
290
     0
174
     0
 93
        1
 44
-50.0
173
     0
291
     1
 45
0.0
1001
ACAD
1000
AcDbSavedByObjectVersion
1070
     0
  0
VISUALSTYLE
  5
3C
102
{ACAD_XDICTIONARY
360
58FF
102
}
102
{ACAD_REACTORS
330
29
102
}
330
29
100
AcDbVisualStyle
  2
EdgeColorOff
 70
    22
 71
     2
 72
     2
 73
     0
 90
        0
 40
-0.6
 41
-30.0
 62
     5
 63
     7
421
 16777215
 74
     1
 91
        4
 64
     7
 65
   257
 75
     1
175
     1
 42
1.0
 92
        8
 66
     7
 43
1.0
 76
     1
 77
     6
 78
     2
 67
     7
 79
     5
170
     0
171
     0
290
     0
174
     0
 93
        1
 44
0.0
173
     0
291
     1
 45
0.0
1001
ACAD
1000
AcDbSavedByObjectVersion
1070
     0
  0
VISUALSTYLE
  5
38
102
{ACAD_XDICTIONARY
360
58F7
102
}
102
{ACAD_REACTORS
330
29
102
}
330
29
100
AcDbVisualStyle
  2
Facepattern
 70
    15
 71
     2
 72
     2
 73
     0
 90
        0
 40
-0.6
 41
-30.0
 62
     5
 63
     7
421
 16777215
 74
     1
 91
        4
 64
     7
 65
   257
 75
     1
175
     1
 42
1.0
 92
        8
 66
     7
 43
1.0
 76
     1
 77
     6
 78
     2
 67
     7
 79
     5
170
     0
171
     0
290
     0
174
     0
 93
        1
 44
0.0
173
     0
291
     1
 45
0.0
1001
ACAD
1000
AcDbSavedByObjectVersion
1070
     0
  0
VISUALSTYLE
  5
2A
102
{ACAD_XDICTIONARY
360
58DB
102
}
102
{ACAD_REACTORS
330
29
102
}
330
29
100
AcDbVisualStyle
  2
Flat
 70
     0
 71
     2
 72
     1
 73
     1
 90
        2
 40
-0.6
 41
30.0
 62
     5
 63
     7
421
 16777215
 74
     0
 91
        4
 64
     7
 65
   257
 75
     1
175
     1
 42
1.0
 92
        8
 66
     7
 43
1.0
 76
     1
 77
     6
 78
     2
 67
     7
 79
     5
170
     0
171
     0
290
     0
174
     0
 93
       13
 44
0.0
173
     0
291
     1
 45
0.0
1001
ACAD
1000
AcDbSavedByObjectVersion
1070
     0
  0
VISUALSTYLE
  5
2B
102
{ACAD_XDICTIONARY
360
58DD
102
}
102
{ACAD_REACTORS
330
29
102
}
330
29
100
AcDbVisualStyle
  2
FlatWithEdges
 70
     1
 71
     2
 72
     1
 73
     1
 90
        2
 40
-0.6
 41
30.0
 62
     5
 63
     7
421
 16777215
 74
     1
 91
        4
 64
     7
 65
   257
 75
     1
175
     1
 42
1.0
 92
        0
 66
   257
 43
1.0
 76
     1
 77
     6
 78
     2
 67
     7
 79
     5
170
     0
171
     0
290
     0
174
     0
 93
       13
 44
0.0
173
     0
291
     1
 45
0.0
1001
ACAD
1000
AcDbSavedByObjectVersion
1070
     0
  0
VISUALSTYLE
  5
2C
102
{ACAD_XDICTIONARY
360
58DF
102
}
102
{ACAD_REACTORS
330
29
102
}
330
29
100
AcDbVisualStyle
  2
Gouraud
 70
     2
 71
     2
 72
     2
 73
     1
 90
        2
 40
-0.6
 41
30.0
 62
     5
 63
     7
421
 16777215
 74
     0
 91
        4
 64
     7
 65
   257
 75
     1
175
     1
 42
1.0
 92
        0
 66
     7
 43
1.0
 76
     1
 77
     6
 78
     2
 67
     7
 79
     5
170
     0
171
     0
290
     0
174
     0
 93
       13
 44
0.0
173
     0
291
     1
 45
0.0
1001
ACAD
1000
AcDbSavedByObjectVersion
1070
     0
  0
VISUALSTYLE
  5
2D
102
{ACAD_XDICTIONARY
360
58E1
102
}
102
{ACAD_REACTORS
330
29
102
}
330
29
100
AcDbVisualStyle
  2
GouraudWithEdges
 70
     3
 71
     2
 72
     2
 73
     1
 90
        2
 40
-0.6
 41
30.0
 62
     5
 63
     7
421
 16777215
 74
     1
 91
        4
 64
     7
 65
   257
 75
     1
175
     1
 42
1.0
 92
        0
 66
   257
 43
1.0
 76
     1
 77
     6
 78
     2
 67
     7
 79
     5
170
     0
171
     0
290
     0
174
     0
 93
       13
 44
0.0
173
     0
291
     1
 45
0.0
1001
ACAD
1000
AcDbSavedByObjectVersion
1070
     0
  0
VISUALSTYLE
  5
3A
102
{ACAD_XDICTIONARY
360
58FB
102
}
102
{ACAD_REACTORS
330
29
102
}
330
29
100
AcDbVisualStyle
  2
JitterOff
 70
    20
 71
     2
 72
     2
 73
     0
 90
        0
 40
-0.6
 41
-30.0
 62
     5
 63
     7
421
 16777215
 74
     1
 91
        4
 64
     7
 65
   257
 75
     1
175
     1
 42
1.0
 92
       10
 66
     7
 43
1.0
 76
     1
 77
     6
 78
     2
 67
     7
 79
     5
170
     0
171
     0
290
     0
174
     0
 93
        1
 44
0.0
173
     0
291
     1
 45
0.0
1001
ACAD
1000
AcDbSavedByObjectVersion
1070
     0
  0
VISUALSTYLE
  5
37
102
{ACAD_XDICTIONARY
360
58F5
102
}
102
{ACAD_REACTORS
330
29
102
}
330
29
100
AcDbVisualStyle
  2
Linepattern
 70
    14
 71
     2
 72
     2
 73
     0
 90
        0
 40
-0.6
 41
-30.0
 62
     5
 63
     7
421
 16777215
 74
     1
 91
        4
 64
     7
 65
   257
 75
     7
175
     7
 42
1.0
 92
        8
 66
     7
 43
1.0
 76
     1
 77
     6
 78
     2
 67
     7
 79
     5
170
     0
171
     0
290
     0
174
     0
 93
        1
 44
0.0
173
     0
291
     1
 45
0.0
1001
ACAD
1000
AcDbSavedByObjectVersion
1070
     0
  0
VISUALSTYLE
  5
3B
102
{ACAD_XDICTIONARY
360
58FD
102
}
102
{ACAD_REACTORS
330
29
102
}
330
29
100
AcDbVisualStyle
  2
OverhangOff
 70
    21
 71
     2
 72
     2
 73
     0
 90
        0
 40
-0.6
 41
-30.0
 62
     5
 63
     7
421
 16777215
 74
     1
 91
        4
 64
     7
 65
   257
 75
     1
175
     1
 42
1.0
 92
        9
 66
     7
 43
1.0
 76
     1
 77
     6
 78
     2
 67
     7
 79
     5
170
     0
171
     0
290
     0
174
     0
 93
        1
 44
0.0
173
     0
291
     1
 45
0.0
1001
ACAD
1000
AcDbSavedByObjectVersion
1070
     0
  0
VISUALSTYLE
  5
33
102
{ACAD_XDICTIONARY
360
58ED
102
}
102
{ACAD_REACTORS
330
29
102
}
330
29
100
AcDbVisualStyle
  2
Realistic
 70
     8
 71
     2
 72
     2
 73
     0
 90
        0
 40
-0.6
 41
-30.0
 62
     5
 63
     7
421
 16777215
 74
     1
 91
        0
 64
     7
 65
   257
 75
     1
175
     1
 42
1.0
 92
        8
 66
     8
424
  7895160
 43
1.0
 76
     1
 77
     6
 78
     2
 67
     7
 79
     5
170
     0
171
     0
290
     0
174
     0
 93
       13
 44
0.0
173
     0
291
     0
 45
0.0
1001
ACAD
1000
AcDbSavedByObjectVersion
1070
     0
  0
VISUALSTYLE
  5
36
102
{ACAD_XDICTIONARY
360
58F3
102
}
102
{ACAD_REACTORS
330
29
102
}
330
29
100
AcDbVisualStyle
  2
Thicken
 70
    13
 71
     2
 72
     2
 73
     0
 90
        0
 40
-0.6
 41
-30.0
 62
     5
 63
     7
421
 16777215
 74
     1
 91
        4
 64
     7
 65
   257
 75
     1
175
     1
 42
1.0
 92
       12
 66
     7
 43
1.0
 76
     1
 77
     6
 78
     2
 67
     7
 79
     5
170
     0
171
     0
290
     0
174
     0
 93
        1
 44
0.0
173
     0
291
     1
 45
0.0
1001
ACAD
1000
AcDbSavedByObjectVersion
1070
     0
  0
DICTIONARYVAR
  5
58CE
102
{ACAD_REACTORS
330
58CA
102
}
330
58CA
100
DictionaryVariables
280
     0
  1
1:1
  0
DICTIONARYVAR
  5
58CC
102
{ACAD_REACTORS
330
58CA
102
}
330
58CA
100
DictionaryVariables
280
     0
  1
STANDARD
  0
DICTIONARYVAR
  5
58CB
102
{ACAD_REACTORS
330
58CA
102
}
330
58CA
100
DictionaryVariables
280
     0
  1
STANDARD
  0
DICTIONARYVAR
  5
58D0
102
{ACAD_REACTORS
330
58CA
102
}
330
58CA
100
DictionaryVariables
280
     0
  1
0
  0
DICTIONARYVAR
  5
58D1
102
{ACAD_REACTORS
330
58CA
102
}
330
58CA
100
DictionaryVariables
280
     0
  1
0
  0
DICTIONARYVAR
  5
58CF
102
{ACAD_REACTORS
330
58CA
102
}
330
58CA
100
DictionaryVariables
280
     0
  1
2
  0
DICTIONARYVAR
  5
58CD
102
{ACAD_REACTORS
330
58CA
102
}
330
58CA
100
DictionaryVariables
280
     0
  1
1
  0
DICTIONARYVAR
  5
58D2
102
{ACAD_REACTORS
330
58CA
102
}
330
58CA
100
DictionaryVariables
280
     0
  1
2
  0
DICTIONARY
  5
1A
330
19
100
AcDbDictionary
280
     1
281
     1
  3
ACAD_XREC_ROUNDTRIP
360
58D9
  3
BUMPTILE
360
1C
  3
DIFFUSETILE
360
1B
  3
OPACITYTILE
360
1F
  3
REFLECTIONTILE
360
1E
  3
REFRACTIONTILE
360
20
  3
SPECULARTILE
360
1D
  0
DICTIONARY
  5
12
330
11
100
AcDbDictionary
280
     1
281
     1
  3
ACAD_XREC_ROUNDTRIP
360
58D8
  3
BUMPTILE
360
14
  3
DIFFUSETILE
360
13
  3
OPACITYTILE
360
17
  3
REFLECTIONTILE
360
16
  3
REFRACTIONTILE
360
18
  3
SPECULARTILE
360
15
  0
DICTIONARY
  5
22
330
21
100
AcDbDictionary
280
     1
281
     1
  3
ACAD_XREC_ROUNDTRIP
360
58DA
  3
BUMPTILE
360
24
  3
DIFFUSETILE
360
23
  3
OPACITYTILE
360
27
  3
REFLECTIONTILE
360
26
  3
REFRACTIONTILE
360
28
  3
SPECULARTILE
360
25
  0
DICTIONARY
  5
58D3
330
60
100
AcDbDictionary
280
     1
281
     1
  3
ACAD_ROUNDTRIP_2008_TABLESTYLE_CELLSTYLEMAP
360
58D4
  3
ACAD_XREC_ROUNDTRIP
360
5902
  0
DICTIONARY
  5
58E5
330
2F
100
AcDbDictionary
280
     1
281
     1
  3
ACAD_XREC_ROUNDTRIP
360
58E6
  0
DICTIONARY
  5
58E9
330
31
100
AcDbDictionary
280
     1
281
     1
  3
ACAD_XREC_ROUNDTRIP
360
58EA
  0
DICTIONARY
  5
58E7
330
30
100
AcDbDictionary
280
     1
281
     1
  3
ACAD_XREC_ROUNDTRIP
360
58E8
  0
DICTIONARY
  5
58E3
330
2E
100
AcDbDictionary
280
     1
281
     1
  3
ACAD_XREC_ROUNDTRIP
360
58E4
  0
DICTIONARY
  5
58F1
330
35
100
AcDbDictionary
280
     1
281
     1
  3
ACAD_XREC_ROUNDTRIP
360
58F2
  0
DICTIONARY
  5
58F9
330
39
100
AcDbDictionary
280
     1
281
     1
  3
ACAD_XREC_ROUNDTRIP
360
58FA
  0
DICTIONARY
  5
58EB
330
32
100
AcDbDictionary
280
     1
281
     1
  3
ACAD_XREC_ROUNDTRIP
360
58EC
  0
DICTIONARY
  5
58EF
330
34
100
AcDbDictionary
280
     1
281
     1
  3
ACAD_XREC_ROUNDTRIP
360
58F0
  0
DICTIONARY
  5
58FF
330
3C
100
AcDbDictionary
280
     1
281
     1
  3
ACAD_XREC_ROUNDTRIP
360
5900
  0
DICTIONARY
  5
58F7
330
38
100
AcDbDictionary
280
     1
281
     1
  3
ACAD_XREC_ROUNDTRIP
360
58F8
  0
DICTIONARY
  5
58DB
330
2A
100
AcDbDictionary
280
     1
281
     1
  3
ACAD_XREC_ROUNDTRIP
360
58DC
  0
DICTIONARY
  5
58DD
330
2B
100
AcDbDictionary
280
     1
281
     1
  3
ACAD_XREC_ROUNDTRIP
360
58DE
  0
DICTIONARY
  5
58DF
330
2C
100
AcDbDictionary
280
     1
281
     1
  3
ACAD_XREC_ROUNDTRIP
360
58E0
  0
DICTIONARY
  5
58E1
330
2D
100
AcDbDictionary
280
     1
281
     1
  3
ACAD_XREC_ROUNDTRIP
360
58E2
  0
DICTIONARY
  5
58FB
330
3A
100
AcDbDictionary
280
     1
281
     1
  3
ACAD_XREC_ROUNDTRIP
360
58FC
  0
DICTIONARY
  5
58F5
330
37
100
AcDbDictionary
280
     1
281
     1
  3
ACAD_XREC_ROUNDTRIP
360
58F6
  0
DICTIONARY
  5
58FD
330
3B
100
AcDbDictionary
280
     1
281
     1
  3
ACAD_XREC_ROUNDTRIP
360
58FE
  0
DICTIONARY
  5
58ED
330
33
100
AcDbDictionary
280
     1
281
     1
  3
ACAD_XREC_ROUNDTRIP
360
58EE
  0
DICTIONARY
  5
58F3
330
36
100
AcDbDictionary
280
     1
281
     1
  3
ACAD_XREC_ROUNDTRIP
360
58F4
  0
XRECORD
  5
58D9
102
{ACAD_REACTORS
330
1A
102
}
330
1A
100
AcDbXrecord
280
     1
102
MATERIAL
148
0.0
149
0.0
149
0.0
 93
        0
 94
      127
282
     0
 72
     0
 77
     0
171
     0
175
     0
179
     0
273
     0
  0
XRECORD
  5
1C
102
{ACAD_REACTORS
330
1A
102
}
330
1A
100
AcDbXrecord
280
     1
270
     1
271
     1
  0
XRECORD
  5
1B
102
{ACAD_REACTORS
330
1A
102
}
330
1A
100
AcDbXrecord
280
     1
270
     1
271
     1
  0
XRECORD
  5
1F
102
{ACAD_REACTORS
330
1A
102
}
330
1A
100
AcDbXrecord
280
     1
270
     1
271
     1
  0
XRECORD
  5
1E
102
{ACAD_REACTORS
330
1A
102
}
330
1A
100
AcDbXrecord
280
     1
270
     1
271
     1
  0
XRECORD
  5
20
102
{ACAD_REACTORS
330
1A
102
}
330
1A
100
AcDbXrecord
280
     1
270
     1
271
     1
  0
XRECORD
  5
1D
102
{ACAD_REACTORS
330
1A
102
}
330
1A
100
AcDbXrecord
280
     1
270
     1
271
     1
  0
XRECORD
  5
58D8
102
{ACAD_REACTORS
330
12
102
}
330
12
100
AcDbXrecord
280
     1
102
MATERIAL
148
0.0
149
0.0
149
0.0
 93
        0
 94
      127
282
     0
 72
     0
 77
     0
171
     0
175
     0
179
     0
273
     0
  0
XRECORD
  5
14
102
{ACAD_REACTORS
330
12
102
}
330
12
100
AcDbXrecord
280
     1
270
     1
271
     1
  0
XRECORD
  5
13
102
{ACAD_REACTORS
330
12
102
}
330
12
100
AcDbXrecord
280
     1
270
     1
271
     1
  0
XRECORD
  5
17
102
{ACAD_REACTORS
330
12
102
}
330
12
100
AcDbXrecord
280
     1
270
     1
271
     1
  0
XRECORD
  5
16
102
{ACAD_REACTORS
330
12
102
}
330
12
100
AcDbXrecord
280
     1
270
     1
271
     1
  0
XRECORD
  5
18
102
{ACAD_REACTORS
330
12
102
}
330
12
100
AcDbXrecord
280
     1
270
     1
271
     1
  0
XRECORD
  5
15
102
{ACAD_REACTORS
330
12
102
}
330
12
100
AcDbXrecord
280
     1
270
     1
271
     1
  0
XRECORD
  5
58DA
102
{ACAD_REACTORS
330
22
102
}
330
22
100
AcDbXrecord
280
     1
102
MATERIAL
148
0.0
149
0.0
149
0.0
 93
        0
 94
      127
282
     0
 72
     0
 77
     0
171
     0
175
     0
179
     0
273
     0
  0
XRECORD
  5
24
102
{ACAD_REACTORS
330
22
102
}
330
22
100
AcDbXrecord
280
     1
270
     1
271
     1
  0
XRECORD
  5
23
102
{ACAD_REACTORS
330
22
102
}
330
22
100
AcDbXrecord
280
     1
270
     1
271
     1
  0
XRECORD
  5
27
102
{ACAD_REACTORS
330
22
102
}
330
22
100
AcDbXrecord
280
     1
270
     1
271
     1
  0
XRECORD
  5
26
102
{ACAD_REACTORS
330
22
102
}
330
22
100
AcDbXrecord
280
     1
270
     1
271
     1
  0
XRECORD
  5
28
102
{ACAD_REACTORS
330
22
102
}
330
22
100
AcDbXrecord
280
     1
270
     1
271
     1
  0
XRECORD
  5
25
102
{ACAD_REACTORS
330
22
102
}
330
22
100
AcDbXrecord
280
     1
270
     1
271
     1
  0
CELLSTYLEMAP
  5
58D4
102
{ACAD_REACTORS
330
58D3
102
}
330
58D3
100
AcDbCellStyleMap
 90
        3
300
CELLSTYLE
  1
TABLEFORMAT_BEGIN
 90
        5
170
     1
 91
        0
 92
    32768
 62
   257
 93
        1
300
CONTENTFORMAT
  1
CONTENTFORMAT_BEGIN
 90
        0
 91
        0
 92
      512
 93
        0
300

 40
0.0
140
1.0
 94
        5
 62
     0
340
50
144
6.0
309
CONTENTFORMAT_END
171
     1
301
MARGIN
  1
CELLMARGIN_BEGIN
 40
1.5
 40
1.5
 40
1.5
 40
1.5
 40
4.5
 40
4.5
309
CELLMARGIN_END
 94
        6
 95
        1
302
GRIDFORMAT
  1
GRIDFORMAT_BEGIN
 90
        0
 91
        1
 62
     0
 92
       -2
340
0
 93
        0
 40
1.125
309
GRIDFORMAT_END
 95
        2
302
GRIDFORMAT
  1
GRIDFORMAT_BEGIN
 90
        0
 91
        1
 62
     0
 92
       -2
340
0
 93
        0
 40
1.125
309
GRIDFORMAT_END
 95
        4
302
GRIDFORMAT
  1
GRIDFORMAT_BEGIN
 90
        0
 91
        1
 62
     0
 92
       -2
340
0
 93
        0
 40
1.125
309
GRIDFORMAT_END
 95
        8
302
GRIDFORMAT
  1
GRIDFORMAT_BEGIN
 90
        0
 91
        1
 62
     0
 92
       -2
340
0
 93
        0
 40
1.125
309
GRIDFORMAT_END
 95
       16
302
GRIDFORMAT
  1
GRIDFORMAT_BEGIN
 90
        0
 91
        1
 62
     0
 92
       -2
340
0
 93
        0
 40
1.125
309
GRIDFORMAT_END
 95
       32
302
GRIDFORMAT
  1
GRIDFORMAT_BEGIN
 90
        0
 91
        1
 62
     0
 92
       -2
340
0
 93
        0
 40
1.125
309
GRIDFORMAT_END
309
TABLEFORMAT_END
  1
CELLSTYLE_BEGIN
 90
        1
 91
        1
300
_TITLE
309
CELLSTYLE_END
300
CELLSTYLE
  1
TABLEFORMAT_BEGIN
 90
        5
170
     1
 91
        0
 92
        0
 62
   257
 93
        1
300
CONTENTFORMAT
  1
CONTENTFORMAT_BEGIN
 90
        0
 91
        0
 92
      512
 93
        0
300

 40
0.0
140
1.0
 94
        5
 62
     0
340
50
144
4.5
309
CONTENTFORMAT_END
171
     1
301
MARGIN
  1
CELLMARGIN_BEGIN
 40
1.5
 40
1.5
 40
1.5
 40
1.5
 40
4.5
 40
4.5
309
CELLMARGIN_END
 94
        6
 95
        1
302
GRIDFORMAT
  1
GRIDFORMAT_BEGIN
 90
        0
 91
        1
 62
     0
 92
       -2
340
0
 93
        0
 40
1.125
309
GRIDFORMAT_END
 95
        2
302
GRIDFORMAT
  1
GRIDFORMAT_BEGIN
 90
        0
 91
        1
 62
     0
 92
       -2
340
0
 93
        0
 40
1.125
309
GRIDFORMAT_END
 95
        4
302
GRIDFORMAT
  1
GRIDFORMAT_BEGIN
 90
        0
 91
        1
 62
     0
 92
       -2
340
0
 93
        0
 40
1.125
309
GRIDFORMAT_END
 95
        8
302
GRIDFORMAT
  1
GRIDFORMAT_BEGIN
 90
        0
 91
        1
 62
     0
 92
       -2
340
0
 93
        0
 40
1.125
309
GRIDFORMAT_END
 95
       16
302
GRIDFORMAT
  1
GRIDFORMAT_BEGIN
 90
        0
 91
        1
 62
     0
 92
       -2
340
0
 93
        0
 40
1.125
309
GRIDFORMAT_END
 95
       32
302
GRIDFORMAT
  1
GRIDFORMAT_BEGIN
 90
        0
 91
        1
 62
     0
 92
       -2
340
0
 93
        0
 40
1.125
309
GRIDFORMAT_END
309
TABLEFORMAT_END
  1
CELLSTYLE_BEGIN
 90
        2
 91
        1
300
_HEADER
309
CELLSTYLE_END
300
CELLSTYLE
  1
TABLEFORMAT_BEGIN
 90
        5
170
     1
 91
        0
 92
        0
 62
   257
 93
        1
300
CONTENTFORMAT
  1
CONTENTFORMAT_BEGIN
 90
        0
 91
        0
 92
      512
 93
        0
300

 40
0.0
140
1.0
 94
        2
 62
     0
340
50
144
4.5
309
CONTENTFORMAT_END
171
     1
301
MARGIN
  1
CELLMARGIN_BEGIN
 40
1.5
 40
1.5
 40
1.5
 40
1.5
 40
4.5
 40
4.5
309
CELLMARGIN_END
 94
        6
 95
        1
302
GRIDFORMAT
  1
GRIDFORMAT_BEGIN
 90
        0
 91
        1
 62
     0
 92
       -2
340
0
 93
        0
 40
1.125
309
GRIDFORMAT_END
 95
        2
302
GRIDFORMAT
  1
GRIDFORMAT_BEGIN
 90
        0
 91
        1
 62
     0
 92
       -2
340
0
 93
        0
 40
1.125
309
GRIDFORMAT_END
 95
        4
302
GRIDFORMAT
  1
GRIDFORMAT_BEGIN
 90
        0
 91
        1
 62
     0
 92
       -2
340
0
 93
        0
 40
1.125
309
GRIDFORMAT_END
 95
        8
302
GRIDFORMAT
  1
GRIDFORMAT_BEGIN
 90
        0
 91
        1
 62
     0
 92
       -2
340
0
 93
        0
 40
1.125
309
GRIDFORMAT_END
 95
       16
302
GRIDFORMAT
  1
GRIDFORMAT_BEGIN
 90
        0
 91
        1
 62
     0
 92
       -2
340
0
 93
        0
 40
1.125
309
GRIDFORMAT_END
 95
       32
302
GRIDFORMAT
  1
GRIDFORMAT_BEGIN
 90
        0
 91
        1
 62
     0
 92
       -2
340
0
 93
        0
 40
1.125
309
GRIDFORMAT_END
309
TABLEFORMAT_END
  1
CELLSTYLE_BEGIN
 90
        3
 91
        2
300
_DATA
309
CELLSTYLE_END
  0
XRECORD
  5
5902
102
{ACAD_REACTORS
330
58D3
102
}
330
58D3
100
AcDbXrecord
280
     1
102
ACAD_ROUNDTRIP_PRE2007_TABLESTYLE
 90
      512
 91
        0
  1

 92
      512
 93
        0
  2

 94
      512
 95
        0
  3

  0
XRECORD
  5
58E6
102
{ACAD_REACTORS
330
58E5
102
}
330
58E5
100
AcDbXrecord
280
     1
102
RTVSPropertyOp0
 70
     1
102
RTVSPropertyOp1
 70
     1
102
RTVSPropertyOp2
 70
     1
102
RTVSPropertyOp3
 70
     1
102
RTVSPropertyOp4
 70
     1
102
RTVSPropertyOp5
 70
     1
102
RTVSPropertyOp6
 70
     1
102
RTVSPropertyOp7
 70
     1
102
RTVSPropertyOp8
 70
     1
102
RTVSPropertyOp9
 70
     1
102
RTVSPropertyOp10
 70
     1
102
RTVSPropertyOp11
 70
     1
102
RTVSPropertyOp12
 70
     1
102
RTVSPropertyOp13
 70
     1
102
RTVSPropertyOp14
 70
     1
102
RTVSPropertyOp15
 70
     1
102
RTVSPropertyOp16
 70
     1
102
RTVSPropertyOp17
 70
     1
102
RTVSPropertyOp18
 70
     1
102
RTVSPropertyOp19
 70
     1
102
RTVSPropertyOp20
 70
     1
102
RTVSPropertyOp21
 70
     1
102
RTVSPropertyOp22
 70
     1
102
RTVSPropertyOp23
 70
     1
102
RTVSPropertyOp24
 70
     1
102
RTVSPropertyOp25
 70
     1
102
RTVSPropertyOp26
 70
     1
102
RTVSPropertyOp27
 70
     1
  0
XRECORD
  5
58EA
102
{ACAD_REACTORS
330
58E9
102
}
330
58E9
100
AcDbXrecord
280
     1
102
RTVSPropertyOp0
 70
     1
102
RTVSPropertyOp1
 70
     1
102
RTVSPropertyOp2
 70
     1
102
RTVSPropertyOp3
 70
     1
102
RTVSPropertyOp4
 70
     1
102
RTVSPropertyOp5
 70
     1
102
RTVSPropertyOp6
 70
     1
102
RTVSPropertyOp7
 70
     1
102
RTVSPropertyOp8
 70
     1
102
RTVSPropertyOp9
 70
     1
102
RTVSPropertyOp10
 70
     1
102
RTVSPropertyOp11
 70
     1
102
RTVSPropertyOp12
 70
     1
102
RTVSPropertyOp13
 70
     1
102
RTVSPropertyOp14
 70
     1
102
RTVSPropertyOp15
 70
     1
102
RTVSPropertyOp16
 70
     1
102
RTVSPropertyOp17
 70
     1
102
RTVSPropertyOp18
 70
     1
102
RTVSPropertyOp19
 70
     1
102
RTVSPropertyOp20
 70
     1
102
RTVSPropertyOp21
 70
     1
102
RTVSPropertyOp22
 70
     1
102
RTVSPropertyOp23
 70
     1
102
RTVSPropertyOp24
 70
     1
102
RTVSPropertyOp25
 70
     1
102
RTVSPropertyOp26
 70
     1
102
RTVSPropertyOp27
 70
     1
  0
XRECORD
  5
58E8
102
{ACAD_REACTORS
330
58E7
102
}
330
58E7
100
AcDbXrecord
280
     1
102
RTVSPropertyOp0
 70
     1
102
RTVSPropertyOp1
 70
     1
102
RTVSPropertyOp2
 70
     1
102
RTVSPropertyOp3
 70
     1
102
RTVSPropertyOp4
 70
     1
102
RTVSPropertyOp5
 70
     1
102
RTVSPropertyOp6
 70
     1
102
RTVSPropertyOp7
 70
     1
102
RTVSPropertyOp8
 70
     1
102
RTVSPropertyOp9
 70
     1
102
RTVSPropertyOp10
 70
     1
102
RTVSPropertyOp11
 70
     1
102
RTVSPropertyOp12
 70
     1
102
RTVSPropertyOp13
 70
     1
102
RTVSPropertyOp14
 70
     1
102
RTVSPropertyOp15
 70
     1
102
RTVSPropertyOp16
 70
     1
102
RTVSPropertyOp17
 70
     1
102
RTVSPropertyOp18
 70
     1
102
RTVSPropertyOp19
 70
     1
102
RTVSPropertyOp20
 70
     1
102
RTVSPropertyOp21
 70
     1
102
RTVSPropertyOp22
 70
     1
102
RTVSPropertyOp23
 70
     1
102
RTVSPropertyOp24
 70
     1
102
RTVSPropertyOp25
 70
     1
102
RTVSPropertyOp26
 70
     1
102
RTVSPropertyOp27
 70
     1
  0
XRECORD
  5
58E4
102
{ACAD_REACTORS
330
58E3
102
}
330
58E3
100
AcDbXrecord
280
     1
102
RTVSPropertyOp0
 70
     1
102
RTVSPropertyOp1
 70
     1
102
RTVSPropertyOp2
 70
     1
102
RTVSPropertyOp3
 70
     1
102
RTVSPropertyOp4
 70
     1
102
RTVSPropertyOp5
 70
     1
102
RTVSPropertyOp6
 70
     1
102
RTVSPropertyOp7
 70
     1
102
RTVSPropertyOp8
 70
     1
102
RTVSPropertyOp9
 70
     1
102
RTVSPropertyOp10
 70
     1
102
RTVSPropertyOp11
 70
     1
102
RTVSPropertyOp12
 70
     1
102
RTVSPropertyOp13
 70
     1
102
RTVSPropertyOp14
 70
     1
102
RTVSPropertyOp15
 70
     1
102
RTVSPropertyOp16
 70
     1
102
RTVSPropertyOp17
 70
     1
102
RTVSPropertyOp18
 70
     1
102
RTVSPropertyOp19
 70
     1
102
RTVSPropertyOp20
 70
     1
102
RTVSPropertyOp21
 70
     1
102
RTVSPropertyOp22
 70
     1
102
RTVSPropertyOp23
 70
     1
102
RTVSPropertyOp24
 70
     1
102
RTVSPropertyOp25
 70
     1
102
RTVSPropertyOp26
 70
     1
102
RTVSPropertyOp27
 70
     1
  0
XRECORD
  5
58F2
102
{ACAD_REACTORS
330
58F1
102
}
330
58F1
100
AcDbXrecord
280
     1
102
RTVSPropertyOp0
 70
     1
102
RTVSPropertyOp1
 70
     1
102
RTVSPropertyOp2
 70
     1
102
RTVSPropertyOp3
 70
     1
102
RTVSPropertyOp4
 70
     1
102
RTVSPropertyOp5
 70
     1
102
RTVSPropertyOp6
 70
     1
102
RTVSPropertyOp7
 70
     1
102
RTVSPropertyOp8
 70
     1
102
RTVSPropertyOp9
 70
     1
102
RTVSPropertyOp10
 70
     1
102
RTVSPropertyOp11
 70
     1
102
RTVSPropertyOp12
 70
     1
102
RTVSPropertyOp13
 70
     1
102
RTVSPropertyOp14
 70
     1
102
RTVSPropertyOp15
 70
     1
102
RTVSPropertyOp16
 70
     1
102
RTVSPropertyOp17
 70
     1
102
RTVSPropertyOp18
 70
     1
102
RTVSPropertyOp19
 70
     1
102
RTVSPropertyOp20
 70
     1
102
RTVSPropertyOp21
 70
     1
102
RTVSPropertyOp22
 70
     1
102
RTVSPropertyOp23
 70
     1
102
RTVSPropertyOp24
 70
     1
102
RTVSPropertyOp25
 70
     1
102
RTVSPropertyOp26
 70
     1
102
RTVSPropertyOp27
 70
     1
  0
XRECORD
  5
58FA
102
{ACAD_REACTORS
330
58F9
102
}
330
58F9
100
AcDbXrecord
280
     1
102
RTVSPropertyOp0
 70
     1
102
RTVSPropertyOp1
 70
     1
102
RTVSPropertyOp2
 70
     1
102
RTVSPropertyOp3
 70
     1
102
RTVSPropertyOp4
 70
     1
102
RTVSPropertyOp5
 70
     1
102
RTVSPropertyOp6
 70
     1
102
RTVSPropertyOp7
 70
     1
102
RTVSPropertyOp8
 70
     1
102
RTVSPropertyOp9
 70
     1
102
RTVSPropertyOp10
 70
     1
102
RTVSPropertyOp11
 70
     1
102
RTVSPropertyOp12
 70
     1
102
RTVSPropertyOp13
 70
     1
102
RTVSPropertyOp14
 70
     1
102
RTVSPropertyOp15
 70
     1
102
RTVSPropertyOp16
 70
     1
102
RTVSPropertyOp17
 70
     1
102
RTVSPropertyOp18
 70
     1
102
RTVSPropertyOp19
 70
     1
102
RTVSPropertyOp20
 70
     1
102
RTVSPropertyOp21
 70
     1
102
RTVSPropertyOp22
 70
     1
102
RTVSPropertyOp23
 70
     1
102
RTVSPropertyOp24
 70
     1
102
RTVSPropertyOp25
 70
     1
102
RTVSPropertyOp26
 70
     1
102
RTVSPropertyOp27
 70
     1
  0
XRECORD
  5
58EC
102
{ACAD_REACTORS
330
58EB
102
}
330
58EB
100
AcDbXrecord
280
     1
102
RTVSPropertyOp0
 70
     1
102
RTVSPropertyOp1
 70
     1
102
RTVSPropertyOp2
 70
     1
102
RTVSPropertyOp3
 70
     1
102
RTVSPropertyOp4
 70
     1
102
RTVSPropertyOp5
 70
     1
102
RTVSPropertyOp6
 70
     1
102
RTVSPropertyOp7
 70
     1
102
RTVSPropertyOp8
 70
     1
102
RTVSPropertyOp9
 70
     1
102
RTVSPropertyOp10
 70
     1
102
RTVSPropertyOp11
 70
     1
102
RTVSPropertyOp12
 70
     1
102
RTVSPropertyOp13
 70
     1
102
RTVSPropertyOp14
 70
     1
102
RTVSPropertyOp15
 70
     1
102
RTVSPropertyOp16
 70
     1
102
RTVSPropertyOp17
 70
     1
102
RTVSPropertyOp18
 70
     1
102
RTVSPropertyOp19
 70
     1
102
RTVSPropertyOp20
 70
     1
102
RTVSPropertyOp21
 70
     1
102
RTVSPropertyOp22
 70
     1
102
RTVSPropertyOp23
 70
     1
102
RTVSPropertyOp24
 70
     1
102
RTVSPropertyOp25
 70
     1
102
RTVSPropertyOp26
 70
     1
102
RTVSPropertyOp27
 70
     1
  0
XRECORD
  5
58F0
102
{ACAD_REACTORS
330
58EF
102
}
330
58EF
100
AcDbXrecord
280
     1
102
RTVSPropertyOp0
 70
     1
102
RTVSPropertyOp1
 70
     1
102
RTVSPropertyOp2
 70
     1
102
RTVSPropertyOp3
 70
     1
102
RTVSPropertyOp4
 70
     1
102
RTVSPropertyOp5
 70
     1
102
RTVSPropertyOp6
 70
     1
102
RTVSPropertyOp7
 70
     1
102
RTVSPropertyOp8
 70
     1
102
RTVSPropertyOp9
 70
     1
102
RTVSPropertyOp10
 70
     1
102
RTVSPropertyOp11
 70
     1
102
RTVSPropertyOp12
 70
     1
102
RTVSPropertyOp13
 70
     1
102
RTVSPropertyOp14
 70
     1
102
RTVSPropertyOp15
 70
     1
102
RTVSPropertyOp16
 70
     1
102
RTVSPropertyOp17
 70
     1
102
RTVSPropertyOp18
 70
     1
102
RTVSPropertyOp19
 70
     1
102
RTVSPropertyOp20
 70
     1
102
RTVSPropertyOp21
 70
     1
102
RTVSPropertyOp22
 70
     1
102
RTVSPropertyOp23
 70
     1
102
RTVSPropertyOp24
 70
     1
102
RTVSPropertyOp25
 70
     1
102
RTVSPropertyOp26
 70
     1
102
RTVSPropertyOp27
 70
     1
  0
XRECORD
  5
5900
102
{ACAD_REACTORS
330
58FF
102
}
330
58FF
100
AcDbXrecord
280
     1
102
RTVSPropertyOp0
 70
     0
102
RTVSPropertyOp1
 70
     0
102
RTVSPropertyOp2
 70
     0
102
RTVSPropertyOp3
 70
     0
102
RTVSPropertyOp4
 70
     0
102
RTVSPropertyOp5
 70
     0
102
RTVSPropertyOp6
 70
     0
102
RTVSPropertyOp7
 70
     0
102
RTVSPropertyOp8
 70
     0
102
RTVSPropertyOp9
 70
     0
102
RTVSPropertyOp10
 70
     0
102
RTVSPropertyOp11
 70
     0
102
RTVSPropertyOp12
 70
     0
102
RTVSPropertyOp13
 70
     0
102
RTVSPropertyOp14
 70
     2
102
RTVSPropertyOp15
 70
     0
102
RTVSPropertyOp16
 70
     0
102
RTVSPropertyOp17
 70
     0
102
RTVSPropertyOp18
 70
     0
102
RTVSPropertyOp19
 70
     0
102
RTVSPropertyOp20
 70
     0
102
RTVSPropertyOp21
 70
     0
102
RTVSPropertyOp22
 70
     0
102
RTVSPropertyOp23
 70
     0
102
RTVSPropertyOp24
 70
     0
102
RTVSPropertyOp25
 70
     0
102
RTVSPropertyOp26
 70
     0
102
RTVSPropertyOp27
 70
     0
  0
XRECORD
  5
58F8
102
{ACAD_REACTORS
330
58F7
102
}
330
58F7
100
AcDbXrecord
280
     1
102
RTVSPropertyOp0
 70
     1
102
RTVSPropertyOp1
 70
     1
102
RTVSPropertyOp2
 70
     1
102
RTVSPropertyOp3
 70
     1
102
RTVSPropertyOp4
 70
     1
102
RTVSPropertyOp5
 70
     1
102
RTVSPropertyOp6
 70
     1
102
RTVSPropertyOp7
 70
     1
102
RTVSPropertyOp8
 70
     1
102
RTVSPropertyOp9
 70
     1
102
RTVSPropertyOp10
 70
     1
102
RTVSPropertyOp11
 70
     1
102
RTVSPropertyOp12
 70
     1
102
RTVSPropertyOp13
 70
     1
102
RTVSPropertyOp14
 70
     1
102
RTVSPropertyOp15
 70
     1
102
RTVSPropertyOp16
 70
     1
102
RTVSPropertyOp17
 70
     1
102
RTVSPropertyOp18
 70
     1
102
RTVSPropertyOp19
 70
     1
102
RTVSPropertyOp20
 70
     1
102
RTVSPropertyOp21
 70
     1
102
RTVSPropertyOp22
 70
     1
102
RTVSPropertyOp23
 70
     1
102
RTVSPropertyOp24
 70
     1
102
RTVSPropertyOp25
 70
     1
102
RTVSPropertyOp26
 70
     1
102
RTVSPropertyOp27
 70
     1
  0
XRECORD
  5
58DC
102
{ACAD_REACTORS
330
58DB
102
}
330
58DB
100
AcDbXrecord
280
     1
102
RTVSPropertyOp0
 70
     1
102
RTVSPropertyOp1
 70
     1
102
RTVSPropertyOp2
 70
     1
102
RTVSPropertyOp3
 70
     1
102
RTVSPropertyOp4
 70
     1
102
RTVSPropertyOp5
 70
     1
102
RTVSPropertyOp6
 70
     1
102
RTVSPropertyOp7
 70
     1
102
RTVSPropertyOp8
 70
     1
102
RTVSPropertyOp9
 70
     1
102
RTVSPropertyOp10
 70
     1
102
RTVSPropertyOp11
 70
     1
102
RTVSPropertyOp12
 70
     1
102
RTVSPropertyOp13
 70
     1
102
RTVSPropertyOp14
 70
     1
102
RTVSPropertyOp15
 70
     1
102
RTVSPropertyOp16
 70
     1
102
RTVSPropertyOp17
 70
     1
102
RTVSPropertyOp18
 70
     1
102
RTVSPropertyOp19
 70
     1
102
RTVSPropertyOp20
 70
     1
102
RTVSPropertyOp21
 70
     1
102
RTVSPropertyOp22
 70
     1
102
RTVSPropertyOp23
 70
     1
102
RTVSPropertyOp24
 70
     1
102
RTVSPropertyOp25
 70
     1
102
RTVSPropertyOp26
 70
     1
102
RTVSPropertyOp27
 70
     1
  0
XRECORD
  5
58DE
102
{ACAD_REACTORS
330
58DD
102
}
330
58DD
100
AcDbXrecord
280
     1
102
RTVSPropertyOp0
 70
     1
102
RTVSPropertyOp1
 70
     1
102
RTVSPropertyOp2
 70
     1
102
RTVSPropertyOp3
 70
     1
102
RTVSPropertyOp4
 70
     1
102
RTVSPropertyOp5
 70
     1
102
RTVSPropertyOp6
 70
     1
102
RTVSPropertyOp7
 70
     1
102
RTVSPropertyOp8
 70
     1
102
RTVSPropertyOp9
 70
     1
102
RTVSPropertyOp10
 70
     1
102
RTVSPropertyOp11
 70
     1
102
RTVSPropertyOp12
 70
     1
102
RTVSPropertyOp13
 70
     1
102
RTVSPropertyOp14
 70
     1
102
RTVSPropertyOp15
 70
     1
102
RTVSPropertyOp16
 70
     1
102
RTVSPropertyOp17
 70
     1
102
RTVSPropertyOp18
 70
     1
102
RTVSPropertyOp19
 70
     1
102
RTVSPropertyOp20
 70
     1
102
RTVSPropertyOp21
 70
     1
102
RTVSPropertyOp22
 70
     1
102
RTVSPropertyOp23
 70
     1
102
RTVSPropertyOp24
 70
     1
102
RTVSPropertyOp25
 70
     1
102
RTVSPropertyOp26
 70
     1
102
RTVSPropertyOp27
 70
     1
  0
XRECORD
  5
58E0
102
{ACAD_REACTORS
330
58DF
102
}
330
58DF
100
AcDbXrecord
280
     1
102
RTVSPropertyOp0
 70
     1
102
RTVSPropertyOp1
 70
     1
102
RTVSPropertyOp2
 70
     1
102
RTVSPropertyOp3
 70
     1
102
RTVSPropertyOp4
 70
     1
102
RTVSPropertyOp5
 70
     1
102
RTVSPropertyOp6
 70
     1
102
RTVSPropertyOp7
 70
     1
102
RTVSPropertyOp8
 70
     1
102
RTVSPropertyOp9
 70
     1
102
RTVSPropertyOp10
 70
     1
102
RTVSPropertyOp11
 70
     1
102
RTVSPropertyOp12
 70
     1
102
RTVSPropertyOp13
 70
     1
102
RTVSPropertyOp14
 70
     1
102
RTVSPropertyOp15
 70
     1
102
RTVSPropertyOp16
 70
     1
102
RTVSPropertyOp17
 70
     1
102
RTVSPropertyOp18
 70
     1
102
RTVSPropertyOp19
 70
     1
102
RTVSPropertyOp20
 70
     1
102
RTVSPropertyOp21
 70
     1
102
RTVSPropertyOp22
 70
     1
102
RTVSPropertyOp23
 70
     1
102
RTVSPropertyOp24
 70
     1
102
RTVSPropertyOp25
 70
     1
102
RTVSPropertyOp26
 70
     1
102
RTVSPropertyOp27
 70
     1
  0
XRECORD
  5
58E2
102
{ACAD_REACTORS
330
58E1
102
}
330
58E1
100
AcDbXrecord
280
     1
102
RTVSPropertyOp0
 70
     1
102
RTVSPropertyOp1
 70
     1
102
RTVSPropertyOp2
 70
     1
102
RTVSPropertyOp3
 70
     1
102
RTVSPropertyOp4
 70
     1
102
RTVSPropertyOp5
 70
     1
102
RTVSPropertyOp6
 70
     1
102
RTVSPropertyOp7
 70
     1
102
RTVSPropertyOp8
 70
     1
102
RTVSPropertyOp9
 70
     1
102
RTVSPropertyOp10
 70
     1
102
RTVSPropertyOp11
 70
     1
102
RTVSPropertyOp12
 70
     1
102
RTVSPropertyOp13
 70
     1
102
RTVSPropertyOp14
 70
     1
102
RTVSPropertyOp15
 70
     1
102
RTVSPropertyOp16
 70
     1
102
RTVSPropertyOp17
 70
     1
102
RTVSPropertyOp18
 70
     1
102
RTVSPropertyOp19
 70
     1
102
RTVSPropertyOp20
 70
     1
102
RTVSPropertyOp21
 70
     1
102
RTVSPropertyOp22
 70
     1
102
RTVSPropertyOp23
 70
     1
102
RTVSPropertyOp24
 70
     1
102
RTVSPropertyOp25
 70
     1
102
RTVSPropertyOp26
 70
     1
102
RTVSPropertyOp27
 70
     1
  0
XRECORD
  5
58FC
102
{ACAD_REACTORS
330
58FB
102
}
330
58FB
100
AcDbXrecord
280
     1
102
RTVSPropertyOp0
 70
     0
102
RTVSPropertyOp1
 70
     0
102
RTVSPropertyOp2
 70
     0
102
RTVSPropertyOp3
 70
     0
102
RTVSPropertyOp4
 70
     0
102
RTVSPropertyOp5
 70
     0
102
RTVSPropertyOp6
 70
     0
102
RTVSPropertyOp7
 70
     0
102
RTVSPropertyOp8
 70
     0
102
RTVSPropertyOp9
 70
     0
102
RTVSPropertyOp10
 70
     0
102
RTVSPropertyOp11
 70
     0
102
RTVSPropertyOp12
 70
     0
102
RTVSPropertyOp13
 70
     0
102
RTVSPropertyOp14
 70
     2
102
RTVSPropertyOp15
 70
     0
102
RTVSPropertyOp16
 70
     0
102
RTVSPropertyOp17
 70
     0
102
RTVSPropertyOp18
 70
     0
102
RTVSPropertyOp19
 70
     0
102
RTVSPropertyOp20
 70
     0
102
RTVSPropertyOp21
 70
     0
102
RTVSPropertyOp22
 70
     0
102
RTVSPropertyOp23
 70
     0
102
RTVSPropertyOp24
 70
     0
102
RTVSPropertyOp25
 70
     0
102
RTVSPropertyOp26
 70
     0
102
RTVSPropertyOp27
 70
     0
  0
XRECORD
  5
58F6
102
{ACAD_REACTORS
330
58F5
102
}
330
58F5
100
AcDbXrecord
280
     1
102
RTVSPropertyOp0
 70
     1
102
RTVSPropertyOp1
 70
     1
102
RTVSPropertyOp2
 70
     1
102
RTVSPropertyOp3
 70
     1
102
RTVSPropertyOp4
 70
     1
102
RTVSPropertyOp5
 70
     1
102
RTVSPropertyOp6
 70
     1
102
RTVSPropertyOp7
 70
     1
102
RTVSPropertyOp8
 70
     1
102
RTVSPropertyOp9
 70
     1
102
RTVSPropertyOp10
 70
     1
102
RTVSPropertyOp11
 70
     1
102
RTVSPropertyOp12
 70
     1
102
RTVSPropertyOp13
 70
     1
102
RTVSPropertyOp14
 70
     1
102
RTVSPropertyOp15
 70
     1
102
RTVSPropertyOp16
 70
     1
102
RTVSPropertyOp17
 70
     1
102
RTVSPropertyOp18
 70
     1
102
RTVSPropertyOp19
 70
     1
102
RTVSPropertyOp20
 70
     1
102
RTVSPropertyOp21
 70
     1
102
RTVSPropertyOp22
 70
     1
102
RTVSPropertyOp23
 70
     1
102
RTVSPropertyOp24
 70
     1
102
RTVSPropertyOp25
 70
     1
102
RTVSPropertyOp26
 70
     1
102
RTVSPropertyOp27
 70
     1
  0
XRECORD
  5
58FE
102
{ACAD_REACTORS
330
58FD
102
}
330
58FD
100
AcDbXrecord
280
     1
102
RTVSPropertyOp0
 70
     0
102
RTVSPropertyOp1
 70
     0
102
RTVSPropertyOp2
 70
     0
102
RTVSPropertyOp3
 70
     0
102
RTVSPropertyOp4
 70
     0
102
RTVSPropertyOp5
 70
     0
102
RTVSPropertyOp6
 70
     0
102
RTVSPropertyOp7
 70
     0
102
RTVSPropertyOp8
 70
     0
102
RTVSPropertyOp9
 70
     0
102
RTVSPropertyOp10
 70
     0
102
RTVSPropertyOp11
 70
     0
102
RTVSPropertyOp12
 70
     0
102
RTVSPropertyOp13
 70
     0
102
RTVSPropertyOp14
 70
     2
102
RTVSPropertyOp15
 70
     0
102
RTVSPropertyOp16
 70
     0
102
RTVSPropertyOp17
 70
     0
102
RTVSPropertyOp18
 70
     0
102
RTVSPropertyOp19
 70
     0
102
RTVSPropertyOp20
 70
     0
102
RTVSPropertyOp21
 70
     0
102
RTVSPropertyOp22
 70
     0
102
RTVSPropertyOp23
 70
     0
102
RTVSPropertyOp24
 70
     0
102
RTVSPropertyOp25
 70
     0
102
RTVSPropertyOp26
 70
     0
102
RTVSPropertyOp27
 70
     0
  0
XRECORD
  5
58EE
102
{ACAD_REACTORS
330
58ED
102
}
330
58ED
100
AcDbXrecord
280
     1
102
RTVSPropertyOp0
 70
     1
102
RTVSPropertyOp1
 70
     1
102
RTVSPropertyOp2
 70
     1
102
RTVSPropertyOp3
 70
     1
102
RTVSPropertyOp4
 70
     1
102
RTVSPropertyOp5
 70
     1
102
RTVSPropertyOp6
 70
     1
102
RTVSPropertyOp7
 70
     1
102
RTVSPropertyOp8
 70
     1
102
RTVSPropertyOp9
 70
     1
102
RTVSPropertyOp10
 70
     1
102
RTVSPropertyOp11
 70
     1
102
RTVSPropertyOp12
 70
     1
102
RTVSPropertyOp13
 70
     1
102
RTVSPropertyOp14
 70
     1
102
RTVSPropertyOp15
 70
     1
102
RTVSPropertyOp16
 70
     1
102
RTVSPropertyOp17
 70
     1
102
RTVSPropertyOp18
 70
     1
102
RTVSPropertyOp19
 70
     1
102
RTVSPropertyOp20
 70
     1
102
RTVSPropertyOp21
 70
     1
102
RTVSPropertyOp22
 70
     1
102
RTVSPropertyOp23
 70
     1
102
RTVSPropertyOp24
 70
     1
102
RTVSPropertyOp25
 70
     1
102
RTVSPropertyOp26
 70
     1
102
RTVSPropertyOp27
 70
     1
  0
XRECORD
  5
58F4
102
{ACAD_REACTORS
330
58F3
102
}
330
58F3
100
AcDbXrecord
280
     1
102
RTVSPropertyOp0
 70
     1
102
RTVSPropertyOp1
 70
     1
102
RTVSPropertyOp2
 70
     1
102
RTVSPropertyOp3
 70
     1
102
RTVSPropertyOp4
 70
     1
102
RTVSPropertyOp5
 70
     1
102
RTVSPropertyOp6
 70
     1
102
RTVSPropertyOp7
 70
     1
102
RTVSPropertyOp8
 70
     1
102
RTVSPropertyOp9
 70
     1
102
RTVSPropertyOp10
 70
     1
102
RTVSPropertyOp11
 70
     1
102
RTVSPropertyOp12
 70
     1
102
RTVSPropertyOp13
 70
     1
102
RTVSPropertyOp14
 70
     1
102
RTVSPropertyOp15
 70
     1
102
RTVSPropertyOp16
 70
     1
102
RTVSPropertyOp17
 70
     1
102
RTVSPropertyOp18
 70
     1
102
RTVSPropertyOp19
 70
     1
102
RTVSPropertyOp20
 70
     1
102
RTVSPropertyOp21
 70
     1
102
RTVSPropertyOp22
 70
     1
102
RTVSPropertyOp23
 70
     1
102
RTVSPropertyOp24
 70
     1
102
RTVSPropertyOp25
 70
     1
102
RTVSPropertyOp26
 70
     1
102
RTVSPropertyOp27
 70
     1
  0
ENDSEC
  0
EOF
