  0
SECTION
  2
HEADER
  9
$ACADVER
  1
AC1018
  9
$ACADMAINTVER
 70
   104
  9
$DWGCODEPAGE
  3
ANSI_1252
  9
$LASTSAVEDBY
  1
admin
  9
$INSBASE
 10
0.0
 20
0.0
 30
0.0
  9
$EXTMIN
 10
256.0183149988616
 20
139.9739203866629
 30
-0.0015258207003583
  9
$EXTMAX
 10
688.3262333790135
 20
892.5891703605776
 30
0.0000000349246037
  9
$LIMMIN
 10
0.0
 20
0.0
  9
$LIMMAX
 10
420.0
 20
297.0
  9
$ORTHOMODE
 70
     0
  9
$REGENMODE
 70
     1
  9
$FILLMODE
 70
     1
  9
$QTEXTMODE
 70
     0
  9
$MIRRTEXT
 70
     0
  9
$LTSCALE
 40
1.0
  9
$ATTMODE
 70
     1
  9
$TEXTSIZE
 40
2.5
  9
$TRACEWID
 40
1.0
  9
$TEXTSTYLE
  7
Standard
  9
$CLAYER
  8
0
  9
$CELTYPE
  6
ByLayer
  9
$CECOLOR
 62
   256
  9
$CELTSCALE
 40
1.0
  9
$DISPSILH
 70
     0
  9
$DIMSCALE
 40
1.0
  9
$DIMASZ
 40
2.5
  9
$DIMEXO
 40
0.625
  9
$DIMDLI
 40
3.75
  9
$DIMRND
 40
0.0
  9
$DIMDLE
 40
0.0
  9
$DIMEXE
 40
1.25
  9
$DIMTP
 40
0.0
  9
$DIMTM
 40
0.0
  9
$DIMTXT
 40
2.5
  9
$DIMCEN
 40
2.5
  9
$DIMTSZ
 40
0.0
  9
$DIMTOL
 70
     0
  9
$DIMLIM
 70
     0
  9
$DIMTIH
 70
     0
  9
$DIMTOH
 70
     0
  9
$DIMSE1
 70
     0
  9
$DIMSE2
 70
     0
  9
$DIMTAD
 70
     1
  9
$DIMZIN
 70
     8
  9
$DIMBLK
  1

  9
$DIMASO
 70
     1
  9
$DIMSHO
 70
     1
  9
$DIMPOST
  1

  9
$DIMAPOST
  1

  9
$DIMALT
 70
     0
  9
$DIMALTD
 70
     3
  9
$DIMALTF
 40
0.03937007874016
  9
$DIMLFAC
 40
1.0
  9
$DIMTOFL
 70
     1
  9
$DIMTVP
 40
0.0
  9
$DIMTIX
 70
     0
  9
$DIMSOXD
 70
     0
  9
$DIMSAH
 70
     0
  9
$DIMBLK1
  1

  9
$DIMBLK2
  1

  9
$DIMSTYLE
  2
ISO-25
  9
$DIMCLRD
 70
     0
  9
$DIMCLRE
 70
     0
  9
$DIMCLRT
 70
     0
  9
$DIMTFAC
 40
1.0
  9
$DIMGAP
 40
0.625
  9
$DIMJUST
 70
     0
  9
$DIMSD1
 70
     0
  9
$DIMSD2
 70
     0
  9
$DIMTOLJ
 70
     0
  9
$DIMTZIN
 70
     8
  9
$DIMALTZ
 70
     0
  9
$DIMALTTZ
 70
     0
  9
$DIMUPT
 70
     0
  9
$DIMDEC
 70
     2
  9
$DIMTDEC
 70
     2
  9
$DIMALTU
 70
     2
  9
$DIMALTTD
 70
     3
  9
$DIMTXSTY
  7
Standard
  9
$DIMAUNIT
 70
     0
  9
$DIMADEC
 70
     0
  9
$DIMALTRND
 40
0.0
  9
$DIMAZIN
 70
     0
  9
$DIMDSEP
 70
    44
  9
$DIMATFIT
 70
     3
  9
$DIMFRAC
 70
     0
  9
$DIMLDRBLK
  1

  9
$DIMLUNIT
 70
     2
  9
$DIMLWD
 70
    -2
  9
$DIMLWE
 70
    -2
  9
$DIMTMOVE
 70
     0
  9
$LUNITS
 70
     2
  9
$LUPREC
 70
     4
  9
$SKETCHINC
 40
1.0
  9
$FILLETRAD
 40
0.0
  9
$AUNITS
 70
     0
  9
$AUPREC
 70
     0
  9
$MENU
  1
.
  9
$ELEVATION
 40
0.0
  9
$PELEVATION
 40
0.0
  9
$THICKNESS
 40
0.0
  9
$LIMCHECK
 70
     0
  9
$CHAMFERA
 40
0.0
  9
$CHAMFERB
 40
0.0
  9
$CHAMFERC
 40
0.0
  9
$CHAMFERD
 40
0.0
  9
$SKPOLY
 70
     0
  9
$TDCREATE
 40
2457869.280614120
  9
$TDUCREATE
 40
2457869.197280787
  9
$TDUPDATE
 40
2457869.326544943
  9
$TDUUPDATE
 40
2457869.243211609
  9
$TDINDWG
 40
0.0459312384
  9
$TDUSRTIMER
 40
0.0459310532
  9
$USRTIMER
 70
     1
  9
$ANGBASE
 50
0.0
  9
$ANGDIR
 70
     0
  9
$PDMODE
 70
     0
  9
$PDSIZE
 40
0.0
  9
$PLINEWID
 40
0.0
  9
$SPLFRAME
 70
     0
  9
$SPLINETYPE
 70
     6
  9
$SPLINESEGS
 70
     8
  9
$HANDSEED
  5
5D4C
  9
$SURFTAB1
 70
     6
  9
$SURFTAB2
 70
     6
  9
$SURFTYPE
 70
     6
  9
$SURFU
 70
     6
  9
$SURFV
 70
     6
  9
$UCSBASE
  2

  9
$UCSNAME
  2

  9
$UCSORG
 10
0.0
 20
0.0
 30
0.0
  9
$UCSXDIR
 10
1.0
 20
0.0
 30
0.0
  9
$UCSYDIR
 10
0.0
 20
1.0
 30
0.0
  9
$UCSORTHOREF
  2

  9
$UCSORTHOVIEW
 70
     0
  9
$UCSORGTOP
 10
0.0
 20
0.0
 30
0.0
  9
$UCSORGBOTTOM
 10
0.0
 20
0.0
 30
0.0
  9
$UCSORGLEFT
 10
0.0
 20
0.0
 30
0.0
  9
$UCSORGRIGHT
 10
0.0
 20
0.0
 30
0.0
  9
$UCSORGFRONT
 10
0.0
 20
0.0
 30
0.0
  9
$UCSORGBACK
 10
0.0
 20
0.0
 30
0.0
  9
$PUCSBASE
  2

  9
$PUCSNAME
  2

  9
$PUCSORG
 10
0.0
 20
0.0
 30
0.0
  9
$PUCSXDIR
 10
1.0
 20
0.0
 30
0.0
  9
$PUCSYDIR
 10
0.0
 20
1.0
 30
0.0
  9
$PUCSORTHOREF
  2

  9
$PUCSORTHOVIEW
 70
     0
  9
$PUCSORGTOP
 10
0.0
 20
0.0
 30
0.0
  9
$PUCSORGBOTTOM
 10
0.0
 20
0.0
 30
0.0
  9
$PUCSORGLEFT
 10
0.0
 20
0.0
 30
0.0
  9
$PUCSORGRIGHT
 10
0.0
 20
0.0
 30
0.0
  9
$PUCSORGFRONT
 10
0.0
 20
0.0
 30
0.0
  9
$PUCSORGBACK
 10
0.0
 20
0.0
 30
0.0
  9
$USERI1
 70
     0
  9
$USERI2
 70
     0
  9
$USERI3
 70
     0
  9
$USERI4
 70
     0
  9
$USERI5
 70
     0
  9
$USERR1
 40
0.0
  9
$USERR2
 40
0.0
  9
$USERR3
 40
0.0
  9
$USERR4
 40
0.0
  9
$USERR5
 40
0.0
  9
$WORLDVIEW
 70
     1
  9
$SHADEDGE
 70
     3
  9
$SHADEDIF
 70
    70
  9
$TILEMODE
 70
     1
  9
$MAXACTVP
 70
    64
  9
$PINSBASE
 10
0.0
 20
0.0
 30
0.0
  9
$PLIMCHECK
 70
     0
  9
$PEXTMIN
 10
1.000000000000000E+20
 20
1.000000000000000E+20
 30
1.000000000000000E+20
  9
$PEXTMAX
 10
-1.000000000000000E+20
 20
-1.000000000000000E+20
 30
-1.000000000000000E+20
  9
$PLIMMIN
 10
0.0
 20
0.0
  9
$PLIMMAX
 10
420.0
 20
297.0
  9
$UNITMODE
 70
     0
  9
$VISRETAIN
 70
     1
  9
$PLINEGEN
 70
     0
  9
$PSLTSCALE
 70
     1
  9
$TREEDEPTH
 70
  3020
  9
$CMLSTYLE
  2
Standard
  9
$CMLJUST
 70
     0
  9
$CMLSCALE
 40
20.0
  9
$PROXYGRAPHICS
 70
     1
  9
$MEASUREMENT
 70
     1
  9
$CELWEIGHT
370
    -1
  9
$ENDCAPS
280
     0
  9
$JOINSTYLE
280
     0
  9
$LWDISPLAY
290
     0
  9
$INSUNITS
 70
     4
  9
$HYPERLINKBASE
  1

  9
$STYLESHEET
  1

  9
$XEDIT
290
     1
  9
$CEPSNTYPE
380
     0
  9
$PSTYLEMODE
290
     1
  9
$FINGERPRINTGUID
  2
{9DFB5F12-FE38-410F-B4C1-738DA96BFA2A}
  9
$VERSIONGUID
  2
{7B295E1D-04B3-4E67-9A1F-93A9D08D4920}
  9
$EXTNAMES
290
     1
  9
$PSVPSCALE
 40
0.0
  9
$OLESTARTUP
290
     0
  9
$SORTENTS
280
   127
  9
$INDEXCTL
280
     0
  9
$HIDETEXT
280
     1
  9
$XCLIPFRAME
290
     0
  9
$HALOGAP
280
     0
  9
$OBSCOLOR
 70
   257
  9
$OBSLTYPE
280
     0
  9
$INTERSECTIONDISPLAY
280
     0
  9
$INTERSECTIONCOLOR
 70
   257
  9
$DIMASSOC
280
     2
  9
$PROJECTNAME
  1

  0
ENDSEC
  0
SECTION
  2
CLASSES
  0
CLASS
  1
ACDBDICTIONARYWDFLT
  2
AcDbDictionaryWithDefault
  3
ObjectDBX Classes
 90
        0
 91
        1
280
     0
281
     0
  0
CLASS
  1
MATERIAL
  2
AcDbMaterial
  3
ObjectDBX Classes
 90
     1153
 91
        3
280
     0
281
     0
  0
CLASS
  1
VISUALSTYLE
  2
AcDbVisualStyle
  3
ObjectDBX Classes
 90
     4095
 91
       19
280
     0
281
     0
  0
CLASS
  1
SCALE
  2
AcDbScale
  3
ObjectDBX Classes
 90
     1153
 91
       17
280
     0
281
     0
  0
CLASS
  1
TABLESTYLE
  2
AcDbTableStyle
  3
ObjectDBX Classes
 90
     4095
 91
        1
280
     0
281
     0
  0
CLASS
  1
MLEADERSTYLE
  2
AcDbMLeaderStyle
  3
ACDB_MLEADERSTYLE_CLASS
 90
     4095
 91
        1
280
     0
281
     0
  0
CLASS
  1
SORTENTSTABLE
  2
AcDbSortentsTable
  3
ObjectDBX Classes
 90
        0
 91
       93
280
     0
281
     0
  0
CLASS
  1
AEC_REFEDIT_STATUS_TRACKER
  2
AecDbRefEditStatusTracker
  3
AecArchBase60|Product Desc: Autodesk Architectural Desktop 2007 |Company: Autodesk,Inc. |WEB Address: www.autodesk.com
 90
      129
 91
        1
280
     0
281
     0
  0
CLASS
  1
NPOCOLLECTION
  2
AcDbImpNonPersistentObjectsCollection
  3
ObjectDBX Classes
 90
     1153
 91
        1
280
     0
281
     0
  0
CLASS
  1
DICTIONARYVAR
  2
AcDbDictionaryVar
  3
ObjectDBX Classes
 90
        0
 91
       90
280
     0
281
     0
  0
CLASS
  1
CELLSTYLEMAP
  2
AcDbCellStyleMap
  3
ObjectDBX Classes
 90
     1152
 91
       11
280
     0
281
     0
  0
ENDSEC
  0
SECTION
  2
TABLES
  0
TABLE
  2
VPORT
  5
8
330
0
100
AcDbSymbolTable
 70
     1
  0
VPORT
  5
52
330
8
100
AcDbSymbolTableRecord
100
AcDbViewportTableRecord
  2
*Active
 70
     0
 10
0.0
 20
0.0
 11
1.0
 21
1.0
 12
472.1722741889376
 22
516.2815453736202
 13
0.0
 23
0.0
 14
10.0
 24
10.0
 15
10.0
 25
10.0
 16
0.0
 26
0.0
 36
1.0
 17
0.0
 27
0.0
 37
0.0
 40
757.5076567993137
 41
1.888286334056399
 42
50.0
 43
0.0
 44
0.0
 50
0.0
 51
0.0
 71
     0
 72
  1000
 73
     1
 74
     3
 75
     0
 76
     0
 77
     0
 78
     0
281
     0
 65
     1
110
0.0
120
0.0
130
0.0
111
1.0
121
0.0
131
0.0
112
0.0
122
1.0
132
0.0
 79
     0
146
0.0
  0
ENDTAB
  0
TABLE
  2
LTYPE
  5
5
330
0
100
AcDbSymbolTable
 70
     2
  0
LTYPE
  5
56
330
5
100
AcDbSymbolTableRecord
100
AcDbLinetypeTableRecord
  2
ByBlock
 70
     0
  3

 72
    65
 73
     0
 40
0.0
  0
LTYPE
  5
57
330
5
100
AcDbSymbolTableRecord
100
AcDbLinetypeTableRecord
  2
ByLayer
 70
     0
  3

 72
    65
 73
     0
 40
0.0
  0
LTYPE
  5
58
330
5
100
AcDbSymbolTableRecord
100
AcDbLinetypeTableRecord
  2
Continuous
 70
     0
  3
Solid line
 72
    65
 73
     0
 40
0.0
  0
LTYPE
  5
5B62
330
5
100
AcDbSymbolTableRecord
100
AcDbLinetypeTableRecord
  2
JIS_02_0.7
 70
     0
  3
HIDDEN0.75 _ _ _ _ _ _ _ _ _ _ _ _ _ _ _ _ _
 72
    65
 73
     2
 40
1.35
 49
0.75
 74
     0
 49
-0.6
 74
     0
  0
ENDTAB
  0
TABLE
  2
LAYER
  5
2
102
{ACAD_XDICTIONARY
360
5B79
102
}
330
0
100
AcDbSymbolTable
 70
    11
  0
LAYER
  5
4F
330
2
100
AcDbSymbolTableRecord
100
AcDbLayerTableRecord
  2
0
 70
     0
 62
     7
  6
Continuous
370
    -3
390
F
  0
LAYER
  5
5B63
330
2
100
AcDbSymbolTableRecord
100
AcDbLayerTableRecord
  2
F_01 sichtbar
 70
     0
 62
     7
  6
Continuous
370
    -3
390
F
1001
AcAecLayerStandard
1000

1000

  0
LAYER
  5
5B64
330
2
100
AcDbSymbolTableRecord
100
AcDbLayerTableRecord
  2
F_31 Ansichtsfenster
 70
     0
 62
    12
  6
Continuous
290
     0
370
    40
390
F
1001
AcAecLayerStandard
1000

1000

  0
LAYER
  5
5B65
330
2
100
AcDbSymbolTableRecord
100
AcDbLayerTableRecord
  2
F_02 unsichtbar
 70
     0
 62
     8
  6
JIS_02_0.7
370
    -3
390
F
1001
AcAecLayerStandard
1000

1000

  0
LAYER
  5
5B66
330
2
100
AcDbSymbolTableRecord
100
AcDbLayerTableRecord
  2
F_06 Wangen
 70
     0
 62
   190
  6
Continuous
370
    -3
390
F
1001
AcAecLayerStandard
1000

1000

  0
LAYER
  5
5B67
330
2
100
AcDbSymbolTableRecord
100
AcDbLayerTableRecord
  2
F_15 Schr-Mauer hell
 70
     0
 62
   254
  6
Continuous
370
    -3
390
F
1001
AcAecLayerStandard
1000

1000

  0
LAYER
  5
5B68
330
2
100
AcDbSymbolTableRecord
100
AcDbLayerTableRecord
  2
F_18 Schr-Holz hell
 70
     0
 62
    41
  6
Continuous
370
    -3
390
F
1001
AcAecLayerStandard
1000

1000

  0
LAYER
  5
5B69
330
2
100
AcDbSymbolTableRecord
100
AcDbLayerTableRecord
  2
F_29 Bemassung M
 70
     0
 62
   160
  6
Continuous
370
    -3
390
F
1001
AcAecLayerStandard
1000

1000

  0
LAYER
  5
5B6A
330
2
100
AcDbSymbolTableRecord
100
AcDbLayerTableRecord
  2
F_30 Bemassung T
 70
     0
 62
    92
  6
Continuous
370
    -3
390
F
1001
AcAecLayerStandard
1000

1000

  0
LAYER
  5
5B6B
102
{ACAD_XDICTIONARY
360
5B6C
102
}
330
2
100
AcDbSymbolTableRecord
100
AcDbLayerTableRecord
  2
F_0 sichtbar
 70
     0
 62
     7
  6
Continuous
370
    -3
390
F
1001
AcAecLayerStandard
1000

1000

  0
LAYER
  5
5B6D
102
{ACAD_XDICTIONARY
360
5B6E
102
}
330
2
100
AcDbSymbolTableRecord
100
AcDbLayerTableRecord
  2
F_20 Schr-Metall hell
 70
     0
 62
     7
420
 13107199
  6
Continuous
370
    -3
390
F
1001
AcAecLayerStandard
1000

1000

  0
ENDTAB
  0
TABLE
  2
STYLE
  5
3
330
0
100
AcDbSymbolTable
 70
     3
  0
STYLE
  5
50
330
3
100
AcDbSymbolTableRecord
100
AcDbTextStyleTableRecord
  2
Standard
 70
     0
 40
0.0
 41
1.0
 50
0.0
 71
     0
 42
2.5
  3
txt
  4

  0
STYLE
  5
55
330
3
100
AcDbSymbolTableRecord
100
AcDbTextStyleTableRecord
  2
Annotative
 70
     0
 40
0.0
 41
1.0
 50
0.0
 71
     0
 42
0.2
  3
txt
  4

1001
AcadAnnotative
1000
AnnotativeData
1002
{
1070
     1
1070
     1
1002
}
  0
STYLE
  5
5B6F
330
3
100
AcDbSymbolTableRecord
100
AcDbTextStyleTableRecord
  2
Arial
 70
     0
 40
0.0
 41
1.0
 50
0.0
 71
     0
 42
3.0
  3
ARIALN.TTF
  4

1001
AcadAnnotative
1000
AnnotativeData
1002
{
1070
     1
1070
     1
1002
}
1001
ACAD
1000
Arial Narrow
1071
       34
  0
ENDTAB
  0
TABLE
  2
VIEW
  5
6
330
0
100
AcDbSymbolTable
 70
     0
  0
ENDTAB
  0
TABLE
  2
UCS
  5
7
330
0
100
AcDbSymbolTable
 70
     0
  0
ENDTAB
  0
TABLE
  2
APPID
  5
9
330
0
100
AcDbSymbolTable
 70
     8
  0
APPID
  5
51
330
9
100
AcDbSymbolTableRecord
100
AcDbRegAppTableRecord
  2
ACAD
 70
     0
  0
APPID
  5
59
330
9
100
AcDbSymbolTableRecord
100
AcDbRegAppTableRecord
  2
AcadAnnotative
 70
     0
  0
APPID
  5
5B75
330
9
100
AcDbSymbolTableRecord
100
AcDbRegAppTableRecord
  2
AcAecLayerStandard
 70
     0
  0
APPID
  5
5B76
330
9
100
AcDbSymbolTableRecord
100
AcDbRegAppTableRecord
  2
ACAD_PSEXT
 70
     0
  0
APPID
  5
5B77
330
9
100
AcDbSymbolTableRecord
100
AcDbRegAppTableRecord
  2
ACAD_DSTYLE_DIMJAG
 70
     0
  0
APPID
  5
5B78
330
9
100
AcDbSymbolTableRecord
100
AcDbRegAppTableRecord
  2
ACAD_DSTYLE_DIMTALN
 70
     0
  0
APPID
  5
5D49
330
9
100
AcDbSymbolTableRecord
100
AcDbRegAppTableRecord
  2
ACAD_DSTYLE_DIMJOGGED_JOGANGLE_SYMBOL
 70
     0
  0
APPID
  5
5D4B
330
9
100
AcDbSymbolTableRecord
100
AcDbRegAppTableRecord
  2
ACAD_MLEADERVER
 70
     0
  0
ENDTAB
  0
TABLE
  2
DIMSTYLE
  5
A
330
0
100
AcDbSymbolTable
 70
     7
100
AcDbDimStyleTable
 71
     0
  0
DIMSTYLE
105
53
330
A
100
AcDbSymbolTableRecord
100
AcDbDimStyleTableRecord
  2
ISO-25
 70
     0
 41
2.5
 42
0.625
 43
3.75
 44
1.25
 73
     0
 74
     0
 77
     1
 78
     8
140
2.5
141
2.5
143
0.03937007874016
147
0.625
171
     3
172
     1
271
     2
272
     2
274
     3
278
    44
283
     0
284
     8
340
50
1001
ACAD_DSTYLE_DIMJOGGED_JOGANGLE_SYMBOL
1070
   384
1040
1.570796326794896
  0
DIMSTYLE
105
54
330
A
100
AcDbSymbolTableRecord
100
AcDbDimStyleTableRecord
  2
Annotative
 70
     0
340
50
1001
AcadAnnotative
1000
AnnotativeData
1002
{
1070
     1
1070
     1
1002
}
  0
DIMSTYLE
105
5B70
330
A
100
AcDbSymbolTableRecord
100
AcDbDimStyleTableRecord
  2
MST 1-1
 70
     0
 41
2.0
 42
2.0
 43
2.0
 44
1.0
 46
2.0
 73
     0
 74
     0
 77
     3
 78
     8
 79
     2
140
3.0
141
2.5
143
0.03937007874016
147
1.0
171
     3
176
   256
177
   256
178
     3
179
     1
271
     1
272
     1
274
     3
279
     2
284
     8
340
5B6F
342
5B48
1001
ACAD_DSTYLE_DIMJAG
1070
   388
1040
1.5
1001
ACAD_DSTYLE_DIMTALN
1070
   392
1070
     0
  0
DIMSTYLE
105
5B71
330
A
100
AcDbSymbolTableRecord
100
AcDbDimStyleTableRecord
  2
MST 1-2
 70
     0
 40
2.0
 41
2.0
 42
2.0
 43
2.0
 44
1.0
 46
2.0
 73
     0
 74
     0
 77
     3
 78
     8
 79
     2
140
3.0
141
1.0
143
0.03937007874016
147
1.0
171
     3
176
   256
177
   256
178
     3
179
     1
271
     1
272
     1
274
     3
279
     2
284
     8
340
5B6F
342
5B48
  0
DIMSTYLE
105
5B72
330
A
100
AcDbSymbolTableRecord
100
AcDbDimStyleTableRecord
  2
MST 1-5
 70
     0
 40
5.0
 41
1.5
 42
2.0
 43
2.0
 44
1.0
 46
2.0
 73
     0
 74
     0
 77
     3
 78
     8
 79
     2
140
3.0
141
1.0
143
0.03937007874016
147
1.0
171
     3
176
   256
177
   256
178
     3
179
     1
271
     1
272
     1
274
     3
279
     2
284
     8
340
5B6F
342
5B48
  0
DIMSTYLE
105
5B73
330
A
100
AcDbSymbolTableRecord
100
AcDbDimStyleTableRecord
  2
MST 1-10
 70
     0
 40
10.0
 41
2.0
 42
2.0
 43
2.0
 44
2.0
 46
2.0
 73
     0
 74
     0
 77
     3
 78
     8
 79
     2
140
3.0
141
1.0
143
0.03937007874016
147
1.0
171
     3
176
   256
177
   256
178
     3
179
     1
271
     1
272
     1
274
     3
279
     2
284
     8
340
5B6F
342
5B48
1001
ACAD_DSTYLE_DIMJAG
1070
   388
1040
1.5
1001
ACAD_DSTYLE_DIMTALN
1070
   392
1070
     0
  0
DIMSTYLE
105
5B74
330
A
100
AcDbSymbolTableRecord
100
AcDbDimStyleTableRecord
  2
MST 1-20
 70
     0
 40
20.0
 41
2.0
 42
2.0
 43
2.0
 44
1.0
 46
2.0
 73
     0
 74
     0
 77
     3
 78
     8
 79
     2
140
3.0
141
1.0
143
0.03937007874016
147
1.0
171
     3
176
   256
177
   256
178
     3
179
     1
271
     1
272
     1
274
     3
279
     2
284
     8
340
5B6F
342
5B48
  0
ENDTAB
  0
TABLE
  2
BLOCK_RECORD
  5
1
330
0
100
AcDbSymbolTable
 70
     4
  0
BLOCK_RECORD
  5
67
330
1
100
AcDbSymbolTableRecord
100
AcDbBlockTableRecord
  2
*Model_Space
340
6A
  0
BLOCK_RECORD
  5
63
330
1
100
AcDbSymbolTableRecord
100
AcDbBlockTableRecord
  2
*Paper_Space
340
66
  0
BLOCK_RECORD
  5
6B
330
1
100
AcDbSymbolTableRecord
100
AcDbBlockTableRecord
  2
*Paper_Space0
340
6E
  0
BLOCK_RECORD
  5
5B48
102
{ACAD_XDICTIONARY
360
5B49
102
}
330
1
100
AcDbSymbolTableRecord
100
AcDbBlockTableRecord
  2
_ArchTick
340
0
310
2800000020000000200000000100080000000000000400000000000000000000000000000000000000000000000080000080000000808000800000008000800080800000C0C0C000C0DCC000F0CAA6000020400000206000002080000020A0000020C0000020E00000400000004020000040400000406000004080000040A0
310
000040C0000040E00000600000006020000060400000606000006080000060A0000060C0000060E00000800000008020000080400000806000008080000080A0000080C0000080E00000A0000000A0200000A0400000A0600000A0800000A0A00000A0C00000A0E00000C0000000C0200000C0400000C0600000C0800000C0
310
A00000C0C00000C0E00000E0000000E0200000E0400000E0600000E0800000E0A00000E0C00000E0E00040000000400020004000400040006000400080004000A0004000C0004000E00040200000402020004020400040206000402080004020A0004020C0004020E000404000004040200040404000404060004040800040
310
40A0004040C0004040E00040600000406020004060400040606000406080004060A0004060C0004060E00040800000408020004080400040806000408080004080A0004080C0004080E00040A0000040A0200040A0400040A0600040A0800040A0A00040A0C00040A0E00040C0000040C0200040C0400040C0600040C08000
310
40C0A00040C0C00040C0E00040E0000040E0200040E0400040E0600040E0800040E0A00040E0C00040E0E00080000000800020008000400080006000800080008000A0008000C0008000E00080200000802020008020400080206000802080008020A0008020C0008020E00080400000804020008040400080406000804080
310
008040A0008040C0008040E00080600000806020008060400080606000806080008060A0008060C0008060E00080800000808020008080400080806000808080008080A0008080C0008080E00080A0000080A0200080A0400080A0600080A0800080A0A00080A0C00080A0E00080C0000080C0200080C0400080C0600080C0
310
800080C0A00080C0C00080C0E00080E0000080E0200080E0400080E0600080E0800080E0A00080E0C00080E0E000C0000000C0002000C0004000C0006000C0008000C000A000C000C000C000E000C0200000C0202000C0204000C0206000C0208000C020A000C020C000C020E000C0400000C0402000C0404000C0406000C0
310
408000C040A000C040C000C040E000C0600000C0602000C0604000C0606000C0608000C060A000C060C000C060E000C0800000C0802000C0804000C0806000C0808000C080A000C080C000C080E000C0A00000C0A02000C0A04000C0A06000C0A08000C0A0A000C0A0C000C0A0E000C0C00000C0C02000C0C04000C0C06000
310
C0C08000C0C0A000F0FBFF00A4A0A000808080000000FF0000FF000000FFFF00FF000000FF00FF00FFFF0000FFFFFF00FFFFFF00FFFFFFFFFFFFFFFFFFFFFFFFFFFFFFFFFFFFFFFFFFFFFFFFFFFFFFFFFFFF00FF00FFFFFFFFFFFFFFFFFFFFFFFFFFFFFFFFFFFFFFFFFFFFFFFFFFFFFFFF00FFFFFF00FFFFFFFFFFFFFFFFFF
310
FFFFFFFFFFFFFFFFFFFFFFFFFFFFFFFFFF00FFFFFFFFFF00FFFFFFFFFFFFFFFFFFFFFFFFFFFFFFFFFFFFFFFFFFFFFFFFFFFF00FFFFFFFFFF00FFFFFFFFFFFFFFFFFFFFFFFFFFFFFFFFFFFFFFFFFFFFFFFFFFFF00FFFFFFFFFF00FFFFFFFFFFFFFFFFFFFFFFFFFFFFFFFFFFFFFFFFFFFFFFFFFFFF00FFFFFFFFFF00FFFFFFFF
310
FFFFFFFFFFFFFFFFFFFFFFFFFFFFFFFFFFFFFFFFFFFF00FFFFFFFFFF00FFFFFFFFFFFFFFFFFFFFFFFFFFFFFFFFFFFFFFFFFFFFFFFFFFFF00FFFFFFFFFF00FFFFFFFFFFFFFFFFFFFFFFFFFFFFFFFFFFFFFFFFFFFFFFFFFFFF00FFFFFFFFFF00FFFFFFFFFFFFFFFFFFFFFFFFFFFFFFFFFFFFFFFFFFFFFFFFFFFF00FFFFFFFFFF
310
00FFFFFFFFFFFFFFFFFFFFFFFFFFFFFFFFFFFFFFFFFFFFFFFFFFFF00FFFFFFFFFF00FFFFFFFFFFFFFFFFFFFFFFFFFFFFFFFFFFFFFFFFFFFFFFFFFFFF00FFFFFFFFFF00FFFFFFFFFFFFFFFFFFFFFFFFFFFFFFFFFFFFFFFFFFFFFFFFFFFF00FFFFFFFFFF00FFFFFFFFFFFFFFFFFFFFFFFFFFFFFFFFFFFFFFFFFFFFFFFFFFFF00
310
FFFFFFFFFF00FFFFFFFFFFFFFFFFFFFFFFFFFFFFFFFFFFFFFFFFFFFFFFFFFFFF00FFFFFFFFFF00FFFFFFFFFFFFFFFFFFFFFFFFFFFFFFFFFFFFFFFFFFFFFFFFFFFF00FFFFFFFFFF00FFFFFFFFFFFFFFFFFFFFFFFFFFFFFFFFFFFFFFFFFFFFFFFFFFFF00FFFFFFFFFF00FFFFFFFFFFFFFFFFFFFFFFFFFFFFFFFFFFFFFFFFFFFF
310
FFFFFFFF00FFFFFFFFFF00FFFFFFFFFFFFFFFFFFFFFFFFFFFFFFFFFFFFFFFFFFFFFFFFFFFF00FFFFFFFFFF00FFFFFFFFFFFFFFFFFFFFFFFFFFFFFFFFFFFFFFFFFFFFFFFFFFFF00FFFFFFFFFF00FFFFFFFFFFFFFFFFFFFFFFFFFFFFFFFFFFFFFFFFFFFFFFFFFFFF00FFFFFFFFFF00FFFFFFFFFFFFFFFFFFFFFFFFFFFFFFFFFF
310
FFFFFFFFFFFFFFFFFF00FFFFFFFFFF00FFFFFFFFFFFFFFFFFFFFFFFFFFFFFFFFFFFFFFFFFFFFFFFFFFFF00FFFFFFFFFF00FFFFFFFFFFFFFFFFFFFFFFFFFFFFFFFFFFFFFFFFFFFFFFFFFFFF00FFFFFFFFFF00FFFFFFFFFFFFFFFFFFFFFFFFFFFFFFFFFFFFFFFFFFFFFFFFFFFF00FFFFFFFFFF00FFFFFFFFFFFFFFFFFFFFFFFF
310
FFFFFFFFFFFFFFFFFFFFFFFFFFFF00FFFFFFFFFF00FFFFFFFFFFFFFFFFFFFFFFFFFFFFFFFFFFFFFFFFFFFFFFFFFFFF00FFFFFFFFFF00FFFFFFFFFFFFFFFFFFFFFFFFFFFFFFFFFFFFFFFFFFFFFFFFFFFF00FFFFFFFFFF00FFFFFFFFFFFFFFFFFFFFFFFFFFFFFFFFFFFFFFFFFFFFFFFFFFFF00FFFFFF00FFFFFFFFFFFFFFFFFF
310
FFFFFFFFFFFFFFFFFFFFFFFFFFFFFFFFFFFFFF00FF00FFFFFFFFFFFFFFFFFFFFFFFFFFFFFFFFFFFFFFFFFFFFFFFFFFFFFFFFFFFF00FFFFFF
  0
BLOCK_RECORD
  5
5B4E
102
{ACAD_XDICTIONARY
360
5B4F
102
}
330
1
100
AcDbSymbolTableRecord
100
AcDbBlockTableRecord
  2
A$C512D72A2
340
0
102
{BLKREFS
331
5BAC
331
5C78
102
}
1001
ACAD
1000
DesignCenter Data
1002
{
1070
     1
1070
     4
1002
}
  0
ENDTAB
  0
ENDSEC
  0
SECTION
  2
BLOCKS
  0
BLOCK
  5
68
330
67
100
AcDbEntity
  8
0
100
AcDbBlockBegin
  2
*Model_Space
 70
     0
 10
0.0
 20
0.0
 30
0.0
  3
*Model_Space
  1

  0
ENDBLK
  5
69
330
67
100
AcDbEntity
  8
0
100
AcDbBlockEnd
  0
BLOCK
  5
64
330
63
100
AcDbEntity
 67
     1
  8
0
100
AcDbBlockBegin
  2
*Paper_Space
 70
     0
 10
0.0
 20
0.0
 30
0.0
  3
*Paper_Space
  1

  0
ENDBLK
  5
65
330
63
100
AcDbEntity
 67
     1
  8
0
100
AcDbBlockEnd
  0
BLOCK
  5
6C
330
6B
100
AcDbEntity
 67
     1
  8
0
100
AcDbBlockBegin
  2
*Paper_Space0
 70
     0
 10
0.0
 20
0.0
 30
0.0
  3
*Paper_Space0
  1

  0
ENDBLK
  5
6D
330
6B
100
AcDbEntity
 67
     1
  8
0
100
AcDbBlockEnd
  0
BLOCK
  5
5B4B
330
5B48
100
AcDbEntity
  8
0
100
AcDbBlockBegin
  2
_ArchTick
 70
     0
 10
0.0
 20
0.0
 30
0.0
  3
_ArchTick
  1

  0
LWPOLYLINE
  5
5B4C
330
5B48
100
AcDbEntity
  8
0
  6
ByBlock
 62
     7
100
AcDbPolyline
 90
        2
 70
     0
 43
0.15
 10
-0.5
 20
-0.5
 10
0.5
 20
0.5
  0
ENDBLK
  5
5B4D
330
5B48
100
AcDbEntity
  8
0
100
AcDbBlockEnd
  0
BLOCK
  5
5B51
330
5B4E
100
AcDbEntity
  8
0
100
AcDbBlockBegin
  2
A$C512D72A2
 70
     0
 10
0.0
 20
0.0
 30
0.0
  3
A$C512D72A2
  1

  0
CIRCLE
  5
5B52
330
5B4E
100
AcDbEntity
  8
F_01 sichtbar
100
AcDbCircle
 10
62.84019272666774
 20
26.08899811659649
 30
0.0
 40
1.5
  0
LINE
  5
5B53
330
5B4E
100
AcDbEntity
  8
F_01 sichtbar
100
AcDbLine
 10
43.87580794467067
 20
25.08900033478858
 30
0.0
 11
58.79580794468347
 21
25.08900033478858
 31
0.0
  0
LINE
  5
5B54
330
5B4E
100
AcDbEntity
  8
F_01 sichtbar
100
AcDbLine
 10
58.79580794468347
 20
26.62900033478218
 30
0.0
 11
43.87580794467067
 21
26.62900033478218
 31
0.0
  0
ARC
  5
5B55
330
5B4E
100
AcDbEntity
  8
F_01 sichtbar
100
AcDbCircle
 10
43.87580794467067
 20
27.62900033478218
 30
0.0
 40
2.540000000000208
100
AcDbArc
 50
348.6471612439746
 51
270.0
  0
ARC
  5
5B56
330
5B4E
100
AcDbEntity
  8
F_01 sichtbar
100
AcDbCircle
 10
43.87580794467067
 20
27.62900033478218
 30
0.0
 40
1.000000000000333
100
AcDbArc
 50
329.9999999999376
 51
270.0
  0
LINE
  5
5B57
330
5B4E
100
AcDbEntity
  8
F_01 sichtbar
100
AcDbLine
 10
44.74183334845292
 20
27.12900033478218
 30
0.0
 11
46.36610913128243
 21
27.12900033478218
 31
0.0
  0
ARC
  5
5B58
330
5B4E
100
AcDbEntity
  8
F_01 sichtbar
100
AcDbCircle
 10
58.79580794468347
 20
27.62900033478218
 30
0.0
 40
2.540000000000208
100
AcDbArc
 50
270.0
 51
191.3528387560254
  0
ARC
  5
5B59
330
5B4E
100
AcDbEntity
  8
F_01 sichtbar
100
AcDbCircle
 10
58.79580794468347
 20
27.62900033478218
 30
0.0
 40
1.000000000000333
100
AcDbArc
 50
270.0
 51
210.0000000000624
  0
LINE
  5
5B5A
330
5B4E
100
AcDbEntity
  8
F_01 sichtbar
100
AcDbLine
 10
57.92978254090122
 20
27.12900033478218
 30
0.0
 11
56.30550675808627
 21
27.12900033478218
 31
0.0
  0
LINE
  5
5B5B
330
5B4E
100
AcDbEntity
  8
F_02 unsichtbar
100
AcDbLine
 10
51.33881687288521
 20
26.62900033478218
 30
0.0
 11
51.33881687288521
 21
-137.3560237869387
 31
0.0
  0
LINE
  5
5B5C
330
5B4E
100
AcDbEntity
  8
F_01 sichtbar
100
AcDbLine
 10
48.33881687288521
 20
26.62900033478218
 30
0.0
 11
48.33881687288521
 21
29.12900033478218
 31
0.0
  0
LINE
  5
5B5D
330
5B4E
100
AcDbEntity
  8
F_01 sichtbar
100
AcDbLine
 10
48.33881687288521
 20
29.12900033478218
 30
0.0
 11
54.33881687288522
 21
29.12900033478218
 31
0.0
  0
LINE
  5
5B5E
330
5B4E
100
AcDbEntity
  8
F_01 sichtbar
100
AcDbLine
 10
54.33881687288522
 20
29.12900033478218
 30
0.0
 11
54.33881687288522
 21
26.62900033478218
 31
0.0
  0
LINE
  5
5B5F
330
5B4E
100
AcDbEntity
  8
F_01 sichtbar
100
AcDbLine
 10
53.33881687288521
 20
26.62900033478218
 30
0.0
 11
53.33881687288521
 21
29.12900033478218
 31
0.0
  0
LINE
  5
5B60
330
5B4E
100
AcDbEntity
  8
F_01 sichtbar
100
AcDbLine
 10
49.33881687289977
 20
26.62900033478218
 30
0.0
 11
49.33881687289977
 21
29.12900033478218
 31
0.0
  0
ENDBLK
  5
5B61
330
5B4E
100
AcDbEntity
  8
0
100
AcDbBlockEnd
  0
ENDSEC
  0
SECTION
  2
ENTITIES
  0
HATCH
  5
5C48
330
67
100
AcDbEntity
  8
F_20 Schr-Metall hell
370
    13
100
AcDbHatch
 10
0.0
 20
0.0
 30
0.0
210
0.0
220
0.0
230
1.0
  2
SOLID
 70
     1
 71
     0
 91
        2
 92
       17
 93
        4
 72
     1
 10
656.9006617108644
 20
356.2953042899244
 11
461.5582849841884
 21
356.2953042899098
 72
     1
 10
461.5582849841884
 20
356.2953042899098
 11
461.5582849841884
 21
346.2883253541986
 72
     1
 10
461.5582849841884
 20
346.2883253541986
 11
656.9006617108644
 21
336.2953042899244
 72
     1
 10
656.9006617108644
 20
336.2953042899244
 11
656.9006617108644
 21
356.2953042899244
 97
        0
 92
        1
 93
        8
 72
     1
 10
656.9006617108644
 20
336.2953042899244
 11
461.5582849841884
 21
346.2883253541986
 72
     1
 10
461.5582849841884
 20
346.2883253541986
 11
461.5582849841884
 21
336.2953042899099
 72
     1
 10
461.5582849841884
 20
336.2953042899099
 11
460.5582849841921
 21
336.2953042899244
 72
     1
 10
460.5582849841921
 20
336.2953042899244
 11
460.5582849841921
 21
371.2953042899244
 72
     1
 10
460.5582849841921
 20
371.2953042899244
 11
440.5582849841921
 21
371.2952696007264
 72
     1
 10
440.5582849841921
 20
371.2952696007264
 11
440.5582849841921
 21
331.2953042899244
 72
     1
 10
440.5582849841921
 20
331.2953042899244
 11
656.9006617108644
 21
331.2953042899244
 72
     1
 10
656.9006617108644
 20
331.2953042899244
 11
656.9006617108644
 21
336.2953042899244
 97
        0
 75
     0
 76
     1
 98
        2
 10
463.1723943652941
 20
351.1985345177563
 10
463.042624307087
 20
344.3242832689902
450
        0
451
        0
460
0.0
461
0.0
452
        1
462
1.0
453
        2
463
0.0
 63
     5
421
      255
463
1.0
 63
     7
421
 16777215
470
LINEAR
1001
ACAD
1010
0.0
1020
0.0
1030
0.0
  0
HATCH
  5
5C49
330
67
100
AcDbEntity
  8
F_15 Schr-Mauer hell
370
    13
100
AcDbHatch
 10
0.0
 20
0.0
 30
0.0
210
0.0
220
0.0
230
1.0
  2
SOLID
 70
     1
 71
     0
 91
        1
 92
        1
 93
        4
 72
     1
 10
256.1146645044537
 20
529.2952698109774
 11
256.1146645044519
 21
349.2952698109775
 72
     1
 10
256.1146645044519
 20
349.2952698109775
 11
420.5583170682875
 21
349.2952698109775
 72
     1
 10
420.5583170682875
 20
349.2952698109775
 11
420.5583170682875
 21
529.2952698109774
 72
     1
 10
420.5583170682875
 20
529.2952698109774
 11
256.1146645044537
 21
529.2952698109774
 97
        0
 75
     0
 76
     1
 98
        1
 10
206.9693226295349
 20
490.8837709710614
450
        0
451
        0
460
0.0
461
0.0
452
        1
462
1.0
453
        2
463
0.0
 63
     5
421
      255
463
1.0
 63
     7
421
 16777215
470
LINEAR
1001
ACAD
1010
0.0
1020
0.0
1030
0.0
  0
POLYLINE
  5
5C4A
330
67
100
AcDbEntity
  8
F_01 sichtbar
370
    13
100
AcDb2dPolyline
 66
     1
 10
0.0
 20
0.0
 30
0.0
  0
VERTEX
  5
5C4B
330
5C4A
100
AcDbEntity
  8
F_01 sichtbar
370
    13
100
AcDbVertex
100
AcDb2dVertex
 10
256.11466450445
 20
349.2952698109775
 30
0.0
  0
VERTEX
  5
5C4C
330
5C4A
100
AcDbEntity
  8
F_01 sichtbar
370
    13
100
AcDbVertex
100
AcDb2dVertex
 10
420.5583170682875
 20
349.2952698109775
 30
0.0
  0
SEQEND
  5
5C4D
330
5C4A
100
AcDbEntity
  8
F_01 sichtbar
370
    13
  0
POLYLINE
  5
5C4E
330
67
100
AcDbEntity
  8
F_01 sichtbar
370
    13
100
AcDb2dPolyline
 66
     1
 10
0.0
 20
0.0
 30
0.0
  0
VERTEX
  5
5C4F
330
5C4E
100
AcDbEntity
  8
F_01 sichtbar
370
    13
100
AcDbVertex
100
AcDb2dVertex
 10
256.11466450445
 20
529.2952698109774
 30
0.0
  0
VERTEX
  5
5C50
330
5C4E
100
AcDbEntity
  8
F_01 sichtbar
370
    13
100
AcDbVertex
100
AcDb2dVertex
 10
420.5583170682875
 20
529.2952698109774
 30
0.0
  0
SEQEND
  5
5C51
330
5C4E
100
AcDbEntity
  8
F_01 sichtbar
370
    13
  0
POLYLINE
  5
5C52
330
67
100
AcDbEntity
  8
F_01 sichtbar
370
    13
100
AcDb2dPolyline
 66
     1
 10
0.0
 20
0.0
 30
0.0
  0
VERTEX
  5
5C53
330
5C52
100
AcDbEntity
  8
F_01 sichtbar
370
    13
100
AcDbVertex
100
AcDb2dVertex
 10
256.11466450445
 20
566.2952698109775
 30
0.0
  0
VERTEX
  5
5C54
330
5C52
100
AcDbEntity
  8
F_01 sichtbar
370
    13
100
AcDbVertex
100
AcDb2dVertex
 10
420.558317068273
 20
566.2952698109775
 30
0.0
  0
SEQEND
  5
5C55
330
5C52
100
AcDbEntity
  8
F_01 sichtbar
370
    13
  0
POLYLINE
  5
5C56
330
67
100
AcDbEntity
  8
F_01 sichtbar
370
    13
100
AcDb2dPolyline
 66
     1
 10
0.0
 20
0.0
 30
0.0
  0
VERTEX
  5
5C57
330
5C56
100
AcDbEntity
  8
F_01 sichtbar
370
    13
100
AcDbVertex
100
AcDb2dVertex
 10
256.11466450445
 20
571.2952698109774
 30
0.0
  0
VERTEX
  5
5C58
330
5C56
100
AcDbEntity
  8
F_01 sichtbar
370
    13
100
AcDbVertex
100
AcDb2dVertex
 10
422.1808160674881
 20
571.2952698109774
 30
0.0
  0
SEQEND
  5
5C59
330
5C56
100
AcDbEntity
  8
F_01 sichtbar
370
    13
  0
POLYLINE
  5
5C5A
330
67
100
AcDbEntity
  8
F_01 sichtbar
370
    13
100
AcDb2dPolyline
 66
     1
 10
0.0
 20
0.0
 30
0.0
  0
VERTEX
  5
5C5B
330
5C5A
100
AcDbEntity
  8
F_01 sichtbar
370
    13
100
AcDbVertex
100
AcDb2dVertex
 10
256.11466450445
 20
691.2952698109775
 30
0.0
  0
VERTEX
  5
5C5C
330
5C5A
100
AcDbEntity
  8
F_01 sichtbar
370
    13
100
AcDbVertex
100
AcDb2dVertex
 10
423.0583170682876
 20
691.2952698109775
 30
0.0
  0
SEQEND
  5
5C5D
330
5C5A
100
AcDbEntity
  8
F_01 sichtbar
370
    13
  0
POLYLINE
  5
5C5E
330
67
100
AcDbEntity
  8
F_01 sichtbar
370
    13
100
AcDb2dPolyline
 66
     1
 10
0.0
 20
0.0
 30
0.0
  0
VERTEX
  5
5C5F
330
5C5E
100
AcDbEntity
  8
F_01 sichtbar
370
    13
100
AcDbVertex
100
AcDb2dVertex
 10
256.11466450445
 20
693.2952698109775
 30
0.0
  0
VERTEX
  5
5C60
330
5C5E
100
AcDbEntity
  8
F_01 sichtbar
370
    13
100
AcDbVertex
100
AcDb2dVertex
 10
369.5583170682876
 20
693.2952698109775
 30
0.0
  0
SEQEND
  5
5C61
330
5C5E
100
AcDbEntity
  8
F_01 sichtbar
370
    13
  0
POLYLINE
  5
5C62
330
67
100
AcDbEntity
  8
F_01 sichtbar
370
    13
100
AcDb2dPolyline
 66
     1
 10
0.0
 20
0.0
 30
0.0
  0
VERTEX
  5
5C63
330
5C62
100
AcDbEntity
  8
F_01 sichtbar
370
    13
100
AcDbVertex
100
AcDb2dVertex
 10
420.5583170682875
 20
566.2952698109775
 30
0.0
  0
VERTEX
  5
5C64
330
5C62
100
AcDbEntity
  8
F_01 sichtbar
370
    13
100
AcDbVertex
100
AcDb2dVertex
 10
420.5583170682875
 20
349.2952698109775
 30
0.0
  0
SEQEND
  5
5C65
330
5C62
100
AcDbEntity
  8
F_01 sichtbar
370
    13
  0
HATCH
  5
5C66
330
67
100
AcDbEntity
  8
F_0 sichtbar
370
    13
100
AcDbHatch
 10
0.0
 20
0.0
 30
0.0
210
0.0
220
0.0
230
1.0
  2
SOLID
 70
     1
 71
     0
 91
        1
 92
        1
 93
        4
 72
     1
 10
425.5583170682875
 20
834.0498683998621
 11
423.0583170682876
 21
833.3091023404513
 72
     1
 10
423.0583170682876
 20
833.3091023404513
 11
423.0583170682876
 21
798.0235112691744
 72
     1
 10
423.0583170682876
 20
798.0235112691744
 11
425.5583170682875
 21
798.0235112691744
 72
     1
 10
425.5583170682875
 20
798.0235112691744
 11
425.5583170682875
 21
834.0498683998621
 97
        0
 75
     0
 76
     1
 98
        1
 10
424.3110522139104
 20
840.6945805344886
450
        0
451
        0
460
0.0
461
0.0
452
        1
462
1.0
453
        2
463
0.0
 63
     5
421
      255
463
1.0
 63
     7
421
 16777215
470
LINEAR
1001
ACAD
1010
0.0
1020
0.0
1030
0.0
  0
HATCH
  5
5C67
330
67
100
AcDbEntity
  8
F_0 sichtbar
370
    13
100
AcDbHatch
 10
0.0
 20
0.0
 30
0.0
210
0.0
220
0.0
230
1.0
  2
SOLID
 70
     1
 71
     0
 91
        1
 92
        7
 72
     0
 73
     1
 93
        4
 10
403.4978577481306
 20
569.7952698109775
 10
353.4978577481306
 20
569.7952698109775
 10
353.4978577481306
 20
567.2952698109774
 10
403.4978577481306
 20
567.2952698109774
 97
        0
 75
     0
 76
     1
 47
0.0847078829277023
 98
        1
 10
381.3277094318546
 20
568.4948611082263
450
        0
451
        0
460
0.0
461
0.0
452
        1
462
1.0
453
        2
463
0.0
 63
     5
421
      255
463
1.0
 63
     7
421
 16777215
470
LINEAR
1001
ACAD
1010
0.0
1020
0.0
1030
0.0
  0
HATCH
  5
5C68
330
67
100
AcDbEntity
  8
F_0 sichtbar
370
    13
100
AcDbHatch
 10
0.0
 20
0.0
 30
0.0
210
0.0
220
0.0
230
1.0
  2
SOLID
 70
     1
 71
     0
 91
        3
 92
        7
 72
     0
 73
     1
 93
        4
 10
425.5583170682875
 20
639.0235112689743
 10
423.0583170682876
 20
639.0235112689743
 10
423.0583170682876
 20
589.0235112689743
 10
425.5583170682875
 20
589.0235112689743
 97
        0
 92
        7
 72
     0
 73
     1
 93
        4
 10
425.5583170682875
 20
739.0235112689743
 10
423.0583170682876
 20
739.0235112689743
 10
423.0583170682876
 20
689.0235112689743
 10
425.5583170682875
 20
689.0235112689743
 97
        0
 92
        1
 93
        4
 72
     1
 10
256.1146645044482
 20
569.7952698109775
 11
256.1146645044482
 21
567.2952698109774
 72
     1
 10
256.1146645044482
 20
567.2952698109774
 11
303.4978577481306
 21
567.2952698109774
 72
     1
 10
303.4978577481306
 20
567.2952698109774
 11
303.4978577481306
 21
569.7952698109775
 72
     1
 10
303.4978577481306
 20
569.7952698109775
 11
256.1146645044482
 21
569.7952698109775
 97
        0
 75
     0
 76
     1
 47
0.0973900822863746
 98
        6
 10
92.80175852487081
 20
568.161655515757
 10
283.6490204557703
 20
568.7355245149856
 10
192.8631244018252
 20
567.9774814769088
 10
424.445063768544
 20
598.7604564498515
 10
424.6218478357259
 20
694.9202076022093
 10
424.453048869349
 20
795.6513560625944
450
        0
451
        0
460
0.0
461
0.0
452
        1
462
1.0
453
        2
463
0.0
 63
     5
421
      255
463
1.0
 63
     7
421
 16777215
470
LINEAR
1001
ACAD
1010
0.0
1020
0.0
1030
0.0
  0
POLYLINE
  5
5C69
330
67
100
AcDbEntity
  8
F_01 sichtbar
370
    13
100
AcDb2dPolyline
 66
     1
 10
0.0
 20
0.0
 30
0.0
  0
VERTEX
  5
5C6A
330
5C69
100
AcDbEntity
  8
F_01 sichtbar
370
    13
100
AcDbVertex
100
AcDb2dVertex
 10
375.5583170683021
 20
819.2345472116622
 30
0.0
  0
VERTEX
  5
5C6B
330
5C69
100
AcDbEntity
  8
F_01 sichtbar
370
    13
100
AcDbVertex
100
AcDb2dVertex
 10
375.5583170683021
 20
691.2952698109775
 30
0.0
  0
SEQEND
  5
5C6C
330
5C69
100
AcDbEntity
  8
F_01 sichtbar
370
    13
  0
POLYLINE
  5
5C6D
330
67
100
AcDbEntity
  8
F_01 sichtbar
370
    13
100
AcDb2dPolyline
 66
     1
 10
0.0
 20
0.0
 30
0.0
  0
VERTEX
  5
5C6E
330
5C6D
100
AcDbEntity
  8
F_01 sichtbar
370
    13
100
AcDbVertex
100
AcDb2dVertex
 10
326.447856840874
 20
693.2952698109775
 30
0.0
  0
VERTEX
  5
5C6F
330
5C6D
100
AcDbEntity
  8
F_01 sichtbar
370
    13
100
AcDbVertex
100
AcDb2dVertex
 10
358.447856840874
 20
693.2952698109775
 30
0.0
  0
SEQEND
  5
5C70
330
5C6D
100
AcDbEntity
  8
F_01 sichtbar
370
    13
  0
POLYLINE
  5
5C71
330
67
100
AcDbEntity
  8
F_01 sichtbar
370
    13
100
AcDb2dPolyline
 66
     1
 10
0.0
 20
0.0
 30
0.0
  0
VERTEX
  5
5C72
330
5C71
100
AcDbEntity
  8
F_01 sichtbar
370
    13
100
AcDbVertex
100
AcDb2dVertex
 10
369.5583170682876
 20
693.2952698109775
 30
0.0
  0
VERTEX
  5
5C73
330
5C71
100
AcDbEntity
  8
F_01 sichtbar
370
    13
100
AcDbVertex
100
AcDb2dVertex
 10
369.5583170683022
 20
691.2952698109775
 30
0.0
  0
SEQEND
  5
5C74
330
5C71
100
AcDbEntity
  8
F_01 sichtbar
370
    13
  0
LINE
  5
5C75
330
67
100
AcDbEntity
  8
F_01 sichtbar
370
    13
100
AcDbLine
 10
256.11466450445
 20
713.2952698109775
 30
0.0
 11
348.5583170683022
 21
713.2952698109775
 31
0.0
  0
LINE
  5
5C76
330
67
100
AcDbEntity
  8
F_01 sichtbar
370
    13
100
AcDbLine
 10
256.11466450445
 20
758.2952698109784
 30
0.0
 11
348.5583170683022
 21
758.2952698109775
 31
0.0
  0
LINE
  5
5C77
330
67
100
AcDbEntity
  8
F_01 sichtbar
370
    13
100
AcDbLine
 10
348.5583170683022
 20
713.2952698109775
 30
0.0
 11
348.5583170682876
 21
758.2952698109629
 31
0.0
  0
INSERT
  5
5C78
330
67
100
AcDbEntity
  8
F_30 Bemassung T
370
    13
100
AcDbBlockReference
  2
A$C512D72A2
 10
301.7181261284495
 20
668.7090752862904
 30
0.0
  0
POLYLINE
  5
5C79
330
67
100
AcDbEntity
  8
F_01 sichtbar
370
    13
100
AcDb2dPolyline
 66
     1
 10
0.0
 20
0.0
 30
0.0
  0
VERTEX
  5
5C7A
330
5C79
100
AcDbEntity
  8
F_01 sichtbar
370
    13
100
AcDbVertex
100
AcDb2dVertex
 10
368.5583170682294
 20
817.160402245293
 30
0.0
  0
VERTEX
  5
5C7B
330
5C79
100
AcDbEntity
  8
F_01 sichtbar
370
    13
100
AcDbVertex
100
AcDb2dVertex
 10
368.5583170681712
 20
703.8752010783983
 30
0.0
  0
SEQEND
  5
5C7C
330
5C79
100
AcDbEntity
  8
F_01 sichtbar
370
    13
  0
POLYLINE
  5
5C7D
330
67
100
AcDbEntity
  8
F_01 sichtbar
370
    13
100
AcDb2dPolyline
 66
     1
 10
0.0
 20
0.0
 30
0.0
  0
VERTEX
  5
5C7E
330
5C7D
100
AcDbEntity
  8
F_01 sichtbar
370
    13
100
AcDbVertex
100
AcDb2dVertex
 10
368.5583170683021
 20
703.8752238175121
 30
0.0
 42
-0.4142135623730951
  0
VERTEX
  5
5C7F
330
5C7D
100
AcDbEntity
  8
F_01 sichtbar
370
    13
100
AcDbVertex
100
AcDb2dVertex
 10
366.5583170683021
 20
701.875223817512
 30
0.0
  0
VERTEX
  5
5C80
330
5C7D
100
AcDbEntity
  8
F_01 sichtbar
370
    13
100
AcDbVertex
100
AcDb2dVertex
 10
345.7717753088145
 20
701.875223817512
 30
0.0
 42
0.1539147210588876
  0
VERTEX
  5
5C81
330
5C7D
100
AcDbEntity
  8
F_01 sichtbar
370
    13
100
AcDbVertex
100
AcDb2dVertex
 10
338.8888580726416
 20
699.7050483490065
 30
0.0
  0
VERTEX
  5
5C82
330
5C7D
100
AcDbEntity
  8
F_01 sichtbar
370
    13
100
AcDbVertex
100
AcDb2dVertex
 10
335.8878921214564
 20
697.6037493680824
 30
0.0
 42
-0.1539147210588876
  0
VERTEX
  5
5C83
330
5C7D
100
AcDbEntity
  8
F_01 sichtbar
370
    13
100
AcDbVertex
100
AcDb2dVertex
 10
330.1521277579523
 20
695.7952698109775
 30
0.0
  0
VERTEX
  5
5C84
330
5C7D
100
AcDbEntity
  8
F_01 sichtbar
370
    13
100
AcDbVertex
100
AcDb2dVertex
 10
287.3640239650486
 20
695.7952698109775
 30
0.0
  0
VERTEX
  5
5C85
330
5C7D
100
AcDbEntity
  8
F_01 sichtbar
370
    13
100
AcDbVertex
100
AcDb2dVertex
 10
287.3640239650486
 20
693.7952698109775
 30
0.0
  0
VERTEX
  5
5C86
330
5C7D
100
AcDbEntity
  8
F_01 sichtbar
370
    13
100
AcDbVertex
100
AcDb2dVertex
 10
330.1521277579523
 20
693.7952698109775
 30
0.0
 42
0.1539147210588876
  0
VERTEX
  5
5C87
330
5C7D
100
AcDbEntity
  8
F_01 sichtbar
370
    13
100
AcDbVertex
100
AcDb2dVertex
 10
337.0350449941688
 20
695.965445279512
 30
0.0
  0
VERTEX
  5
5C88
330
5C7D
100
AcDbEntity
  8
F_01 sichtbar
370
    13
100
AcDbVertex
100
AcDb2dVertex
 10
340.0360109453395
 20
698.0667442604217
 30
0.0
 42
-0.1539147210588876
  0
VERTEX
  5
5C89
330
5C7D
100
AcDbEntity
  8
F_01 sichtbar
370
    13
100
AcDbVertex
100
AcDb2dVertex
 10
345.7717753088145
 20
699.8752238175121
 30
0.0
  0
VERTEX
  5
5C8A
330
5C7D
100
AcDbEntity
  8
F_01 sichtbar
370
    13
100
AcDbVertex
100
AcDb2dVertex
 10
366.5583170683021
 20
699.8752238175121
 30
0.0
 42
0.4142135623730951
  0
VERTEX
  5
5C8B
330
5C7D
100
AcDbEntity
  8
F_01 sichtbar
370
    13
100
AcDbVertex
100
AcDb2dVertex
 10
370.5583170683021
 20
703.8752238175121
 30
0.0
  0
VERTEX
  5
5C8C
330
5C7D
100
AcDbEntity
  8
F_01 sichtbar
370
    13
100
AcDbVertex
100
AcDb2dVertex
 10
370.5583170682948
 20
817.7530150928404
 30
0.0
  0
SEQEND
  5
5C8D
330
5C7D
100
AcDbEntity
  8
F_01 sichtbar
370
    13
  0
POLYLINE
  5
5C8E
330
67
100
AcDbEntity
  8
F_0 sichtbar
370
    13
100
AcDb2dPolyline
 66
     1
 10
0.0
 20
0.0
 30
0.0
  0
VERTEX
  5
5C8F
330
5C8E
100
AcDbEntity
  8
F_0 sichtbar
370
    13
100
AcDbVertex
100
AcDb2dVertex
 10
303.4978577481306
 20
569.7952698109775
 30
0.0
  0
VERTEX
  5
5C90
330
5C8E
100
AcDbEntity
  8
F_0 sichtbar
370
    13
100
AcDbVertex
100
AcDb2dVertex
 10
303.4978577481306
 20
567.2952698109774
 30
0.0
  0
SEQEND
  5
5C91
330
5C8E
100
AcDbEntity
  8
F_0 sichtbar
370
    13
  0
POLYLINE
  5
5C92
330
67
100
AcDbEntity
  8
F_0 sichtbar
370
    13
100
AcDb2dPolyline
 66
     1
 10
0.0
 20
0.0
 30
0.0
  0
VERTEX
  5
5C93
330
5C92
100
AcDbEntity
  8
F_0 sichtbar
370
    13
100
AcDbVertex
100
AcDb2dVertex
 10
353.4978577481306
 20
569.7952698109775
 30
0.0
  0
VERTEX
  5
5C94
330
5C92
100
AcDbEntity
  8
F_0 sichtbar
370
    13
100
AcDbVertex
100
AcDb2dVertex
 10
353.4978577481306
 20
567.2952698109774
 30
0.0
  0
SEQEND
  5
5C95
330
5C92
100
AcDbEntity
  8
F_0 sichtbar
370
    13
  0
POLYLINE
  5
5C96
330
67
100
AcDbEntity
  8
F_0 sichtbar
370
    13
100
AcDb2dPolyline
 66
     1
 10
0.0
 20
0.0
 30
0.0
  0
VERTEX
  5
5C97
330
5C96
100
AcDbEntity
  8
F_0 sichtbar
370
    13
100
AcDbVertex
100
AcDb2dVertex
 10
403.4978577481306
 20
569.7952698109775
 30
0.0
  0
VERTEX
  5
5C98
330
5C96
100
AcDbEntity
  8
F_0 sichtbar
370
    13
100
AcDbVertex
100
AcDb2dVertex
 10
403.4978577481306
 20
567.2952698109774
 30
0.0
  0
SEQEND
  5
5C99
330
5C96
100
AcDbEntity
  8
F_0 sichtbar
370
    13
  0
POLYLINE
  5
5C9A
330
67
100
AcDbEntity
  8
F_0 sichtbar
370
    13
100
AcDb2dPolyline
 66
     1
 10
0.0
 20
0.0
 30
0.0
  0
VERTEX
  5
5C9B
330
5C9A
100
AcDbEntity
  8
F_0 sichtbar
370
    13
100
AcDbVertex
100
AcDb2dVertex
 10
425.5583170682875
 20
589.0235112689743
 30
0.0
  0
VERTEX
  5
5C9C
330
5C9A
100
AcDbEntity
  8
F_0 sichtbar
370
    13
100
AcDbVertex
100
AcDb2dVertex
 10
423.0583170682876
 20
589.0235112689743
 30
0.0
  0
SEQEND
  5
5C9D
330
5C9A
100
AcDbEntity
  8
F_0 sichtbar
370
    13
  0
POLYLINE
  5
5C9E
330
67
100
AcDbEntity
  8
F_0 sichtbar
370
    13
100
AcDb2dPolyline
 66
     1
 10
0.0
 20
0.0
 30
0.0
  0
VERTEX
  5
5C9F
330
5C9E
100
AcDbEntity
  8
F_0 sichtbar
370
    13
100
AcDbVertex
100
AcDb2dVertex
 10
425.5583170682875
 20
639.0235112689743
 30
0.0
  0
VERTEX
  5
5CA0
330
5C9E
100
AcDbEntity
  8
F_0 sichtbar
370
    13
100
AcDbVertex
100
AcDb2dVertex
 10
423.0583170682876
 20
639.0235112689743
 30
0.0
  0
SEQEND
  5
5CA1
330
5C9E
100
AcDbEntity
  8
F_0 sichtbar
370
    13
  0
POLYLINE
  5
5CA2
330
67
100
AcDbEntity
  8
F_0 sichtbar
370
    13
100
AcDb2dPolyline
 66
     1
 10
0.0
 20
0.0
 30
0.0
  0
VERTEX
  5
5CA3
330
5CA2
100
AcDbEntity
  8
F_0 sichtbar
370
    13
100
AcDbVertex
100
AcDb2dVertex
 10
425.5583170682875
 20
689.0235112689743
 30
0.0
  0
VERTEX
  5
5CA4
330
5CA2
100
AcDbEntity
  8
F_0 sichtbar
370
    13
100
AcDbVertex
100
AcDb2dVertex
 10
423.0583170682876
 20
689.0235112689743
 30
0.0
  0
SEQEND
  5
5CA5
330
5CA2
100
AcDbEntity
  8
F_0 sichtbar
370
    13
  0
POLYLINE
  5
5CA6
330
67
100
AcDbEntity
  8
F_0 sichtbar
370
    13
100
AcDb2dPolyline
 66
     1
 10
0.0
 20
0.0
 30
0.0
  0
VERTEX
  5
5CA7
330
5CA6
100
AcDbEntity
  8
F_0 sichtbar
370
    13
100
AcDbVertex
100
AcDb2dVertex
 10
425.5583170682875
 20
739.0235112689743
 30
0.0
  0
VERTEX
  5
5CA8
330
5CA6
100
AcDbEntity
  8
F_0 sichtbar
370
    13
100
AcDbVertex
100
AcDb2dVertex
 10
423.0583170682876
 20
739.0235112689743
 30
0.0
  0
SEQEND
  5
5CA9
330
5CA6
100
AcDbEntity
  8
F_0 sichtbar
370
    13
  0
POLYLINE
  5
5CAA
330
67
100
AcDbEntity
  8
F_0 sichtbar
370
    13
100
AcDb2dPolyline
 66
     1
 10
0.0
 20
0.0
 30
0.0
  0
VERTEX
  5
5CAB
330
5CAA
100
AcDbEntity
  8
F_0 sichtbar
370
    13
100
AcDbVertex
100
AcDb2dVertex
 10
425.5583170682875
 20
789.0235112689743
 30
0.0
  0
VERTEX
  5
5CAC
330
5CAA
100
AcDbEntity
  8
F_0 sichtbar
370
    13
100
AcDbVertex
100
AcDb2dVertex
 10
423.0583170682876
 20
789.0235112689743
 30
0.0
  0
SEQEND
  5
5CAD
330
5CAA
100
AcDbEntity
  8
F_0 sichtbar
370
    13
  0
POLYLINE
  5
5CAE
330
67
100
AcDbEntity
  8
F_06 Wangen
370
    13
100
AcDb2dPolyline
 66
     1
 10
0.0
 20
0.0
 30
0.0
  0
VERTEX
  5
5CAF
330
5CAE
100
AcDbEntity
  8
F_06 Wangen
370
    13
100
AcDbVertex
100
AcDb2dVertex
 10
354.5585790963378
 20
813.0121899532078
 30
0.0
  0
VERTEX
  5
5CB0
330
5CAE
100
AcDbEntity
  8
F_06 Wangen
370
    13
100
AcDbVertex
100
AcDb2dVertex
 10
354.5585790963451
 20
726.2952698109775
 30
0.0
  0
VERTEX
  5
5CB1
330
5CAE
100
AcDbEntity
  8
F_06 Wangen
370
    13
100
AcDbVertex
100
AcDb2dVertex
 10
355.558579096345
 20
726.2952698109775
 30
0.0
  0
VERTEX
  5
5CB2
330
5CAE
100
AcDbEntity
  8
F_06 Wangen
370
    13
100
AcDbVertex
100
AcDb2dVertex
 10
355.558579096345
 20
813.3084963769743
 30
0.0
  0
SEQEND
  5
5CB3
330
5CAE
100
AcDbEntity
  8
F_06 Wangen
370
    13
  0
POLYLINE
  5
5CB4
330
67
100
AcDbEntity
  8
F_01 sichtbar
370
    13
100
AcDb2dPolyline
 66
     1
 10
0.0
 20
0.0
 30
0.0
  0
VERTEX
  5
5CB5
330
5CB4
100
AcDbEntity
  8
F_01 sichtbar
370
    13
100
AcDbVertex
100
AcDb2dVertex
 10
425.5583170682875
 20
834.0498683998603
 30
0.0
  0
VERTEX
  5
5CB6
330
5CB4
100
AcDbEntity
  8
F_01 sichtbar
370
    13
100
AcDbVertex
100
AcDb2dVertex
 10
425.5583170682875
 20
575.2952698109774
 30
0.0
 42
-0.487470807496992
  0
VERTEX
  5
5CB7
330
5CB4
100
AcDbEntity
  8
F_01 sichtbar
370
    13
100
AcDbVertex
100
AcDb2dVertex
 10
417.5583170682875
 20
567.2952698109774
 30
0.0
  0
VERTEX
  5
5CB8
330
5CB4
100
AcDbEntity
  8
F_01 sichtbar
370
    13
100
AcDbVertex
100
AcDb2dVertex
 10
256.11466450445
 20
567.2952698109774
 30
0.0
  0
SEQEND
  5
5CB9
330
5CB4
100
AcDbEntity
  8
F_01 sichtbar
370
    13
  0
POLYLINE
  5
5CBA
330
67
100
AcDbEntity
  8
F_01 sichtbar
370
    13
100
AcDb2dPolyline
 66
     1
 10
0.0
 20
0.0
 30
0.0
  0
VERTEX
  5
5CBB
330
5CBA
100
AcDbEntity
  8
F_01 sichtbar
370
    13
100
AcDbVertex
100
AcDb2dVertex
 10
256.11466450445
 20
569.7952698109775
 30
0.0
  0
VERTEX
  5
5CBC
330
5CBA
100
AcDbEntity
  8
F_01 sichtbar
370
    13
100
AcDbVertex
100
AcDb2dVertex
 10
419.0583170682876
 20
569.7952698109775
 30
0.0
 42
0.4142135623730951
  0
VERTEX
  5
5CBD
330
5CBA
100
AcDbEntity
  8
F_01 sichtbar
370
    13
100
AcDbVertex
100
AcDb2dVertex
 10
423.0583170682876
 20
573.7952698109775
 30
0.0
  0
VERTEX
  5
5CBE
330
5CBA
100
AcDbEntity
  8
F_01 sichtbar
370
    13
100
AcDbVertex
100
AcDb2dVertex
 10
423.0583170682876
 20
833.3091023404504
 30
0.0
  0
SEQEND
  5
5CBF
330
5CBA
100
AcDbEntity
  8
F_01 sichtbar
370
    13
  0
HATCH
  5
5CC0
330
67
100
AcDbEntity
  8
F_01 sichtbar
370
    13
100
AcDbHatch
 10
0.0
 20
0.0
 30
0.0
210
0.0
220
0.0
230
1.0
  2
BATT_INSULATION
 70
     0
 71
     0
 91
        1
 92
        1
 93
        4
 72
     1
 10
256.11466450445
 20
691.2952698109775
 11
256.11466450445
 21
571.2952698109766
 72
     1
 10
256.11466450445
 20
571.2952698109766
 11
422.1808160674845
 21
571.2952698109774
 72
     1
 10
422.1808160674845
 20
571.2952698109774
 11
423.0583170682876
 21
691.2952698109775
 72
     1
 10
423.0583170682876
 20
691.2952698109775
 11
256.11466450445
 21
691.2952698109775
 97
        0
 75
     0
 76
     2
 52
180.0
 41
118.9901048226843
 77
     0
 78
   528
 53
0.000000000000007
 43
42949.57371598568
 44
5257.370740257954
 45
39.75590291241188
 46
-133.8638679255199
 79
     2
 49
0.0
 49
-39.75590291241187
 53
345.9236
 43
42929.69570503441
 44
5242.496977155113
 45
39.75585659359874
 46
0.000014687406605
 79
     2
 49
9.670087838729861
 49
-3843.073153322027
 53
345.9236
 43
42929.69570503441
 44
5108.633109229578
 45
39.75585659359874
 46
0.000014687406605
 79
     2
 49
9.670087838729861
 49
-3843.073153322027
 53
345.9236
 43
42929.69570503441
 44
4974.769241304072
 45
39.75585659359874
 46
0.000014687406605
 79
     2
 49
9.670087838729861
 49
-3843.073153322027
 53
345.9236
 43
42929.69570503441
 44
4840.905373378538
 45
39.75585659359874
 46
0.000014687406605
 79
     2
 49
9.670087838729861
 49
-3843.073153322027
 53
345.9236
 43
42929.69570503441
 44
4707.041505453029
 45
39.75585659359874
 46
0.000014687406605
 79
     2
 49
9.670087838729861
 49
-3843.073153322027
 53
345.9236
 43
42929.69570503441
 44
4573.177637527523
 45
39.75585659359874
 46
0.000014687406605
 79
     2
 49
9.670087838729861
 49
-3843.073153322027
 53
345.9236
 43
42929.69570503441
 44
4439.313769601988
 45
39.75585659359874
 46
0.000014687406605
 79
     2
 49
9.670087838729861
 49
-3843.073153322027
 53
334.9544
 43
42934.32644294378
 44
5130.630809908169
 45
39.75589259645271
 46
-0.0000425502174256
 79
     2
 49
16.82972244591056
 49
-10734.28048182553
 53
334.9544
 43
42934.32644294378
 44
4996.766941982635
 45
39.75589259645271
 46
-0.0000425502174256
 79
     2
 49
16.82972244591056
 49
-10734.28048182553
 53
334.9544
 43
42934.32644294378
 44
4862.903074057125
 45
39.75589259645271
 46
-0.0000425502174256
 79
     2
 49
16.82972244591056
 49
-10734.28048182553
 53
334.9544
 43
42934.32644294378
 44
4729.039206131591
 45
39.75589259645271
 46
-0.0000425502174256
 79
     2
 49
16.82972244591056
 49
-10734.28048182553
 53
334.9544
 43
42934.32644294378
 44
4595.175338206086
 45
39.75589259645271
 46
-0.0000425502174256
 79
     2
 49
16.82972244591056
 49
-10734.28048182553
 53
334.9544
 43
42934.32644294378
 44
4461.311470280551
 45
39.75589259645271
 46
-0.0000425502174256
 79
     2
 49
16.82972244591056
 49
-10734.28048182553
 53
334.9544
 43
42934.32644294378
 44
4327.447602355046
 45
39.75589259645271
 46
-0.0000425502174256
 79
     2
 49
16.82972244591056
 49
-10734.28048182553
 53
334.9544
 43
42934.32644294378
 44
4193.583734429512
 45
39.75589259645271
 46
-0.0000425502174256
 79
     2
 49
16.82972244591056
 49
-10734.28048182553
 53
334.9544
 43
42934.32644294378
 44
4059.723436207155
 45
39.75589259645271
 46
-0.0000425502174256
 79
     2
 49
16.82972244591056
 49
-10734.28048182553
 53
334.9544
 43
42934.32644294378
 44
3925.859568281621
 45
39.75589259645271
 46
-0.0000425502174256
 79
     2
 49
16.82972244591056
 49
-10734.28048182553
 53
334.9544
 43
42934.32644294378
 44
3791.99570035609
 45
39.75589259645271
 46
-0.0000425502174256
 79
     2
 49
16.82972244591056
 49
-10734.28048182553
 53
334.9544
 43
42934.32644294378
 44
3658.13183243058
 45
39.75589259645271
 46
-0.0000425502174256
 79
     2
 49
16.82972244591056
 49
-10734.28048182553
 53
334.9544
 43
42934.32644294378
 44
3524.267964505071
 45
39.75589259645271
 46
-0.0000425502174256
 79
     2
 49
16.82972244591056
 49
-10734.28048182553
 53
334.9544
 43
42934.32644294378
 44
3390.404096579566
 45
39.75589259645271
 46
-0.0000425502174256
 79
     2
 49
16.82972244591056
 49
-10734.28048182553
 53
334.9544
 43
42934.32644294378
 44
3256.540228654031
 45
39.75589259645271
 46
-0.0000425502174256
 79
     2
 49
16.82972244591056
 49
-10734.28048182553
 53
334.9544
 43
42934.32644294378
 44
3122.676360728497
 45
39.75589259645271
 46
-0.0000425502174256
 79
     2
 49
16.82972244591056
 49
-10734.28048182553
 53
334.9544
 43
42934.32644294378
 44
2988.812492802991
 45
39.75589259645271
 46
-0.0000425502174256
 79
     2
 49
16.82972244591056
 49
-10734.28048182553
 53
334.9544
 43
42934.32644294378
 44
2854.948624877486
 45
39.75589259645271
 46
-0.0000425502174256
 79
     2
 49
16.82972244591056
 49
-10734.28048182553
 53
334.9544
 43
42934.32644294378
 44
2721.084756951951
 45
39.75589259645271
 46
-0.0000425502174256
 79
     2
 49
16.82972244591056
 49
-10734.28048182553
 53
334.9544
 43
42934.32644294378
 44
2587.220889026417
 45
39.75589259645271
 46
-0.0000425502174256
 79
     2
 49
16.82972244591056
 49
-10734.28048182553
 53
334.9544
 43
42934.32644294378
 44
2453.357021100908
 45
39.75589259645271
 46
-0.0000425502174256
 79
     2
 49
16.82972244591056
 49
-10734.28048182553
 53
334.9544
 43
42934.32644294378
 44
2319.493153175402
 45
39.75589259645271
 46
-0.0000425502174256
 79
     2
 49
16.82972244591056
 49
-10734.28048182553
 53
334.9544
 43
42934.32644294378
 44
2185.629285249867
 45
39.75589259645271
 46
-0.0000425502174256
 79
     2
 49
16.82972244591056
 49
-10734.28048182553
 53
334.9544
 43
42934.32644294378
 44
2051.765417324332
 45
39.75589259645271
 46
-0.0000425502174256
 79
     2
 49
16.82972244591056
 49
-10734.28048182553
 53
334.9544
 43
42934.32644294378
 44
1917.901549398827
 45
39.75589259645271
 46
-0.0000425502174256
 79
     2
 49
16.82972244591056
 49
-10734.28048182553
 53
334.9544
 43
42934.32644294378
 44
1784.037681473318
 45
39.75589259645271
 46
-0.0000425502174256
 79
     2
 49
16.82972244591056
 49
-10734.28048182553
 53
334.9544
 43
42934.32644294378
 44
1650.173813547783
 45
39.75589259645271
 46
-0.0000425502174256
 79
     2
 49
16.82972244591056
 49
-10734.28048182553
 53
334.9544
 43
42934.32644294378
 44
1516.309945622278
 45
39.75589259645271
 46
-0.0000425502174256
 79
     2
 49
16.82972244591056
 49
-10734.28048182553
 53
334.9544
 43
42934.32644294378
 44
1382.446077696743
 45
39.75589259645271
 46
-0.0000425502174256
 79
     2
 49
16.82972244591056
 49
-10734.28048182553
 53
334.9544
 43
42934.32644294378
 44
1248.582209771209
 45
39.75589259645271
 46
-0.0000425502174256
 79
     2
 49
16.82972244591056
 49
-10734.28048182553
 53
334.9544
 43
42934.32644294378
 44
1114.718341845703
 45
39.75589259645271
 46
-0.0000425502174256
 79
     2
 49
16.82972244591056
 49
-10734.28048182553
 53
334.9544
 43
42934.32644294378
 44
980.8544739201943
 45
39.75589259645271
 46
-0.0000425502174256
 79
     2
 49
16.82972244591056
 49
-10734.28048182553
 53
334.9544
 43
42934.32644294378
 44
846.9906059946596
 45
39.75589259645271
 46
-0.0000425502174256
 79
     2
 49
16.82972244591056
 49
-10734.28048182553
 53
334.9544
 43
42934.32644294378
 44
713.1267380691542
 45
39.75589259645271
 46
-0.0000425502174256
 79
     2
 49
16.82972244591056
 49
-10734.28048182553
 53
307.5647
 43
42939.07545701733
 44
5240.144780762982
 45
39.75587516415277
 46
-0.0000089774092899
 79
     2
 49
16.34697959064513
 49
-6569.897158549863
 53
307.5647
 43
42939.07545701733
 44
5106.280674857231
 45
39.75587516415277
 46
-0.0000089774092899
 79
     2
 49
16.34697959064513
 49
-6569.897158549863
 53
307.5647
 43
42939.07545701733
 44
4972.416806931722
 45
39.75587516415277
 46
-0.0000089774092899
 79
     2
 49
16.34697959064513
 49
-6569.897158549863
 53
307.5647
 43
42939.07545701733
 44
4838.552939006216
 45
39.75587516415277
 46
-0.0000089774092899
 79
     2
 49
16.34697959064513
 49
-6569.897158549863
 53
307.5647
 43
42939.07545701733
 44
4704.689071080681
 45
39.75587516415277
 46
-0.0000089774092899
 79
     2
 49
16.34697959064513
 49
-6569.897158549863
 53
307.5647
 43
42939.07545701733
 44
4570.82520315515
 45
39.75587516415277
 46
-0.0000089774092899
 79
     2
 49
16.34697959064513
 49
-6569.897158549863
 53
307.5647
 43
42939.07545701733
 44
4436.961335229641
 45
39.75587516415277
 46
-0.0000089774092899
 79
     2
 49
16.34697959064513
 49
-6569.897158549863
 53
307.5647
 43
42939.07545701733
 44
4303.097467304132
 45
39.75587516415277
 46
-0.0000089774092899
 79
     2
 49
16.34697959064513
 49
-6569.897158549863
 53
307.5647
 43
42939.07545701733
 44
4169.233599378597
 45
39.75587516415277
 46
-0.0000089774092899
 79
     2
 49
16.34697959064513
 49
-6569.897158549863
 53
307.5647
 43
42939.07545701733
 44
4035.366161749939
 45
39.75587516415277
 46
-0.0000089774092899
 79
     2
 49
16.34697959064513
 49
-6569.897158549863
 53
307.5647
 43
42939.07545701733
 44
3901.50229382443
 45
39.75587516415277
 46
-0.0000089774092899
 79
     2
 49
16.34697959064513
 49
-6569.897158549863
 53
307.5647
 43
42939.07545701733
 44
3767.6384258989
 45
39.75587516415277
 46
-0.0000089774092899
 79
     2
 49
16.34697959064513
 49
-6569.897158549863
 53
307.5647
 43
42939.07545701733
 44
3633.774557973365
 45
39.75587516415277
 46
-0.0000089774092899
 79
     2
 49
16.34697959064513
 49
-6569.897158549863
 53
307.5647
 43
42939.07545701733
 44
3499.910690047856
 45
39.75587516415277
 46
-0.0000089774092899
 79
     2
 49
16.34697959064513
 49
-6569.897158549863
 53
307.5647
 43
42939.07545701733
 44
3366.04682212235
 45
39.75587516415277
 46
-0.0000089774092899
 79
     2
 49
16.34697959064513
 49
-6569.897158549863
 53
307.5647
 43
42939.07545701733
 44
3232.182954196816
 45
39.75587516415277
 46
-0.0000089774092899
 79
     2
 49
16.34697959064513
 49
-6569.897158549863
 53
307.5647
 43
42939.07545701733
 44
3098.319086271307
 45
39.75587516415277
 46
-0.0000089774092899
 79
     2
 49
16.34697959064513
 49
-6569.897158549863
 53
307.5647
 43
42939.07545701733
 44
2964.455218345776
 45
39.75587516415277
 46
-0.0000089774092899
 79
     2
 49
16.34697959064513
 49
-6569.897158549863
 53
307.5647
 43
42939.07545701733
 44
2830.591350420267
 45
39.75587516415277
 46
-0.0000089774092899
 79
     2
 49
16.34697959064513
 49
-6569.897158549863
 53
307.5647
 43
42939.07545701733
 44
2696.727482494735
 45
39.75587516415277
 46
-0.0000089774092899
 79
     2
 49
16.34697959064513
 49
-6569.897158549863
 53
307.5647
 43
42939.07545701733
 44
2562.863614569226
 45
39.75587516415277
 46
-0.0000089774092899
 79
     2
 49
16.34697959064513
 49
-6569.897158549863
 53
307.5647
 43
42939.07545701733
 44
2428.999746643692
 45
39.75587516415277
 46
-0.0000089774092899
 79
     2
 49
16.34697959064513
 49
-6569.897158549863
 53
307.5647
 43
42939.07545701733
 44
2295.135878718182
 45
39.75587516415277
 46
-0.0000089774092899
 79
     2
 49
16.34697959064513
 49
-6569.897158549863
 53
307.5647
 43
42939.07545701733
 44
2161.272010792652
 45
39.75587516415277
 46
-0.0000089774092899
 79
     2
 49
16.34697959064513
 49
-6569.897158549863
 53
307.5647
 43
42939.07545701733
 44
2027.408142867143
 45
39.75587516415277
 46
-0.0000089774092899
 79
     2
 49
16.34697959064513
 49
-6569.897158549863
 53
307.5647
 43
42939.07545701733
 44
1893.544274941611
 45
39.75587516415277
 46
-0.0000089774092899
 79
     2
 49
16.34697959064513
 49
-6569.897158549863
 53
307.5647
 43
42939.07545701733
 44
1759.680407016102
 45
39.75587516415277
 46
-0.0000089774092899
 79
     2
 49
16.34697959064513
 49
-6569.897158549863
 53
307.5647
 43
42939.07545701733
 44
1625.816539090593
 45
39.75587516415277
 46
-0.0000089774092899
 79
     2
 49
16.34697959064513
 49
-6569.897158549863
 53
307.5647
 43
42939.07545701733
 44
1491.952671165059
 45
39.75587516415277
 46
-0.0000089774092899
 79
     2
 49
16.34697959064513
 49
-6569.897158549863
 53
307.5647
 43
42939.07545701733
 44
1358.088803239553
 45
39.75587516415277
 46
-0.0000089774092899
 79
     2
 49
16.34697959064513
 49
-6569.897158549863
 53
307.5647
 43
42939.07545701733
 44
1224.224935314018
 45
39.75587516415277
 46
-0.0000089774092899
 79
     2
 49
16.34697959064513
 49
-6569.897158549863
 53
307.5647
 43
42939.07545701733
 44
1090.361067388484
 45
39.75587516415277
 46
-0.0000089774092899
 79
     2
 49
16.34697959064513
 49
-6569.897158549863
 53
307.5647
 43
42939.07545701733
 44
956.4971994629786
 45
39.75587516415277
 46
-0.0000089774092899
 79
     2
 49
16.34697959064513
 49
-6569.897158549863
 53
307.5647
 43
42939.07545701733
 44
822.6333315374731
 45
39.75587516415277
 46
-0.0000089774092899
 79
     2
 49
16.34697959064513
 49
-6569.897158549863
 53
307.5647
 43
42939.07545701733
 44
688.7694636119386
 45
39.75587516415277
 46
-0.0000089774092899
 79
     2
 49
16.34697959064513
 49
-6569.897158549863
 53
307.5647
 43
42939.07545701733
 44
554.9055956864294
 45
39.75587516415277
 46
-0.0000089774092899
 79
     2
 49
16.34697959064513
 49
-6569.897158549863
 53
307.5647
 43
42939.07545701733
 44
421.0417277608948
 45
39.75587516415277
 46
-0.0000089774092899
 79
     2
 49
16.34697959064513
 49
-6569.897158549863
 53
307.5647
 43
42939.07545701733
 44
287.1778598353894
 45
39.75587516415277
 46
-0.0000089774092899
 79
     2
 49
16.34697959064513
 49
-6569.897158549863
 53
307.5647
 43
42939.07545701733
 44
153.3139919098803
 45
39.75587516415277
 46
-0.0000089774092899
 79
     2
 49
16.34697959064513
 49
-6569.897158549863
 53
292.9384
 43
42913.48062597494
 44
5198.095462570211
 45
39.75591328479023
 46
-0.0000165670965689
 79
     2
 49
30.44290437825485
 49
-5783.884461102885
 53
292.9384
 43
42913.48062597494
 44
5064.231951615003
 45
39.75591328479023
 46
-0.0000165670965689
 79
     2
 49
30.44290437825485
 49
-5783.884461102885
 53
292.9384
 43
42913.48062597494
 44
4930.368083689469
 45
39.75591328479023
 46
-0.0000165670965689
 79
     2
 49
30.44290437825485
 49
-5783.884461102885
 53
292.9384
 43
42913.48062597494
 44
4796.504215763959
 45
39.75591328479023
 46
-0.0000165670965689
 79
     2
 49
30.44290437825485
 49
-5783.884461102885
 53
292.9384
 43
42913.48062597494
 44
4662.640347838453
 45
39.75591328479023
 46
-0.0000165670965689
 79
     2
 49
30.44290437825485
 49
-5783.884461102885
 53
292.9384
 43
42913.48062597494
 44
4528.776479912919
 45
39.75591328479023
 46
-0.0000165670965689
 79
     2
 49
30.44290437825485
 49
-5783.884461102885
 53
292.9384
 43
42913.48062597494
 44
4394.912611987414
 45
39.75591328479023
 46
-0.0000165670965689
 79
     2
 49
30.44290437825485
 49
-5783.884461102885
 53
292.9384
 43
42913.48062597494
 44
4261.048744061879
 45
39.75591328479023
 46
-0.0000165670965689
 79
     2
 49
30.44290437825485
 49
-5783.884461102885
 53
292.9384
 43
42913.48062597494
 44
4127.18487613637
 45
39.75591328479023
 46
-0.0000165670965689
 79
     2
 49
30.44290437825485
 49
-5783.884461102885
 53
292.9384
 43
42913.48062597494
 44
3993.31505870562
 45
39.75591328479023
 46
-0.0000165670965689
 79
     2
 49
30.44290437825485
 49
-5783.884461102885
 53
292.9384
 43
42913.48062597494
 44
3859.451190780085
 45
39.75591328479023
 46
-0.0000165670965689
 79
     2
 49
30.44290437825485
 49
-5783.884461102885
 53
292.9384
 43
42913.48062597494
 44
3725.587322854551
 45
39.75591328479023
 46
-0.0000165670965689
 79
     2
 49
30.44290437825485
 49
-5783.884461102885
 53
292.9384
 43
42913.48062597494
 44
3591.723454929041
 45
39.75591328479023
 46
-0.0000165670965689
 79
     2
 49
30.44290437825485
 49
-5783.884461102885
 53
292.9384
 43
42913.48062597494
 44
3457.859587003536
 45
39.75591328479023
 46
-0.0000165670965689
 79
     2
 49
30.44290437825485
 49
-5783.884461102885
 53
292.9384
 43
42913.48062597494
 44
3323.995719078002
 45
39.75591328479023
 46
-0.0000165670965689
 79
     2
 49
30.44290437825485
 49
-5783.884461102885
 53
292.9384
 43
42913.48062597494
 44
3190.131851152471
 45
39.75591328479023
 46
-0.0000165670965689
 79
     2
 49
30.44290437825485
 49
-5783.884461102885
 53
292.9384
 43
42913.48062597494
 44
3056.267983226962
 45
39.75591328479023
 46
-0.0000165670965689
 79
     2
 49
30.44290437825485
 49
-5783.884461102885
 53
292.9384
 43
42913.48062597494
 44
2922.404115301453
 45
39.75591328479023
 46
-0.0000165670965689
 79
     2
 49
30.44290437825485
 49
-5783.884461102885
 53
292.9384
 43
42913.48062597494
 44
2788.540247375947
 45
39.75591328479023
 46
-0.0000165670965689
 79
     2
 49
30.44290437825485
 49
-5783.884461102885
 53
292.9384
 43
42913.48062597494
 44
2654.676379450413
 45
39.75591328479023
 46
-0.0000165670965689
 79
     2
 49
30.44290437825485
 49
-5783.884461102885
 53
292.9384
 43
42913.48062597494
 44
2520.812511524878
 45
39.75591328479023
 46
-0.0000165670965689
 79
     2
 49
30.44290437825485
 49
-5783.884461102885
 53
292.9384
 43
42913.48062597494
 44
2386.948643599372
 45
39.75591328479023
 46
-0.0000165670965689
 79
     2
 49
30.44290437825485
 49
-5783.884461102885
 53
292.9384
 43
42913.48062597494
 44
2253.084775673863
 45
39.75591328479023
 46
-0.0000165670965689
 79
     2
 49
30.44290437825485
 49
-5783.884461102885
 53
292.9384
 43
42913.48062597494
 44
2119.220907748328
 45
39.75591328479023
 46
-0.0000165670965689
 79
     2
 49
30.44290437825485
 49
-5783.884461102885
 53
292.9384
 43
42913.48062597494
 44
1985.357039822794
 45
39.75591328479023
 46
-0.0000165670965689
 79
     2
 49
30.44290437825485
 49
-5783.884461102885
 53
292.9384
 43
42913.48062597494
 44
1851.493171897288
 45
39.75591328479023
 46
-0.0000165670965689
 79
     2
 49
30.44290437825485
 49
-5783.884461102885
 53
292.9384
 43
42913.48062597494
 44
1717.629303971754
 45
39.75591328479023
 46
-0.0000165670965689
 79
     2
 49
30.44290437825485
 49
-5783.884461102885
 53
292.9384
 43
42913.48062597494
 44
1583.765436046248
 45
39.75591328479023
 46
-0.0000165670965689
 79
     2
 49
30.44290437825485
 49
-5783.884461102885
 53
292.9384
 43
42913.48062597494
 44
1449.901568120714
 45
39.75591328479023
 46
-0.0000165670965689
 79
     2
 49
30.44290437825485
 49
-5783.884461102885
 53
292.9384
 43
42913.48062597494
 44
1316.037700195208
 45
39.75591328479023
 46
-0.0000165670965689
 79
     2
 49
30.44290437825485
 49
-5783.884461102885
 53
292.9384
 43
42913.48062597494
 44
1182.173832269699
 45
39.75591328479023
 46
-0.0000165670965689
 79
     2
 49
30.44290437825485
 49
-5783.884461102885
 53
292.9384
 43
42913.48062597494
 44
1048.309964344164
 45
39.75591328479023
 46
-0.0000165670965689
 79
     2
 49
30.44290437825485
 49
-5783.884461102885
 53
292.9384
 43
42913.48062597494
 44
914.4460964186301
 45
39.75591328479023
 46
-0.0000165670965689
 79
     2
 49
30.44290437825485
 49
-5783.884461102885
 53
292.9384
 43
42913.48062597494
 44
780.5822284931246
 45
39.75591328479023
 46
-0.0000165670965689
 79
     2
 49
30.44290437825485
 49
-5783.884461102885
 53
292.9384
 43
42913.48062597494
 44
646.7183605676154
 45
39.75591328479023
 46
-0.0000165670965689
 79
     2
 49
30.44290437825485
 49
-5783.884461102885
 53
292.9384
 43
42913.48062597494
 44
512.8544926420845
 45
39.75591328479023
 46
-0.0000165670965689
 79
     2
 49
30.44290437825485
 49
-5783.884461102885
 53
292.9384
 43
42913.48062597494
 44
378.9906247165754
 45
39.75591328479023
 46
-0.0000165670965689
 79
     2
 49
30.44290437825485
 49
-5783.884461102885
 53
292.9384
 43
42913.48062597494
 44
245.1267567910409
 45
39.75591328479023
 46
-0.0000165670965689
 79
     2
 49
30.44290437825485
 49
-5783.884461102885
 53
292.9384
 43
42913.48062597494
 44
111.2628888655317
 45
39.75591328479023
 46
-0.0000165670965689
 79
     2
 49
30.44290437825485
 49
-5783.884461102885
 53
292.9384
 43
42913.48062597494
 44
-22.60097905997373
 45
39.75591328479023
 46
-0.0000165670965689
 79
     2
 49
30.44290437825485
 49
-5783.884461102885
 53
285.109
 43
42930.88560608263
 44
5143.384764293588
 45
0.0000003601119824
 46
-133.8637863111869
 79
     2
 49
13.20944850668066
 49
-1512.01737614076
 53
285.109
 43
42970.64150899505
 44
5143.384764293588
 45
0.0000003601119824
 46
-133.8637863111869
 79
     2
 49
13.20944850668066
 49
-1512.01737614076
 53
285.109
 43
43010.39741190745
 44
5143.384764293588
 45
0.0000003601119824
 46
-133.8637863111869
 79
     2
 49
13.20944850668066
 49
-1512.01737614076
 53
285.109
 43
43050.15355280007
 44
5143.384764293588
 45
0.0000003601119824
 46
-133.8637863111869
 79
     2
 49
13.20944850668066
 49
-1512.01737614076
 53
285.109
 43
43089.90933672238
 44
5143.384764293588
 45
0.0000003601119824
 46
-133.8637863111869
 79
     2
 49
13.20944850668066
 49
-1512.01737614076
 53
285.109
 43
43129.66512064468
 44
5143.384764293588
 45
0.0000003601119824
 46
-133.8637863111869
 79
     2
 49
13.20944850668066
 49
-1512.01737614076
 53
285.109
 43
43169.42090456699
 44
5143.384764293588
 45
0.0000003601119824
 46
-133.8637863111869
 79
     2
 49
13.20944850668066
 49
-1512.01737614076
 53
285.109
 43
43209.17668848928
 44
5143.384764293588
 45
0.0000003601119824
 46
-133.8637863111869
 79
     2
 49
13.20944850668066
 49
-1512.01737614076
 53
285.109
 43
43248.93247241162
 44
5143.384764293588
 45
0.0000003601119824
 46
-133.8637863111869
 79
     2
 49
13.20944850668066
 49
-1512.01737614076
 53
285.109
 43
43288.6882563339
 44
5143.384764293588
 45
0.0000003601119824
 46
-133.8637863111869
 79
     2
 49
13.20944850668066
 49
-1512.01737614076
 53
276.7473999999999
 43
42925.34399892084
 44
5170.059252052085
 45
0.0000130021948056
 46
-133.8641044322109
 79
     2
 49
26.86118323298723
 49
-16553.23227874065
 53
276.7473999999999
 43
42965.09990183324
 44
5170.059252052085
 45
0.0000130021948056
 46
-133.8641044322109
 79
     2
 49
26.86118323298723
 49
-16553.23227874065
 53
276.7473999999999
 43
43004.85580474563
 44
5170.059252052085
 45
0.0000130021948056
 46
-133.8641044322109
 79
     2
 49
26.86118323298723
 49
-16553.23227874065
 53
276.7473999999999
 43
43044.61218361849
 44
5170.059252052085
 45
0.0000130021948056
 46
-133.8641044322109
 79
     2
 49
26.86118323298723
 49
-16553.23227874065
 53
276.7473999999999
 43
43084.36796754079
 44
5170.059252052085
 45
0.0000130021948056
 46
-133.8641044322109
 79
     2
 49
26.86118323298723
 49
-16553.23227874065
 53
276.7473999999999
 43
43124.1237514631
 44
5170.059252052085
 45
0.0000130021948056
 46
-133.8641044322109
 79
     2
 49
26.86118323298723
 49
-16553.23227874065
 53
276.7473999999999
 43
43163.87953538541
 44
5170.059252052085
 45
0.0000130021948056
 46
-133.8641044322109
 79
     2
 49
26.86118323298723
 49
-16553.23227874065
 53
276.7473999999999
 43
43203.63531930772
 44
5170.059252052085
 45
0.0000130021948056
 46
-133.8641044322109
 79
     2
 49
26.86118323298723
 49
-16553.23227874065
 53
276.7473999999999
 43
43243.39110323002
 44
5170.059252052085
 45
0.0000130021948056
 46
-133.8641044322109
 79
     2
 49
26.86118323298723
 49
-16553.23227874065
 53
276.7473999999999
 43
43283.14688715233
 44
5170.059252052085
 45
0.0000130021948056
 46
-133.8641044322109
 79
     2
 49
26.86118323298723
 49
-16553.23227874065
 53
276.7473999999999
 43
43322.90267107462
 44
5170.059252052085
 45
0.0000130021948056
 46
-133.8641044322109
 79
     2
 49
26.86118323298723
 49
-16553.23227874065
 53
276.7473999999999
 43
43362.65845499694
 44
5170.059252052085
 45
0.0000130021948056
 46
-133.8641044322109
 79
     2
 49
26.86118323298723
 49
-16553.23227874065
 53
276.7473999999999
 43
43402.41423891924
 44
5170.059252052085
 45
0.0000130021948056
 46
-133.8641044322109
 79
     2
 49
26.86118323298723
 49
-16553.23227874065
 53
276.7473999999999
 43
43442.17002284155
 44
5170.059252052085
 45
0.0000130021948056
 46
-133.8641044322109
 79
     2
 49
26.86118323298723
 49
-16553.23227874065
 53
276.7473999999999
 43
43481.92699666491
 44
5170.059252052085
 45
0.0000130021948056
 46
-133.8641044322109
 79
     2
 49
26.86118323298723
 49
-16553.23227874065
 53
276.7473999999999
 43
43521.68278058721
 44
5170.059252052085
 45
0.0000130021948056
 46
-133.8641044322109
 79
     2
 49
26.86118323298723
 49
-16553.23227874065
 53
276.7473999999999
 43
43561.4385645095
 44
5170.059252052085
 45
0.0000130021948056
 46
-133.8641044322109
 79
     2
 49
26.86118323298723
 49
-16553.23227874065
 53
276.7473999999999
 43
43601.19434843183
 44
5170.059252052085
 45
0.0000130021948056
 46
-133.8641044322109
 79
     2
 49
26.86118323298723
 49
-16553.23227874065
 53
276.7473999999999
 43
43640.9501323541
 44
5170.059252052085
 45
0.0000130021948056
 46
-133.8641044322109
 79
     2
 49
26.86118323298723
 49
-16553.23227874065
 53
276.7473999999999
 43
43680.70591627644
 44
5170.059252052085
 45
0.0000130021948056
 46
-133.8641044322109
 79
     2
 49
26.86118323298723
 49
-16553.23227874065
 53
276.7473999999999
 43
43720.46170019875
 44
5170.059252052085
 45
0.0000130021948056
 46
-133.8641044322109
 79
     2
 49
26.86118323298723
 49
-16553.23227874065
 53
276.7473999999999
 43
43760.21748412105
 44
5170.059252052085
 45
0.0000130021948056
 46
-133.8641044322109
 79
     2
 49
26.86118323298723
 49
-16553.23227874065
 53
276.7473999999999
 43
43799.97326804336
 44
5170.059252052085
 45
0.0000130021948056
 46
-133.8641044322109
 79
     2
 49
26.86118323298723
 49
-16553.23227874065
 53
276.7473999999999
 43
43839.72905196566
 44
5170.059252052085
 45
0.0000130021948056
 46
-133.8641044322109
 79
     2
 49
26.86118323298723
 49
-16553.23227874065
 53
276.7473999999999
 43
43879.48602578903
 44
5170.059252052085
 45
0.0000130021948056
 46
-133.8641044322109
 79
     2
 49
26.86118323298723
 49
-16553.23227874065
 53
276.7473999999999
 43
43919.2418097113
 44
5170.059252052085
 45
0.0000130021948056
 46
-133.8641044322109
 79
     2
 49
26.86118323298723
 49
-16553.23227874065
 53
276.7473999999999
 43
43958.99759363365
 44
5170.059252052085
 45
0.0000130021948056
 46
-133.8641044322109
 79
     2
 49
26.86118323298723
 49
-16553.23227874065
 53
276.7473999999999
 43
43998.75337755595
 44
5170.059252052085
 45
0.0000130021948056
 46
-133.8641044322109
 79
     2
 49
26.86118323298723
 49
-16553.23227874065
 53
276.7473999999999
 43
44038.50916147826
 44
5170.059252052085
 45
0.0000130021948056
 46
-133.8641044322109
 79
     2
 49
26.86118323298723
 49
-16553.23227874065
 53
276.7473999999999
 43
44078.26494540057
 44
5170.059252052085
 45
0.0000130021948056
 46
-133.8641044322109
 79
     2
 49
26.86118323298723
 49
-16553.23227874065
 53
276.7473999999999
 43
44118.01953942181
 44
5170.059252052085
 45
0.0000130021948056
 46
-133.8641044322109
 79
     2
 49
26.86118323298723
 49
-16553.23227874065
 53
276.7473999999999
 43
44157.77413344309
 44
5170.059252052085
 45
0.0000130021948056
 46
-133.8641044322109
 79
     2
 49
26.86118323298723
 49
-16553.23227874065
 53
276.7473999999999
 43
44197.52872746433
 44
5170.059252052085
 45
0.0000130021948056
 46
-133.8641044322109
 79
     2
 49
26.86118323298723
 49
-16553.23227874065
 53
276.7473999999999
 43
44237.28332148558
 44
5170.059252052085
 45
0.0000130021948056
 46
-133.8641044322109
 79
     2
 49
26.86118323298723
 49
-16553.23227874065
 53
276.7473999999999
 43
44277.04981451735
 44
5170.059252052085
 45
0.0000130021948056
 46
-133.8641044322109
 79
     2
 49
26.86118323298723
 49
-16553.23227874065
 53
276.7473999999999
 43
44316.80440853861
 44
5170.059252052085
 45
0.0000130021948056
 46
-133.8641044322109
 79
     2
 49
26.86118323298723
 49
-16553.23227874065
 53
276.7473999999999
 43
44356.55900255984
 44
5170.059252052085
 45
0.0000130021948056
 46
-133.8641044322109
 79
     2
 49
26.86118323298723
 49
-16553.23227874065
 53
276.7473999999999
 43
44396.3135965811
 44
5170.059252052085
 45
0.0000130021948056
 46
-133.8641044322109
 79
     2
 49
26.86118323298723
 49
-16553.23227874065
 53
276.7473999999999
 43
44436.06819060235
 44
5170.059252052085
 45
0.0000130021948056
 46
-133.8641044322109
 79
     2
 49
26.86118323298723
 49
-16553.23227874065
 53
276.7473999999999
 43
44475.82278462363
 44
5170.059252052085
 45
0.0000130021948056
 46
-133.8641044322109
 79
     2
 49
26.86118323298723
 49
-16553.23227874065
 53
276.7473999999999
 43
44515.57737864488
 44
5170.059252052085
 45
0.0000130021948056
 46
-133.8641044322109
 79
     2
 49
26.86118323298723
 49
-16553.23227874065
 53
276.7473999999999
 43
44555.33197266614
 44
5170.059252052085
 45
0.0000130021948056
 46
-133.8641044322109
 79
     2
 49
26.86118323298723
 49
-16553.23227874065
 53
276.7473999999999
 43
44595.0865666874
 44
5170.059252052085
 45
0.0000130021948056
 46
-133.8641044322109
 79
     2
 49
26.86118323298723
 49
-16553.23227874065
 53
276.7473999999999
 43
44634.85305971913
 44
5170.059252052085
 45
0.0000130021948056
 46
-133.8641044322109
 79
     2
 49
26.86118323298723
 49
-16553.23227874065
 53
276.7473999999999
 43
44674.60765374041
 44
5170.059252052085
 45
0.0000130021948056
 46
-133.8641044322109
 79
     2
 49
26.86118323298723
 49
-16553.23227874065
 53
276.7473999999999
 43
44714.36224776166
 44
5170.059252052085
 45
0.0000130021948056
 46
-133.8641044322109
 79
     2
 49
26.86118323298723
 49
-16553.23227874065
 53
276.7473999999999
 43
44754.11684178292
 44
5170.059252052085
 45
0.0000130021948056
 46
-133.8641044322109
 79
     2
 49
26.86118323298723
 49
-16553.23227874065
 53
276.7473999999999
 43
44793.87143580417
 44
5170.059252052085
 45
0.0000130021948056
 46
-133.8641044322109
 79
     2
 49
26.86118323298723
 49
-16553.23227874065
 53
276.7473999999999
 43
44833.62602982545
 44
5170.059252052085
 45
0.0000130021948056
 46
-133.8641044322109
 79
     2
 49
26.86118323298723
 49
-16553.23227874065
 53
276.1416
 43
42910.34985947843
 44
5227.187234308215
 45
-0.0001295516809004
 46
-133.8635115469746
 79
     2
 49
29.25978576600293
 49
-9260.667043026341
 53
276.1416
 43
42950.10572074433
 44
5227.187234308215
 45
-0.0001295516809004
 46
-133.8635115469746
 79
     2
 49
29.25978576600293
 49
-9260.667043026341
 53
276.1416
 43
42989.86162365674
 44
5227.187234308215
 45
-0.0001295516809004
 46
-133.8635115469746
 79
     2
 49
29.25978576600293
 49
-9260.667043026341
 53
276.1416
 43
43029.61705060873
 44
5227.187234308215
 45
-0.0001295516809004
 46
-133.8635115469746
 79
     2
 49
29.25978576600293
 49
-9260.667043026341
 53
276.1416
 43
43069.37402443209
 44
5227.187234308215
 45
-0.0001295516809004
 46
-133.8635115469746
 79
     2
 49
29.25978576600293
 49
-9260.667043026341
 53
276.1416
 43
43109.12980835437
 44
5227.187234308215
 45
-0.0001295516809004
 46
-133.8635115469746
 79
     2
 49
29.25978576600293
 49
-9260.667043026341
 53
276.1416
 43
43148.88559227668
 44
5227.187234308215
 45
-0.0001295516809004
 46
-133.8635115469746
 79
     2
 49
29.25978576600293
 49
-9260.667043026341
 53
276.1416
 43
43188.64137619901
 44
5227.187234308215
 45
-0.0001295516809004
 46
-133.8635115469746
 79
     2
 49
29.25978576600293
 49
-9260.667043026341
 53
276.1416
 43
43228.39716012128
 44
5227.187234308215
 45
-0.0001295516809004
 46
-133.8635115469746
 79
     2
 49
29.25978576600293
 49
-9260.667043026341
 53
276.1416
 43
43268.15294404362
 44
5227.187234308215
 45
-0.0001295516809004
 46
-133.8635115469746
 79
     2
 49
29.25978576600293
 49
-9260.667043026341
 53
276.1416
 43
43307.90872796592
 44
5227.187234308215
 45
-0.0001295516809004
 46
-133.8635115469746
 79
     2
 49
29.25978576600293
 49
-9260.667043026341
 53
276.1416
 43
43347.66451188823
 44
5227.187234308215
 45
-0.0001295516809004
 46
-133.8635115469746
 79
     2
 49
29.25978576600293
 49
-9260.667043026341
 53
276.1416
 43
43387.42029581054
 44
5227.187234308215
 45
-0.0001295516809004
 46
-133.8635115469746
 79
     2
 49
29.25978576600293
 49
-9260.667043026341
 53
276.1416
 43
43427.17607973283
 44
5227.187234308215
 45
-0.0001295516809004
 46
-133.8635115469746
 79
     2
 49
29.25978576600293
 49
-9260.667043026341
 53
276.1416
 43
43466.93186365516
 44
5227.187234308215
 45
-0.0001295516809004
 46
-133.8635115469746
 79
     2
 49
29.25978576600293
 49
-9260.667043026341
 53
276.1416
 43
43506.68883747848
 44
5227.187234308215
 45
-0.0001295516809004
 46
-133.8635115469746
 79
     2
 49
29.25978576600293
 49
-9260.667043026341
 53
276.1416
 43
43546.44462140083
 44
5227.187234308215
 45
-0.0001295516809004
 46
-133.8635115469746
 79
     2
 49
29.25978576600293
 49
-9260.667043026341
 53
276.1416
 43
43586.20040532311
 44
5227.187234308215
 45
-0.0001295516809004
 46
-133.8635115469746
 79
     2
 49
29.25978576600293
 49
-9260.667043026341
 53
276.1416
 43
43625.95618924542
 44
5227.187234308215
 45
-0.0001295516809004
 46
-133.8635115469746
 79
     2
 49
29.25978576600293
 49
-9260.667043026341
 53
276.1416
 43
43665.71197316775
 44
5227.187234308215
 45
-0.0001295516809004
 46
-133.8635115469746
 79
     2
 49
29.25978576600293
 49
-9260.667043026341
 53
276.1416
 43
43705.46775709003
 44
5227.187234308215
 45
-0.0001295516809004
 46
-133.8635115469746
 79
     2
 49
29.25978576600293
 49
-9260.667043026341
 53
276.1416
 43
43745.22354101232
 44
5227.187234308215
 45
-0.0001295516809004
 46
-133.8635115469746
 79
     2
 49
29.25978576600293
 49
-9260.667043026341
 53
276.1416
 43
43784.97932493464
 44
5227.187234308215
 45
-0.0001295516809004
 46
-133.8635115469746
 79
     2
 49
29.25978576600293
 49
-9260.667043026341
 53
276.1416
 43
43824.73510885699
 44
5227.187234308215
 45
-0.0001295516809004
 46
-133.8635115469746
 79
     2
 49
29.25978576600293
 49
-9260.667043026341
 53
276.1416
 43
43864.49089277927
 44
5227.187234308215
 45
-0.0001295516809004
 46
-133.8635115469746
 79
     2
 49
29.25978576600293
 49
-9260.667043026341
 53
83.85800000000008
 43
42945.91084358891
 44
5198.095462570211
 45
39.7558606288076
 46
-0.0002485672396058
 79
     2
 49
29.25978576600241
 49
-9260.66704302619
 53
83.85800000000008
 43
42945.91084358891
 44
5064.231951615003
 45
39.7558606288076
 46
-0.0002485672396058
 79
     2
 49
29.25978576600241
 49
-9260.66704302619
 53
83.85800000000008
 43
42945.91084358891
 44
4930.368083689469
 45
39.7558606288076
 46
-0.0002485672396058
 79
     2
 49
29.25978576600241
 49
-9260.66704302619
 53
83.85800000000008
 43
42945.91084358891
 44
4796.504215763959
 45
39.7558606288076
 46
-0.0002485672396058
 79
     2
 49
29.25978576600241
 49
-9260.66704302619
 53
83.85800000000008
 43
42945.91084358891
 44
4662.640347838453
 45
39.7558606288076
 46
-0.0002485672396058
 79
     2
 49
29.25978576600241
 49
-9260.66704302619
 53
83.85800000000008
 43
42945.91084358891
 44
4528.776479912919
 45
39.7558606288076
 46
-0.0002485672396058
 79
     2
 49
29.25978576600241
 49
-9260.66704302619
 53
83.85800000000008
 43
42945.91084358891
 44
4394.912611987414
 45
39.7558606288076
 46
-0.0002485672396058
 79
     2
 49
29.25978576600241
 49
-9260.66704302619
 53
83.85800000000008
 43
42945.91084358891
 44
4261.048744061879
 45
39.7558606288076
 46
-0.0002485672396058
 79
     2
 49
29.25978576600241
 49
-9260.66704302619
 53
83.85800000000008
 43
42945.91084358891
 44
4127.18487613637
 45
39.7558606288076
 46
-0.0002485672396058
 79
     2
 49
29.25978576600241
 49
-9260.66704302619
 53
83.85800000000008
 43
42945.91084358891
 44
3993.31505870562
 45
39.7558606288076
 46
-0.0002485672396058
 79
     2
 49
29.25978576600241
 49
-9260.66704302619
 53
83.85800000000008
 43
42945.91084358891
 44
3859.451190780085
 45
39.7558606288076
 46
-0.0002485672396058
 79
     2
 49
29.25978576600241
 49
-9260.66704302619
 53
83.85800000000008
 43
42945.91084358891
 44
3725.587322854551
 45
39.7558606288076
 46
-0.0002485672396058
 79
     2
 49
29.25978576600241
 49
-9260.66704302619
 53
83.85800000000008
 43
42945.91084358891
 44
3591.723454929041
 45
39.7558606288076
 46
-0.0002485672396058
 79
     2
 49
29.25978576600241
 49
-9260.66704302619
 53
83.85800000000008
 43
42945.91084358891
 44
3457.859587003536
 45
39.7558606288076
 46
-0.0002485672396058
 79
     2
 49
29.25978576600241
 49
-9260.66704302619
 53
83.85800000000008
 43
42945.91084358891
 44
3323.995719078002
 45
39.7558606288076
 46
-0.0002485672396058
 79
     2
 49
29.25978576600241
 49
-9260.66704302619
 53
83.85800000000008
 43
42945.91084358891
 44
3190.131851152471
 45
39.7558606288076
 46
-0.0002485672396058
 79
     2
 49
29.25978576600241
 49
-9260.66704302619
 53
83.85800000000008
 43
42945.91084358891
 44
3056.267983226962
 45
39.7558606288076
 46
-0.0002485672396058
 79
     2
 49
29.25978576600241
 49
-9260.66704302619
 53
83.85800000000008
 43
42945.91084358891
 44
2922.404115301453
 45
39.7558606288076
 46
-0.0002485672396058
 79
     2
 49
29.25978576600241
 49
-9260.66704302619
 53
83.85800000000008
 43
42945.91084358891
 44
2788.540247375947
 45
39.7558606288076
 46
-0.0002485672396058
 79
     2
 49
29.25978576600241
 49
-9260.66704302619
 53
83.85800000000008
 43
42945.91084358891
 44
2654.676379450413
 45
39.7558606288076
 46
-0.0002485672396058
 79
     2
 49
29.25978576600241
 49
-9260.66704302619
 53
83.85800000000008
 43
42945.91084358891
 44
2520.812511524878
 45
39.7558606288076
 46
-0.0002485672396058
 79
     2
 49
29.25978576600241
 49
-9260.66704302619
 53
83.85800000000008
 43
42945.91084358891
 44
2386.948643599372
 45
39.7558606288076
 46
-0.0002485672396058
 79
     2
 49
29.25978576600241
 49
-9260.66704302619
 53
83.85800000000008
 43
42945.91084358891
 44
2253.084775673863
 45
39.7558606288076
 46
-0.0002485672396058
 79
     2
 49
29.25978576600241
 49
-9260.66704302619
 53
83.85800000000008
 43
42945.91084358891
 44
2119.220907748328
 45
39.7558606288076
 46
-0.0002485672396058
 79
     2
 49
29.25978576600241
 49
-9260.66704302619
 53
83.85800000000008
 43
42945.91084358891
 44
1985.357039822794
 45
39.7558606288076
 46
-0.0002485672396058
 79
     2
 49
29.25978576600241
 49
-9260.66704302619
 53
83.85800000000008
 43
42945.91084358891
 44
1851.493171897288
 45
39.7558606288076
 46
-0.0002485672396058
 79
     2
 49
29.25978576600241
 49
-9260.66704302619
 53
83.85800000000008
 43
42945.91084358891
 44
1717.629303971754
 45
39.7558606288076
 46
-0.0002485672396058
 79
     2
 49
29.25978576600241
 49
-9260.66704302619
 53
83.85800000000008
 43
42945.91084358891
 44
1583.765436046248
 45
39.7558606288076
 46
-0.0002485672396058
 79
     2
 49
29.25978576600241
 49
-9260.66704302619
 53
83.85800000000008
 43
42945.91084358891
 44
1449.901568120714
 45
39.7558606288076
 46
-0.0002485672396058
 79
     2
 49
29.25978576600241
 49
-9260.66704302619
 53
83.85800000000008
 43
42945.91084358891
 44
1316.037700195208
 45
39.7558606288076
 46
-0.0002485672396058
 79
     2
 49
29.25978576600241
 49
-9260.66704302619
 53
83.85800000000008
 43
42945.91084358891
 44
1182.173832269699
 45
39.7558606288076
 46
-0.0002485672396058
 79
     2
 49
29.25978576600241
 49
-9260.66704302619
 53
83.85800000000008
 43
42945.91084358891
 44
1048.309964344164
 45
39.7558606288076
 46
-0.0002485672396058
 79
     2
 49
29.25978576600241
 49
-9260.66704302619
 53
83.85800000000008
 43
42945.91084358891
 44
914.4460964186301
 45
39.7558606288076
 46
-0.0002485672396058
 79
     2
 49
29.25978576600241
 49
-9260.66704302619
 53
83.85800000000008
 43
42945.91084358891
 44
780.5822284931246
 45
39.7558606288076
 46
-0.0002485672396058
 79
     2
 49
29.25978576600241
 49
-9260.66704302619
 53
83.85800000000008
 43
42945.91084358891
 44
646.7183605676154
 45
39.7558606288076
 46
-0.0002485672396058
 79
     2
 49
29.25978576600241
 49
-9260.66704302619
 53
83.85800000000008
 43
42945.91084358891
 44
512.8544926420845
 45
39.7558606288076
 46
-0.0002485672396058
 79
     2
 49
29.25978576600241
 49
-9260.66704302619
 53
83.85800000000008
 43
42945.91084358891
 44
378.9906247165754
 45
39.7558606288076
 46
-0.0002485672396058
 79
     2
 49
29.25978576600241
 49
-9260.66704302619
 53
83.85800000000008
 43
42945.91084358891
 44
245.1267567910409
 45
39.7558606288076
 46
-0.0002485672396058
 79
     2
 49
29.25978576600241
 49
-9260.66704302619
 53
83.85800000000008
 43
42945.91084358891
 44
111.2628888655317
 45
39.7558606288076
 46
-0.0002485672396058
 79
     2
 49
29.25978576600241
 49
-9260.66704302619
 53
83.85800000000008
 43
42945.91084358891
 44
-22.60097905997373
 45
39.7558606288076
 46
-0.0002485672396058
 79
     2
 49
29.25978576600241
 49
-9260.66704302619
 53
83.85800000000008
 43
42945.91084358891
 44
-156.4648469855083
 45
39.7558606288076
 46
-0.0002485672396058
 79
     2
 49
29.25978576600241
 49
-9260.66704302619
 53
83.85800000000008
 43
42945.91084358891
 44
-290.3287149110393
 45
39.7558606288076
 46
-0.0002485672396058
 79
     2
 49
29.25978576600241
 49
-9260.66704302619
 53
83.85800000000008
 43
42945.91084358891
 44
-424.1925828365483
 45
39.7558606288076
 46
-0.0002485672396058
 79
     2
 49
29.25978576600241
 49
-9260.66704302619
 53
83.85800000000008
 43
42945.91084358891
 44
-558.0564507620538
 45
39.7558606288076
 46
-0.0002485672396058
 79
     2
 49
29.25978576600241
 49
-9260.66704302619
 53
83.85800000000008
 43
42945.91084358891
 44
-691.9203186875884
 45
39.7558606288076
 46
-0.0002485672396058
 79
     2
 49
29.25978576600241
 49
-9260.66704302619
 53
83.85800000000008
 43
42945.91084358891
 44
-825.7841866131229
 45
39.7558606288076
 46
-0.0002485672396058
 79
     2
 49
29.25978576600241
 49
-9260.66704302619
 53
83.85800000000008
 43
42945.91084358891
 44
-959.648054538632
 45
39.7558606288076
 46
-0.0002485672396058
 79
     2
 49
29.25978576600241
 49
-9260.66704302619
 53
83.85800000000008
 43
42945.91084358891
 44
-1093.511922464163
 45
39.7558606288076
 46
-0.0002485672396058
 79
     2
 49
29.25978576600241
 49
-9260.66704302619
 53
83.85800000000008
 43
42945.91084358891
 44
-1227.375790389646
 45
39.7558606288076
 46
-0.0002485672396058
 79
     2
 49
29.25978576600241
 49
-9260.66704302619
 53
83.85800000000008
 43
42945.91084358891
 44
-1361.239658315178
 45
39.7558606288076
 46
-0.0002485672396058
 79
     2
 49
29.25978576600241
 49
-9260.66704302619
 53
83.85800000000008
 43
42945.91084358891
 44
-1495.103526240712
 45
39.7558606288076
 46
-0.0002485672396058
 79
     2
 49
29.25978576600241
 49
-9260.66704302619
 53
83.85800000000008
 43
42945.91084358891
 44
-1628.967394166221
 45
39.7558606288076
 46
-0.0002485672396058
 79
     2
 49
29.25978576600241
 49
-9260.66704302619
 53
83.85800000000008
 43
42945.91084358891
 44
-1762.831262091756
 45
39.7558606288076
 46
-0.0002485672396058
 79
     2
 49
29.25978576600241
 49
-9260.66704302619
 53
83.85800000000008
 43
42945.91084358891
 44
-1896.695130017287
 45
39.7558606288076
 46
-0.0002485672396058
 79
     2
 49
29.25978576600241
 49
-9260.66704302619
 53
83.85800000000008
 43
42945.91084358891
 44
-2030.558997942796
 45
39.7558606288076
 46
-0.0002485672396058
 79
     2
 49
29.25978576600241
 49
-9260.66704302619
 53
83.85800000000008
 43
42945.91084358891
 44
-2164.422865868302
 45
39.7558606288076
 46
-0.0002485672396058
 79
     2
 49
29.25978576600241
 49
-9260.66704302619
 53
83.85800000000008
 43
42945.91084358891
 44
-2298.286733793836
 45
39.7558606288076
 46
-0.0002485672396058
 79
     2
 49
29.25978576600241
 49
-9260.66704302619
 53
83.85800000000008
 43
42945.91084358891
 44
-2432.150601719345
 45
39.7558606288076
 46
-0.0002485672396058
 79
     2
 49
29.25978576600241
 49
-9260.66704302619
 53
83.85800000000008
 43
42945.91084358891
 44
-2566.01446964488
 45
39.7558606288076
 46
-0.0002485672396058
 79
     2
 49
29.25978576600241
 49
-9260.66704302619
 53
83.85800000000008
 43
42945.91084358891
 44
-2699.878337570385
 45
39.7558606288076
 46
-0.0002485672396058
 79
     2
 49
29.25978576600241
 49
-9260.66704302619
 53
83.85800000000008
 43
42945.91084358891
 44
-2833.742205495894
 45
39.7558606288076
 46
-0.0002485672396058
 79
     2
 49
29.25978576600241
 49
-9260.66704302619
 53
83.85800000000008
 43
42945.91084358891
 44
-2967.606073421425
 45
39.7558606288076
 46
-0.0002485672396058
 79
     2
 49
29.25978576600241
 49
-9260.66704302619
 53
83.85800000000008
 43
42945.91084358891
 44
-3101.46994134696
 45
39.7558606288076
 46
-0.0002485672396058
 79
     2
 49
29.25978576600241
 49
-9260.66704302619
 53
83.85800000000008
 43
42945.91084358891
 44
-3235.333809272469
 45
39.7558606288076
 46
-0.0002485672396058
 79
     2
 49
29.25978576600241
 49
-9260.66704302619
 53
83.85800000000008
 43
42945.91084358891
 44
-3369.197677197975
 45
39.7558606288076
 46
-0.0002485672396058
 79
     2
 49
29.25978576600241
 49
-9260.66704302619
 53
83.85800000000008
 43
42945.91084358891
 44
-3503.061545123538
 45
39.7558606288076
 46
-0.0002485672396058
 79
     2
 49
29.25978576600241
 49
-9260.66704302619
 53
83.85800000000008
 43
42945.91084358891
 44
-3636.925413049044
 45
39.7558606288076
 46
-0.0002485672396058
 79
     2
 49
29.25978576600241
 49
-9260.66704302619
 53
83.85800000000008
 43
42945.91084358891
 44
-3770.789280974549
 45
39.7558606288076
 46
-0.0002485672396058
 79
     2
 49
29.25978576600241
 49
-9260.66704302619
 53
83.85800000000008
 43
42945.91084358891
 44
-3904.653148900058
 45
39.7558606288076
 46
-0.0002485672396058
 79
     2
 49
29.25978576600241
 49
-9260.66704302619
 53
83.25300000000003
 43
42930.88560608263
 44
5143.384764293588
 45
39.75591911914366
 46
0.0002898923439309
 79
     2
 49
26.86118323298722
 49
-16553.23227874064
 53
83.25300000000003
 43
42930.88560608263
 44
5009.521491318567
 45
39.75591911914366
 46
0.0002898923439309
 79
     2
 49
26.86118323298722
 49
-16553.23227874064
 53
83.25300000000003
 43
42930.88560608263
 44
4875.657623393061
 45
39.75591911914366
 46
0.0002898923439309
 79
     2
 49
26.86118323298722
 49
-16553.23227874064
 53
83.25300000000003
 43
42930.88560608263
 44
4741.793755467552
 45
39.75591911914366
 46
0.0002898923439309
 79
     2
 49
26.86118323298722
 49
-16553.23227874064
 53
83.25300000000003
 43
42930.88560608263
 44
4607.929887542047
 45
39.75591911914366
 46
0.0002898923439309
 79
     2
 49
26.86118323298722
 49
-16553.23227874064
 53
83.25300000000003
 43
42930.88560608263
 44
4474.066019616513
 45
39.75591911914366
 46
0.0002898923439309
 79
     2
 49
26.86118323298722
 49
-16553.23227874064
 53
83.25300000000003
 43
42930.88560608263
 44
4340.202151690978
 45
39.75591911914366
 46
0.0002898923439309
 79
     2
 49
26.86118323298722
 49
-16553.23227874064
 53
83.25300000000003
 43
42930.88560608263
 44
4206.338283765469
 45
39.75591911914366
 46
0.0002898923439309
 79
     2
 49
26.86118323298722
 49
-16553.23227874064
 53
83.25300000000003
 43
42930.88560608263
 44
4072.474415839938
 45
39.75591911914366
 46
0.0002898923439309
 79
     2
 49
26.86118323298722
 49
-16553.23227874064
 53
83.25300000000003
 43
42930.88560608263
 44
3938.615307518613
 45
39.75591911914366
 46
0.0002898923439309
 79
     2
 49
26.86118323298722
 49
-16553.23227874064
 53
83.25300000000003
 43
42930.88560608263
 44
3804.751439593108
 45
39.75591911914366
 46
0.0002898923439309
 79
     2
 49
26.86118323298722
 49
-16553.23227874064
 53
83.25300000000003
 43
42930.88560608263
 44
3670.887571667573
 45
39.75591911914366
 46
0.0002898923439309
 79
     2
 49
26.86118323298722
 49
-16553.23227874064
 53
83.25300000000003
 43
42930.88560608263
 44
3537.023703742067
 45
39.75591911914366
 46
0.0002898923439309
 79
     2
 49
26.86118323298722
 49
-16553.23227874064
 53
83.25300000000003
 43
42930.88560608263
 44
3403.159835816533
 45
39.75591911914366
 46
0.0002898923439309
 79
     2
 49
26.86118323298722
 49
-16553.23227874064
 53
83.25300000000003
 43
42930.88560608263
 44
3269.295967890999
 45
39.75591911914366
 46
0.0002898923439309
 79
     2
 49
26.86118323298722
 49
-16553.23227874064
 53
83.25300000000003
 43
42930.88560608263
 44
3135.432099965489
 45
39.75591911914366
 46
0.0002898923439309
 79
     2
 49
26.86118323298722
 49
-16553.23227874064
 53
83.25300000000003
 43
42930.88560608263
 44
3001.568232039984
 45
39.75591911914366
 46
0.0002898923439309
 79
     2
 49
26.86118323298722
 49
-16553.23227874064
 53
83.25300000000003
 43
42930.88560608263
 44
2867.70436411445
 45
39.75591911914366
 46
0.0002898923439309
 79
     2
 49
26.86118323298722
 49
-16553.23227874064
 53
83.25300000000003
 43
42930.88560608263
 44
2733.840496188918
 45
39.75591911914366
 46
0.0002898923439309
 79
     2
 49
26.86118323298722
 49
-16553.23227874064
 53
83.25300000000003
 43
42930.88560608263
 44
2599.976628263409
 45
39.75591911914366
 46
0.0002898923439309
 79
     2
 49
26.86118323298722
 49
-16553.23227874064
 53
83.25300000000003
 43
42930.88560608263
 44
2466.1127603379
 45
39.75591911914366
 46
0.0002898923439309
 79
     2
 49
26.86118323298722
 49
-16553.23227874064
 53
83.25300000000003
 43
42930.88560608263
 44
2332.248892412394
 45
39.75591911914366
 46
0.0002898923439309
 79
     2
 49
26.86118323298722
 49
-16553.23227874064
 53
83.25300000000003
 43
42930.88560608263
 44
2198.38502448686
 45
39.75591911914366
 46
0.0002898923439309
 79
     2
 49
26.86118323298722
 49
-16553.23227874064
 53
83.25300000000003
 43
42930.88560608263
 44
2064.521156561326
 45
39.75591911914366
 46
0.0002898923439309
 79
     2
 49
26.86118323298722
 49
-16553.23227874064
 53
83.25300000000003
 43
42930.88560608263
 44
1930.65728863582
 45
39.75591911914366
 46
0.0002898923439309
 79
     2
 49
26.86118323298722
 49
-16553.23227874064
 53
83.25300000000003
 43
42930.88560608263
 44
1796.793420710311
 45
39.75591911914366
 46
0.0002898923439309
 79
     2
 49
26.86118323298722
 49
-16553.23227874064
 53
83.25300000000003
 43
42930.88560608263
 44
1662.929552784776
 45
39.75591911914366
 46
0.0002898923439309
 79
     2
 49
26.86118323298722
 49
-16553.23227874064
 53
83.25300000000003
 43
42930.88560608263
 44
1529.065684859241
 45
39.75591911914366
 46
0.0002898923439309
 79
     2
 49
26.86118323298722
 49
-16553.23227874064
 53
83.25300000000003
 43
42930.88560608263
 44
1395.201816933736
 45
39.75591911914366
 46
0.0002898923439309
 79
     2
 49
26.86118323298722
 49
-16553.23227874064
 53
83.25300000000003
 43
42930.88560608263
 44
1261.337949008227
 45
39.75591911914366
 46
0.0002898923439309
 79
     2
 49
26.86118323298722
 49
-16553.23227874064
 53
83.25300000000003
 43
42930.88560608263
 44
1127.474081082696
 45
39.75591911914366
 46
0.0002898923439309
 79
     2
 49
26.86118323298722
 49
-16553.23227874064
 53
83.25300000000003
 43
42930.88560608263
 44
993.6102131571615
 45
39.75591911914366
 46
0.0002898923439309
 79
     2
 49
26.86118323298722
 49
-16553.23227874064
 53
83.25300000000003
 43
42930.88560608263
 44
859.746345231656
 45
39.75591911914366
 46
0.0002898923439309
 79
     2
 49
26.86118323298722
 49
-16553.23227874064
 53
83.25300000000003
 43
42930.88560608263
 44
725.8824773061469
 45
39.75591911914366
 46
0.0002898923439309
 79
     2
 49
26.86118323298722
 49
-16553.23227874064
 53
83.25300000000003
 43
42930.88560608263
 44
592.0186093806377
 45
39.75591911914366
 46
0.0002898923439309
 79
     2
 49
26.86118323298722
 49
-16553.23227874064
 53
83.25300000000003
 43
42930.88560608263
 44
458.1547414551032
 45
39.75591911914366
 46
0.0002898923439309
 79
     2
 49
26.86118323298722
 49
-16553.23227874064
 53
83.25300000000003
 43
42930.88560608263
 44
324.2908735295723
 45
39.75591911914366
 46
0.0002898923439309
 79
     2
 49
26.86118323298722
 49
-16553.23227874064
 53
83.25300000000003
 43
42930.88560608263
 44
190.4270056040632
 45
39.75591911914366
 46
0.0002898923439309
 79
     2
 49
26.86118323298722
 49
-16553.23227874064
 53
83.25300000000003
 43
42930.88560608263
 44
56.56313767853226
 45
39.75591911914366
 46
0.0002898923439309
 79
     2
 49
26.86118323298722
 49
-16553.23227874064
 53
83.25300000000003
 43
42930.88560608263
 44
-77.30073024697685
 45
39.75591911914366
 46
0.0002898923439309
 79
     2
 49
26.86118323298722
 49
-16553.23227874064
 53
83.25300000000003
 43
42930.88560608263
 44
-211.1645981725114
 45
39.75591911914366
 46
0.0002898923439309
 79
     2
 49
26.86118323298722
 49
-16553.23227874064
 53
83.25300000000003
 43
42930.88560608263
 44
-345.0284660980206
 45
39.75591911914366
 46
0.0002898923439309
 79
     2
 49
26.86118323298722
 49
-16553.23227874064
 53
83.25300000000003
 43
42930.88560608263
 44
-478.892334023526
 45
39.75591911914366
 46
0.0002898923439309
 79
     2
 49
26.86118323298722
 49
-16553.23227874064
 53
83.25300000000003
 43
42930.88560608263
 44
-612.7562019490605
 45
39.75591911914366
 46
0.0002898923439309
 79
     2
 49
26.86118323298722
 49
-16553.23227874064
 53
83.25300000000003
 43
42930.88560608263
 44
-746.6200698745915
 45
39.75591911914366
 46
0.0002898923439309
 79
     2
 49
26.86118323298722
 49
-16553.23227874064
 53
83.25300000000003
 43
42930.88560608263
 44
-880.4839378001005
 45
39.75591911914366
 46
0.0002898923439309
 79
     2
 49
26.86118323298722
 49
-16553.23227874064
 53
83.25300000000003
 43
42930.88560608263
 44
-1014.347805725606
 45
39.75591911914366
 46
0.0002898923439309
 79
     2
 49
26.86118323298722
 49
-16553.23227874064
 53
83.25300000000003
 43
42930.88560608263
 44
-1148.21167365114
 45
39.75591911914366
 46
0.0002898923439309
 79
     2
 49
26.86118323298722
 49
-16553.23227874064
 53
83.25300000000003
 43
42930.88560608263
 44
-1282.075541576675
 45
39.75591911914366
 46
0.0002898923439309
 79
     2
 49
26.86118323298722
 49
-16553.23227874064
 53
83.25300000000003
 43
42930.88560608263
 44
-1415.939409502184
 45
39.75591911914366
 46
0.0002898923439309
 79
     2
 49
26.86118323298722
 49
-16553.23227874064
 53
83.25300000000003
 43
42930.88560608263
 44
-1549.80327742769
 45
39.75591911914366
 46
0.0002898923439309
 79
     2
 49
26.86118323298722
 49
-16553.23227874064
 53
83.25300000000003
 43
42930.88560608263
 44
-1683.667145353199
 45
39.75591911914366
 46
0.0002898923439309
 79
     2
 49
26.86118323298722
 49
-16553.23227874064
 53
83.25300000000003
 43
42930.88560608263
 44
-1817.53101327873
 45
39.75591911914366
 46
0.0002898923439309
 79
     2
 49
26.86118323298722
 49
-16553.23227874064
 53
83.25300000000003
 43
42930.88560608263
 44
-1951.394881204264
 45
39.75591911914366
 46
0.0002898923439309
 79
     2
 49
26.86118323298722
 49
-16553.23227874064
 53
83.25300000000003
 43
42930.88560608263
 44
-2085.258749129774
 45
39.75591911914366
 46
0.0002898923439309
 79
     2
 49
26.86118323298722
 49
-16553.23227874064
 53
83.25300000000003
 43
42930.88560608263
 44
-2219.122617055283
 45
39.75591911914366
 46
0.0002898923439309
 79
     2
 49
26.86118323298722
 49
-16553.23227874064
 53
83.25300000000003
 43
42930.88560608263
 44
-2352.986484980839
 45
39.75591911914366
 46
0.0002898923439309
 79
     2
 49
26.86118323298722
 49
-16553.23227874064
 53
83.25300000000003
 43
42930.88560608263
 44
-2486.850352906348
 45
39.75591911914366
 46
0.0002898923439309
 79
     2
 49
26.86118323298722
 49
-16553.23227874064
 53
83.25300000000003
 43
42930.88560608263
 44
-2620.714220831854
 45
39.75591911914366
 46
0.0002898923439309
 79
     2
 49
26.86118323298722
 49
-16553.23227874064
 53
83.25300000000003
 43
42930.88560608263
 44
-2754.578088757363
 45
39.75591911914366
 46
0.0002898923439309
 79
     2
 49
26.86118323298722
 49
-16553.23227874064
 53
83.25300000000003
 43
42930.88560608263
 44
-2888.441956682898
 45
39.75591911914366
 46
0.0002898923439309
 79
     2
 49
26.86118323298722
 49
-16553.23227874064
 53
83.25300000000003
 43
42930.88560608263
 44
-3022.305824608432
 45
39.75591911914366
 46
0.0002898923439309
 79
     2
 49
26.86118323298722
 49
-16553.23227874064
 53
83.25300000000003
 43
42930.88560608263
 44
-3156.169692533938
 45
39.75591911914366
 46
0.0002898923439309
 79
     2
 49
26.86118323298722
 49
-16553.23227874064
 53
83.25300000000003
 43
42930.88560608263
 44
-3290.033560459447
 45
39.75591911914366
 46
0.0002898923439309
 79
     2
 49
26.86118323298722
 49
-16553.23227874064
 53
83.25300000000003
 43
42930.88560608263
 44
-3423.897428384978
 45
39.75591911914366
 46
0.0002898923439309
 79
     2
 49
26.86118323298722
 49
-16553.23227874064
 53
83.25300000000003
 43
42930.88560608263
 44
-3557.761296310487
 45
39.75591911914366
 46
0.0002898923439309
 79
     2
 49
26.86118323298722
 49
-16553.23227874064
 53
83.25300000000003
 43
42930.88560608263
 44
-3691.625164236022
 45
39.75591911914366
 46
0.0002898923439309
 79
     2
 49
26.86118323298722
 49
-16553.23227874064
 53
83.25300000000003
 43
42930.88560608263
 44
-3825.489032161527
 45
39.75591911914366
 46
0.0002898923439309
 79
     2
 49
26.86118323298722
 49
-16553.23227874064
 53
83.25300000000003
 43
42930.88560608263
 44
-3959.352900087061
 45
39.75591911914366
 46
0.0002898923439309
 79
     2
 49
26.86118323298722
 49
-16553.23227874064
 53
83.25300000000003
 43
42930.88560608263
 44
-4093.216768012569
 45
39.75591911914366
 46
0.0002898923439309
 79
     2
 49
26.86118323298722
 49
-16553.23227874064
 53
83.25300000000003
 43
42930.88560608263
 44
-4227.080635938101
 45
39.75591911914366
 46
0.0002898923439309
 79
     2
 49
26.86118323298722
 49
-16553.23227874064
 53
83.25300000000003
 43
42930.88560608263
 44
-4360.94450386361
 45
39.75591911914366
 46
0.0002898923439309
 79
     2
 49
26.86118323298722
 49
-16553.23227874064
 53
83.25300000000003
 43
42930.88560608263
 44
-4494.808371789145
 45
39.75591911914366
 46
0.0002898923439309
 79
     2
 49
26.86118323298722
 49
-16553.23227874064
 53
83.25300000000003
 43
42930.88560608263
 44
-4628.67223971465
 45
39.75591911914366
 46
0.0002898923439309
 79
     2
 49
26.86118323298722
 49
-16553.23227874064
 53
83.25300000000003
 43
42930.88560608263
 44
-4762.536107640158
 45
39.75591911914366
 46
0.0002898923439309
 79
     2
 49
26.86118323298722
 49
-16553.23227874064
 53
83.25300000000003
 43
42930.88560608263
 44
-4896.399975565692
 45
39.75591911914366
 46
0.0002898923439309
 79
     2
 49
26.86118323298722
 49
-16553.23227874064
 53
83.25300000000003
 43
42930.88560608263
 44
-5030.2638434912
 45
39.75591911914366
 46
0.0002898923439309
 79
     2
 49
26.86118323298722
 49
-16553.23227874064
 53
83.25300000000003
 43
42930.88560608263
 44
-5164.127711416734
 45
39.75591911914366
 46
0.0002898923439309
 79
     2
 49
26.86118323298722
 49
-16553.23227874064
 53
83.25300000000003
 43
42930.88560608263
 44
-5297.991579342267
 45
39.75591911914366
 46
0.0002898923439309
 79
     2
 49
26.86118323298722
 49
-16553.23227874064
 53
83.25300000000003
 43
42930.88560608263
 44
-5431.855447267775
 45
39.75591911914366
 46
0.0002898923439309
 79
     2
 49
26.86118323298722
 49
-16553.23227874064
 53
83.25300000000003
 43
42930.88560608263
 44
-5565.719315193281
 45
39.75591911914366
 46
0.0002898923439309
 79
     2
 49
26.86118323298722
 49
-16553.23227874064
 53
83.25300000000003
 43
42930.88560608263
 44
-5699.583183118816
 45
39.75591911914366
 46
0.0002898923439309
 79
     2
 49
26.86118323298722
 49
-16553.23227874064
 53
83.25300000000003
 43
42930.88560608263
 44
-5833.447051044348
 45
39.75591911914366
 46
0.0002898923439309
 79
     2
 49
26.86118323298722
 49
-16553.23227874064
 53
83.25300000000003
 43
42930.88560608263
 44
-5967.310918969857
 45
39.75591911914366
 46
0.0002898923439309
 79
     2
 49
26.86118323298722
 49
-16553.23227874064
 53
83.25300000000003
 43
42930.88560608263
 44
-6101.174786895363
 45
39.75591911914366
 46
0.0002898923439309
 79
     2
 49
26.86118323298722
 49
-16553.23227874064
 53
83.25300000000003
 43
42930.88560608263
 44
-6235.038654820898
 45
39.75591911914366
 46
0.0002898923439309
 79
     2
 49
26.86118323298722
 49
-16553.23227874064
 53
83.25300000000003
 43
42930.88560608263
 44
-6368.902522746406
 45
39.75591911914366
 46
0.0002898923439309
 79
     2
 49
26.86118323298722
 49
-16553.23227874064
 53
83.25300000000003
 43
42930.88560608263
 44
-6502.76639067194
 45
39.75591911914366
 46
0.0002898923439309
 79
     2
 49
26.86118323298722
 49
-16553.23227874064
 53
83.25300000000003
 43
42930.88560608263
 44
-6636.630258597446
 45
39.75591911914366
 46
0.0002898923439309
 79
     2
 49
26.86118323298722
 49
-16553.23227874064
 53
83.25300000000003
 43
42930.88560608263
 44
-6770.506025533446
 45
39.75591911914366
 46
0.0002898923439309
 79
     2
 49
26.86118323298722
 49
-16553.23227874064
 53
83.25300000000003
 43
42930.88560608263
 44
-6904.369893458978
 45
39.75591911914366
 46
0.0002898923439309
 79
     2
 49
26.86118323298722
 49
-16553.23227874064
 53
83.25300000000003
 43
42930.88560608263
 44
-7038.23376138451
 45
39.75591911914366
 46
0.0002898923439309
 79
     2
 49
26.86118323298722
 49
-16553.23227874064
 53
83.25300000000003
 43
42930.88560608263
 44
-7172.09762931002
 45
39.75591911914366
 46
0.0002898923439309
 79
     2
 49
26.86118323298722
 49
-16553.23227874064
 53
83.25300000000003
 43
42930.88560608263
 44
-7305.961497235528
 45
39.75591911914366
 46
0.0002898923439309
 79
     2
 49
26.86118323298722
 49
-16553.23227874064
 53
83.25300000000003
 43
42930.88560608263
 44
-7439.82536516106
 45
39.75591911914366
 46
0.0002898923439309
 79
     2
 49
26.86118323298722
 49
-16553.23227874064
 53
83.25300000000003
 43
42930.88560608263
 44
-7573.689233086596
 45
39.75591911914366
 46
0.0002898923439309
 79
     2
 49
26.86118323298722
 49
-16553.23227874064
 53
83.25300000000003
 43
42930.88560608263
 44
-7707.553101012102
 45
39.75591911914366
 46
0.0002898923439309
 79
     2
 49
26.86118323298722
 49
-16553.23227874064
 53
83.25300000000003
 43
42930.88560608263
 44
-7841.416968937609
 45
39.75591911914366
 46
0.0002898923439309
 79
     2
 49
26.86118323298722
 49
-16553.23227874064
 53
83.25300000000003
 43
42930.88560608263
 44
-7975.280836863119
 45
39.75591911914366
 46
0.0002898923439309
 79
     2
 49
26.86118323298722
 49
-16553.23227874064
 53
83.25300000000003
 43
42930.88560608263
 44
-8109.144704788651
 45
39.75591911914366
 46
0.0002898923439309
 79
     2
 49
26.86118323298722
 49
-16553.23227874064
 53
83.25300000000003
 43
42930.88560608263
 44
-8243.008572714186
 45
39.75591911914366
 46
0.0002898923439309
 79
     2
 49
26.86118323298722
 49
-16553.23227874064
 53
83.25300000000003
 43
42930.88560608263
 44
-8376.872440639692
 45
39.75591911914366
 46
0.0002898923439309
 79
     2
 49
26.86118323298722
 49
-16553.23227874064
 53
83.25300000000003
 43
42930.88560608263
 44
-8510.736308565199
 45
39.75591911914366
 46
0.0002898923439309
 79
     2
 49
26.86118323298722
 49
-16553.23227874064
 53
83.25300000000003
 43
42930.88560608263
 44
-8644.600176490733
 45
39.75591911914366
 46
0.0002898923439309
 79
     2
 49
26.86118323298722
 49
-16553.23227874064
 53
83.25300000000003
 43
42930.88560608263
 44
-8778.464044416269
 45
39.75591911914366
 46
0.0002898923439309
 79
     2
 49
26.86118323298722
 49
-16553.23227874064
 53
83.25300000000003
 43
42930.88560608263
 44
-8912.327912341774
 45
39.75591911914366
 46
0.0002898923439309
 79
     2
 49
26.86118323298722
 49
-16553.23227874064
 53
83.25300000000003
 43
42930.88560608263
 44
-9046.191780267283
 45
39.75591911914366
 46
0.0002898923439309
 79
     2
 49
26.86118323298722
 49
-16553.23227874064
 53
83.25300000000003
 43
42930.88560608263
 44
-9180.055648192814
 45
39.75591911914366
 46
0.0002898923439309
 79
     2
 49
26.86118323298722
 49
-16553.23227874064
 53
83.25300000000003
 43
42930.88560608263
 44
-9313.91951611835
 45
39.75591911914366
 46
0.0002898923439309
 79
     2
 49
26.86118323298722
 49
-16553.23227874064
 53
83.25300000000003
 43
42930.88560608263
 44
-9447.783384043857
 45
39.75591911914366
 46
0.0002898923439309
 79
     2
 49
26.86118323298722
 49
-16553.23227874064
 53
83.25300000000003
 43
42930.88560608263
 44
-9581.647251969362
 45
39.75591911914366
 46
0.0002898923439309
 79
     2
 49
26.86118323298722
 49
-16553.23227874064
 53
83.25300000000003
 43
42930.88560608263
 44
-9715.511119894898
 45
39.75591911914366
 46
0.0002898923439309
 79
     2
 49
26.86118323298722
 49
-16553.23227874064
 53
83.25300000000003
 43
42930.88560608263
 44
-9849.374987820432
 45
39.75591911914366
 46
0.0002898923439309
 79
     2
 49
26.86118323298722
 49
-16553.23227874064
 53
83.25300000000003
 43
42930.88560608263
 44
-9983.238855745938
 45
39.75591911914366
 46
0.0002898923439309
 79
     2
 49
26.86118323298722
 49
-16553.23227874064
 53
83.25300000000003
 43
42930.88560608263
 44
-10117.10272367144
 45
39.75591911914366
 46
0.0002898923439309
 79
     2
 49
26.86118323298722
 49
-16553.23227874064
 53
83.25300000000003
 43
42930.88560608263
 44
-10250.96659159698
 45
39.75591911914366
 46
0.0002898923439309
 79
     2
 49
26.86118323298722
 49
-16553.23227874064
 53
83.25300000000003
 43
42930.88560608263
 44
-10384.83045952248
 45
39.75591911914366
 46
0.0002898923439309
 79
     2
 49
26.86118323298722
 49
-16553.23227874064
 53
83.25300000000003
 43
42930.88560608263
 44
-10518.69432744802
 45
39.75591911914366
 46
0.0002898923439309
 79
     2
 49
26.86118323298722
 49
-16553.23227874064
 53
83.25300000000003
 43
42930.88560608263
 44
-10652.55819537353
 45
39.75591911914366
 46
0.0002898923439309
 79
     2
 49
26.86118323298722
 49
-16553.23227874064
 53
83.25300000000003
 43
42930.88560608263
 44
-10786.42206329903
 45
39.75591911914366
 46
0.0002898923439309
 79
     2
 49
26.86118323298722
 49
-16553.23227874064
 53
83.25300000000003
 43
42930.88560608263
 44
-10920.28593122457
 45
39.75591911914366
 46
0.0002898923439309
 79
     2
 49
26.86118323298722
 49
-16553.23227874064
 53
83.25300000000003
 43
42930.88560608263
 44
-11054.1497991501
 45
39.75591911914366
 46
0.0002898923439309
 79
     2
 49
26.86118323298722
 49
-16553.23227874064
 53
83.25300000000003
 43
42930.88560608263
 44
-11188.01366707561
 45
39.75591911914366
 46
0.0002898923439309
 79
     2
 49
26.86118323298722
 49
-16553.23227874064
 53
74.89100000000004
 43
42925.0650861151
 44
5130.630809908169
 45
39.75585674360782
 46
-0.0000110486508308
 79
     2
 49
13.20944850668065
 49
-1512.017376140759
 53
74.89100000000004
 43
42925.0650861151
 44
4996.766941982635
 45
39.75585674360782
 46
-0.0000110486508308
 79
     2
 49
13.20944850668065
 49
-1512.017376140759
 53
74.89100000000004
 43
42925.0650861151
 44
4862.903074057125
 45
39.75585674360782
 46
-0.0000110486508308
 79
     2
 49
13.20944850668065
 49
-1512.017376140759
 53
74.89100000000004
 43
42925.0650861151
 44
4729.039206131591
 45
39.75585674360782
 46
-0.0000110486508308
 79
     2
 49
13.20944850668065
 49
-1512.017376140759
 53
74.89100000000004
 43
42925.0650861151
 44
4595.175338206086
 45
39.75585674360782
 46
-0.0000110486508308
 79
     2
 49
13.20944850668065
 49
-1512.017376140759
 53
74.89100000000004
 43
42925.0650861151
 44
4461.311470280551
 45
39.75585674360782
 46
-0.0000110486508308
 79
     2
 49
13.20944850668065
 49
-1512.017376140759
 53
74.89100000000004
 43
42925.0650861151
 44
4327.447602355046
 45
39.75585674360782
 46
-0.0000110486508308
 79
     2
 49
13.20944850668065
 49
-1512.017376140759
 53
74.89100000000004
 43
42925.0650861151
 44
4193.583734429512
 45
39.75585674360782
 46
-0.0000110486508308
 79
     2
 49
13.20944850668065
 49
-1512.017376140759
 53
74.89100000000004
 43
42925.0650861151
 44
4059.723436207155
 45
39.75585674360782
 46
-0.0000110486508308
 79
     2
 49
13.20944850668065
 49
-1512.017376140759
 53
74.89100000000004
 43
42925.0650861151
 44
3925.859568281621
 45
39.75585674360782
 46
-0.0000110486508308
 79
     2
 49
13.20944850668065
 49
-1512.017376140759
 53
74.89100000000004
 43
42925.0650861151
 44
3791.99570035609
 45
39.75585674360782
 46
-0.0000110486508308
 79
     2
 49
13.20944850668065
 49
-1512.017376140759
 53
67.06200000000002
 43
42934.04753013808
 44
5170.059252052085
 45
39.75591328370574
 46
0.0002941157301779
 79
     2
 49
30.44290437825485
 49
-5783.884461102885
 53
67.06200000000002
 43
42934.04753013808
 44
5036.195503116688
 45
39.75591328370574
 46
0.0002941157301779
 79
     2
 49
30.44290437825485
 49
-5783.884461102885
 53
67.06200000000002
 43
42934.04753013808
 44
4902.331635191178
 45
39.75591328370574
 46
0.0002941157301779
 79
     2
 49
30.44290437825485
 49
-5783.884461102885
 53
67.06200000000002
 43
42934.04753013808
 44
4768.467767265644
 45
39.75591328370574
 46
0.0002941157301779
 79
     2
 49
30.44290437825485
 49
-5783.884461102885
 53
67.06200000000002
 43
42934.04753013808
 44
4634.60389934011
 45
39.75591328370574
 46
0.0002941157301779
 79
     2
 49
30.44290437825485
 49
-5783.884461102885
 53
67.06200000000002
 43
42934.04753013808
 44
4500.740031414604
 45
39.75591328370574
 46
0.0002941157301779
 79
     2
 49
30.44290437825485
 49
-5783.884461102885
 53
67.06200000000002
 43
42934.04753013808
 44
4366.876163489099
 45
39.75591328370574
 46
0.0002941157301779
 79
     2
 49
30.44290437825485
 49
-5783.884461102885
 53
67.06200000000002
 43
42934.04753013808
 44
4233.01229556356
 45
39.75591328370574
 46
0.0002941157301779
 79
     2
 49
30.44290437825485
 49
-5783.884461102885
 53
67.06200000000002
 43
42934.04753013808
 44
4099.148427638055
 45
39.75591328370574
 46
0.0002941157301779
 79
     2
 49
30.44290437825485
 49
-5783.884461102885
 53
67.06200000000002
 43
42934.04753013808
 44
3965.280990009368
 45
39.75591328370574
 46
0.0002941157301779
 79
     2
 49
30.44290437825485
 49
-5783.884461102885
 53
67.06200000000002
 43
42934.04753013808
 44
3831.417122083863
 45
39.75591328370574
 46
0.0002941157301779
 79
     2
 49
30.44290437825485
 49
-5783.884461102885
 53
67.06200000000002
 43
42934.04753013808
 44
3697.553254158328
 45
39.75591328370574
 46
0.0002941157301779
 79
     2
 49
30.44290437825485
 49
-5783.884461102885
 53
67.06200000000002
 43
42934.04753013808
 44
3563.689386232823
 45
39.75591328370574
 46
0.0002941157301779
 79
     2
 49
30.44290437825485
 49
-5783.884461102885
 53
67.06200000000002
 43
42934.04753013808
 44
3429.825518307313
 45
39.75591328370574
 46
0.0002941157301779
 79
     2
 49
30.44290437825485
 49
-5783.884461102885
 53
67.06200000000002
 43
42934.04753013808
 44
3295.961650381779
 45
39.75591328370574
 46
0.0002941157301779
 79
     2
 49
30.44290437825485
 49
-5783.884461102885
 53
67.06200000000002
 43
42934.04753013808
 44
3162.09778245627
 45
39.75591328370574
 46
0.0002941157301779
 79
     2
 49
30.44290437825485
 49
-5783.884461102885
 53
67.06200000000002
 43
42934.04753013808
 44
3028.233914530739
 45
39.75591328370574
 46
0.0002941157301779
 79
     2
 49
30.44290437825485
 49
-5783.884461102885
 53
67.06200000000002
 43
42934.04753013808
 44
2894.370046605205
 45
39.75591328370574
 46
0.0002941157301779
 79
     2
 49
30.44290437825485
 49
-5783.884461102885
 53
67.06200000000002
 43
42934.04753013808
 44
2760.506178679699
 45
39.75591328370574
 46
0.0002941157301779
 79
     2
 49
30.44290437825485
 49
-5783.884461102885
 53
67.06200000000002
 43
42934.04753013808
 44
2626.64231075419
 45
39.75591328370574
 46
0.0002941157301779
 79
     2
 49
30.44290437825485
 49
-5783.884461102885
 53
67.06200000000002
 43
42934.04753013808
 44
2492.778442828655
 45
39.75591328370574
 46
0.0002941157301779
 79
     2
 49
30.44290437825485
 49
-5783.884461102885
 53
67.06200000000002
 43
42934.04753013808
 44
2358.914574903121
 45
39.75591328370574
 46
0.0002941157301779
 79
     2
 49
30.44290437825485
 49
-5783.884461102885
 53
67.06200000000002
 43
42934.04753013808
 44
2225.050706977615
 45
39.75591328370574
 46
0.0002941157301779
 79
     2
 49
30.44290437825485
 49
-5783.884461102885
 53
67.06200000000002
 43
42934.04753013808
 44
2091.186839052106
 45
39.75591328370574
 46
0.0002941157301779
 79
     2
 49
30.44290437825485
 49
-5783.884461102885
 53
67.06200000000002
 43
42934.04753013808
 44
1957.3229711266
 45
39.75591328370574
 46
0.0002941157301779
 79
     2
 49
30.44290437825485
 49
-5783.884461102885
 53
67.06200000000002
 43
42934.04753013808
 44
1823.459103201066
 45
39.75591328370574
 46
0.0002941157301779
 79
     2
 49
30.44290437825485
 49
-5783.884461102885
 53
67.06200000000002
 43
42934.04753013808
 44
1689.595235275534
 45
39.75591328370574
 46
0.0002941157301779
 79
     2
 49
30.44290437825485
 49
-5783.884461102885
 53
67.06200000000002
 43
42934.04753013808
 44
1555.731367350025
 45
39.75591328370574
 46
0.0002941157301779
 79
     2
 49
30.44290437825485
 49
-5783.884461102885
 53
67.06200000000002
 43
42934.04753013808
 44
1421.867499424516
 45
39.75591328370574
 46
0.0002941157301779
 79
     2
 49
30.44290437825485
 49
-5783.884461102885
 53
67.06200000000002
 43
42934.04753013808
 44
1288.003631498982
 45
39.75591328370574
 46
0.0002941157301779
 79
     2
 49
30.44290437825485
 49
-5783.884461102885
 53
67.06200000000002
 43
42934.04753013808
 44
1154.139763573447
 45
39.75591328370574
 46
0.0002941157301779
 79
     2
 49
30.44290437825485
 49
-5783.884461102885
 53
67.06200000000002
 43
42934.04753013808
 44
1020.275895647942
 45
39.75591328370574
 46
0.0002941157301779
 79
     2
 49
30.44290437825485
 49
-5783.884461102885
 53
67.06200000000002
 43
42934.04753013808
 44
886.4120277224365
 45
39.75591328370574
 46
0.0002941157301779
 79
     2
 49
30.44290437825485
 49
-5783.884461102885
 53
67.06200000000002
 43
42934.04753013808
 44
752.5481597969019
 45
39.75591328370574
 46
0.0002941157301779
 79
     2
 49
30.44290437825485
 49
-5783.884461102885
 53
67.06200000000002
 43
42934.04753013808
 44
618.6842918713673
 45
39.75591328370574
 46
0.0002941157301779
 79
     2
 49
30.44290437825485
 49
-5783.884461102885
 53
67.06200000000002
 43
42934.04753013808
 44
484.8204239458582
 45
39.75591328370574
 46
0.0002941157301779
 79
     2
 49
30.44290437825485
 49
-5783.884461102885
 53
67.06200000000002
 43
42934.04753013808
 44
350.9565560203528
 45
39.75591328370574
 46
0.0002941157301779
 79
     2
 49
30.44290437825485
 49
-5783.884461102885
 53
67.06200000000002
 43
42934.04753013808
 44
217.0926880948436
 45
39.75591328370574
 46
0.0002941157301779
 79
     2
 49
30.44290437825485
 49
-5783.884461102885
 53
67.06200000000002
 43
42934.04753013808
 44
83.22882016931272
 45
39.75591328370574
 46
0.0002941157301779
 79
     2
 49
30.44290437825485
 49
-5783.884461102885
 53
67.06200000000002
 43
42934.04753013808
 44
-50.63504775622186
 45
39.75591328370574
 46
0.0002941157301779
 79
     2
 49
30.44290437825485
 49
-5783.884461102885
 53
52.43499999999998
 43
42910.34985947843
 44
5227.187234308215
 45
39.75587516365481
 46
-0.0001991838662986
 79
     2
 49
16.34697959064519
 49
-6569.897158549879
 53
52.43499999999998
 43
42910.34985947843
 44
5093.323842343115
 45
39.75587516365481
 46
-0.0001991838662986
 79
     2
 49
16.34697959064519
 49
-6569.897158549879
 53
52.43499999999998
 43
42910.34985947843
 44
4959.45997441758
 45
39.75587516365481
 46
-0.0001991838662986
 79
     2
 49
16.34697959064519
 49
-6569.897158549879
 53
52.43499999999998
 43
42910.34985947843
 44
4825.596106492046
 45
39.75587516365481
 46
-0.0001991838662986
 79
     2
 49
16.34697959064519
 49
-6569.897158549879
 53
52.43499999999998
 43
42910.34985947843
 44
4691.732238566539
 45
39.75587516365481
 46
-0.0001991838662986
 79
     2
 49
16.34697959064519
 49
-6569.897158549879
 53
52.43499999999998
 43
42910.34985947843
 44
4557.86837064103
 45
39.75587516365481
 46
-0.0001991838662986
 79
     2
 49
16.34697959064519
 49
-6569.897158549879
 53
52.43499999999998
 43
42910.34985947843
 44
4424.0045027155
 45
39.75587516365481
 46
-0.0001991838662986
 79
     2
 49
16.34697959064519
 49
-6569.897158549879
 53
52.43499999999998
 43
42910.34985947843
 44
4290.140634789991
 45
39.75587516365481
 46
-0.0001991838662986
 79
     2
 49
16.34697959064519
 49
-6569.897158549879
 53
52.43499999999998
 43
42910.34985947843
 44
4156.276766864457
 45
39.75587516365481
 46
-0.0001991838662986
 79
     2
 49
16.34697959064519
 49
-6569.897158549879
 53
52.43499999999998
 43
42910.34985947843
 44
4022.408139334737
 45
39.75587516365481
 46
-0.0001991838662986
 79
     2
 49
16.34697959064519
 49
-6569.897158549879
 53
52.43499999999998
 43
42910.34985947843
 44
3888.544271409229
 45
39.75587516365481
 46
-0.0001991838662986
 79
     2
 49
16.34697959064519
 49
-6569.897158549879
 53
52.43499999999998
 43
42910.34985947843
 44
3754.680403483723
 45
39.75587516365481
 46
-0.0001991838662986
 79
     2
 49
16.34697959064519
 49
-6569.897158549879
 53
52.43499999999998
 43
42910.34985947843
 44
3620.816535558189
 45
39.75587516365481
 46
-0.0001991838662986
 79
     2
 49
16.34697959064519
 49
-6569.897158549879
 53
52.43499999999998
 43
42910.34985947843
 44
3486.952667632654
 45
39.75587516365481
 46
-0.0001991838662986
 79
     2
 49
16.34697959064519
 49
-6569.897158549879
 53
52.43499999999998
 43
42910.34985947843
 44
3353.088799707149
 45
39.75587516365481
 46
-0.0001991838662986
 79
     2
 49
16.34697959064519
 49
-6569.897158549879
 53
52.43499999999998
 43
42910.34985947843
 44
3219.224931781643
 45
39.75587516365481
 46
-0.0001991838662986
 79
     2
 49
16.34697959064519
 49
-6569.897158549879
 53
52.43499999999998
 43
42910.34985947843
 44
3085.361063856109
 45
39.75587516365481
 46
-0.0001991838662986
 79
     2
 49
16.34697959064519
 49
-6569.897158549879
 53
52.43499999999998
 43
42910.34985947843
 44
2951.497195930599
 45
39.75587516365481
 46
-0.0001991838662986
 79
     2
 49
16.34697959064519
 49
-6569.897158549879
 53
52.43499999999998
 43
42910.34985947843
 44
2817.633328005065
 45
39.75587516365481
 46
-0.0001991838662986
 79
     2
 49
16.34697959064519
 49
-6569.897158549879
 53
52.43499999999998
 43
42910.34985947843
 44
2683.76946007956
 45
39.75587516365481
 46
-0.0001991838662986
 79
     2
 49
16.34697959064519
 49
-6569.897158549879
 53
52.43499999999998
 43
42910.34985947843
 44
2549.90559215405
 45
39.75587516365481
 46
-0.0001991838662986
 79
     2
 49
16.34697959064519
 49
-6569.897158549879
 53
52.43499999999998
 43
42910.34985947843
 44
2416.04172422852
 45
39.75587516365481
 46
-0.0001991838662986
 79
     2
 49
16.34697959064519
 49
-6569.897158549879
 53
52.43499999999998
 43
42910.34985947843
 44
2282.177856302985
 45
39.75587516365481
 46
-0.0001991838662986
 79
     2
 49
16.34697959064519
 49
-6569.897158549879
 53
52.43499999999998
 43
42910.34985947843
 44
2148.313988377476
 45
39.75587516365481
 46
-0.0001991838662986
 79
     2
 49
16.34697959064519
 49
-6569.897158549879
 53
52.43499999999998
 43
42910.34985947843
 44
2014.450120451941
 45
39.75587516365481
 46
-0.0001991838662986
 79
     2
 49
16.34697959064519
 49
-6569.897158549879
 53
52.43499999999998
 43
42910.34985947843
 44
1880.586252526435
 45
39.75587516365481
 46
-0.0001991838662986
 79
     2
 49
16.34697959064519
 49
-6569.897158549879
 53
52.43499999999998
 43
42910.34985947843
 44
1746.722384600901
 45
39.75587516365481
 46
-0.0001991838662986
 79
     2
 49
16.34697959064519
 49
-6569.897158549879
 53
52.43499999999998
 43
42910.34985947843
 44
1612.858516675396
 45
39.75587516365481
 46
-0.0001991838662986
 79
     2
 49
16.34697959064519
 49
-6569.897158549879
 53
52.43499999999998
 43
42910.34985947843
 44
1478.994648749886
 45
39.75587516365481
 46
-0.0001991838662986
 79
     2
 49
16.34697959064519
 49
-6569.897158549879
 53
52.43499999999998
 43
42910.34985947843
 44
1345.130780824352
 45
39.75587516365481
 46
-0.0001991838662986
 79
     2
 49
16.34697959064519
 49
-6569.897158549879
 53
52.43499999999998
 43
42910.34985947843
 44
1211.266912898817
 45
39.75587516365481
 46
-0.0001991838662986
 79
     2
 49
16.34697959064519
 49
-6569.897158549879
 53
52.43499999999998
 43
42910.34985947843
 44
1077.403044973312
 45
39.75587516365481
 46
-0.0001991838662986
 79
     2
 49
16.34697959064519
 49
-6569.897158549879
 53
52.43499999999998
 43
42910.34985947843
 44
943.5391770478027
 45
39.75587516365481
 46
-0.0001991838662986
 79
     2
 49
16.34697959064519
 49
-6569.897158549879
 53
52.43499999999998
 43
42910.34985947843
 44
809.675309122268
 45
39.75587516365481
 46
-0.0001991838662986
 79
     2
 49
16.34697959064519
 49
-6569.897158549879
 53
52.43499999999998
 43
42910.34985947843
 44
675.8114411967626
 45
39.75587516365481
 46
-0.0001991838662986
 79
     2
 49
16.34697959064519
 49
-6569.897158549879
 53
52.43499999999998
 43
42910.34985947843
 44
541.947573271228
 45
39.75587516365481
 46
-0.0001991838662986
 79
     2
 49
16.34697959064519
 49
-6569.897158549879
 53
52.43499999999998
 43
42910.34985947843
 44
408.0837053457226
 45
39.75587516365481
 46
-0.0001991838662986
 79
     2
 49
16.34697959064519
 49
-6569.897158549879
 53
52.43499999999998
 43
42910.34985947843
 44
274.219837420188
 45
39.75587516365481
 46
-0.0001991838662986
 79
     2
 49
16.34697959064519
 49
-6569.897158549879
 53
52.43499999999998
 43
42910.34985947843
 44
140.3559694946789
 45
39.75587516365481
 46
-0.0001991838662986
 79
     2
 49
16.34697959064519
 49
-6569.897158549879
 53
25.04599999999999
 43
42909.81781307324
 44
5123.50687233242
 45
39.75589259518684
 46
0.0003200987065788
 79
     2
 49
16.82972244591059
 49
-10734.28048182555
 53
25.04599999999999
 43
42909.81781307324
 44
4989.643004406914
 45
39.75589259518684
 46
0.0003200987065788
 79
     2
 49
16.82972244591059
 49
-10734.28048182555
 53
25.04599999999999
 43
42909.81781307324
 44
4855.77913648138
 45
39.75589259518684
 46
0.0003200987065788
 79
     2
 49
16.82972244591059
 49
-10734.28048182555
 53
25.04599999999999
 43
42909.81781307324
 44
4721.91526855587
 45
39.75589259518684
 46
0.0003200987065788
 79
     2
 49
16.82972244591059
 49
-10734.28048182555
 53
25.04599999999999
 43
42909.81781307324
 44
4588.051400630336
 45
39.75589259518684
 46
0.0003200987065788
 79
     2
 49
16.82972244591059
 49
-10734.28048182555
 53
25.04599999999999
 43
42909.81781307324
 44
4454.187532704827
 45
39.75589259518684
 46
0.0003200987065788
 79
     2
 49
16.82972244591059
 49
-10734.28048182555
 53
25.04599999999999
 43
42909.81781307324
 44
4320.323664779321
 45
39.75589259518684
 46
0.0003200987065788
 79
     2
 49
16.82972244591059
 49
-10734.28048182555
 53
25.04599999999999
 43
42909.81781307324
 44
4186.459796853786
 45
39.75589259518684
 46
0.0003200987065788
 79
     2
 49
16.82972244591059
 49
-10734.28048182555
 53
25.04599999999999
 43
42909.81781307324
 44
4052.595928928251
 45
39.75589259518684
 46
0.0003200987065788
 79
     2
 49
16.82972244591059
 49
-10734.28048182555
 53
25.04599999999999
 43
42909.81781307324
 44
3918.732061002746
 45
39.75589259518684
 46
0.0003200987065788
 79
     2
 49
16.82972244591059
 49
-10734.28048182555
 53
25.04599999999999
 43
42909.81781307324
 44
3784.868193077212
 45
39.75589259518684
 46
0.0003200987065788
 79
     2
 49
16.82972244591059
 49
-10734.28048182555
 53
25.04599999999999
 43
42909.81781307324
 44
3651.004325151703
 45
39.75589259518684
 46
0.0003200987065788
 79
     2
 49
16.82972244591059
 49
-10734.28048182555
 53
25.04599999999999
 43
42909.81781307324
 44
3517.140457226197
 45
39.75589259518684
 46
0.0003200987065788
 79
     2
 49
16.82972244591059
 49
-10734.28048182555
 53
25.04599999999999
 43
42909.81781307324
 44
3383.276589300662
 45
39.75589259518684
 46
0.0003200987065788
 79
     2
 49
16.82972244591059
 49
-10734.28048182555
 53
25.04599999999999
 43
42909.81781307324
 44
3249.412721375158
 45
39.75589259518684
 46
0.0003200987065788
 79
     2
 49
16.82972244591059
 49
-10734.28048182555
 53
25.04599999999999
 43
42909.81781307324
 44
3115.548853449622
 45
39.75589259518684
 46
0.0003200987065788
 79
     2
 49
16.82972244591059
 49
-10734.28048182555
 53
25.04599999999999
 43
42909.81781307324
 44
2981.684985524088
 45
39.75589259518684
 46
0.0003200987065788
 79
     2
 49
16.82972244591059
 49
-10734.28048182555
 53
25.04599999999999
 43
42909.81781307324
 44
2847.821117598579
 45
39.75589259518684
 46
0.0003200987065788
 79
     2
 49
16.82972244591059
 49
-10734.28048182555
 53
25.04599999999999
 43
42909.81781307324
 44
2713.957249673074
 45
39.75589259518684
 46
0.0003200987065788
 79
     2
 49
16.82972244591059
 49
-10734.28048182555
 53
25.04599999999999
 43
42909.81781307324
 44
2580.093381747539
 45
39.75589259518684
 46
0.0003200987065788
 79
     2
 49
16.82972244591059
 49
-10734.28048182555
 53
25.04599999999999
 43
42909.81781307324
 44
2446.229513822034
 45
39.75589259518684
 46
0.0003200987065788
 79
     2
 49
16.82972244591059
 49
-10734.28048182555
 53
25.04599999999999
 43
42909.81781307324
 44
2312.365645896499
 45
39.75589259518684
 46
0.0003200987065788
 79
     2
 49
16.82972244591059
 49
-10734.28048182555
 53
25.04599999999999
 43
42909.81781307324
 44
2178.50177797099
 45
39.75589259518684
 46
0.0003200987065788
 79
     2
 49
16.82972244591059
 49
-10734.28048182555
 53
25.04599999999999
 43
42909.81781307324
 44
2044.637910045484
 45
39.75589259518684
 46
0.0003200987065788
 79
     2
 49
16.82972244591059
 49
-10734.28048182555
 53
25.04599999999999
 43
42909.81781307324
 44
1910.77404211995
 45
39.75589259518684
 46
0.0003200987065788
 79
     2
 49
16.82972244591059
 49
-10734.28048182555
 53
25.04599999999999
 43
42909.81781307324
 44
1776.910174194415
 45
39.75589259518684
 46
0.0003200987065788
 79
     2
 49
16.82972244591059
 49
-10734.28048182555
 53
25.04599999999999
 43
42909.81781307324
 44
1643.046306268909
 45
39.75589259518684
 46
0.0003200987065788
 79
     2
 49
16.82972244591059
 49
-10734.28048182555
 53
25.04599999999999
 43
42909.81781307324
 44
1509.182438343404
 45
39.75589259518684
 46
0.0003200987065788
 79
     2
 49
16.82972244591059
 49
-10734.28048182555
 53
25.04599999999999
 43
42909.81781307324
 44
1375.318570417866
 45
39.75589259518684
 46
0.0003200987065788
 79
     2
 49
16.82972244591059
 49
-10734.28048182555
 53
25.04599999999999
 43
42909.81781307324
 44
1241.454702492331
 45
39.75589259518684
 46
0.0003200987065788
 79
     2
 49
16.82972244591059
 49
-10734.28048182555
 53
25.04599999999999
 43
42909.81781307324
 44
1107.590834566826
 45
39.75589259518684
 46
0.0003200987065788
 79
     2
 49
16.82972244591059
 49
-10734.28048182555
 53
25.04599999999999
 43
42909.81781307324
 44
973.7269666413167
 45
39.75589259518684
 46
0.0003200987065788
 79
     2
 49
16.82972244591059
 49
-10734.28048182555
 53
25.04599999999999
 43
42909.81781307324
 44
839.8630987157858
 45
39.75589259518684
 46
0.0003200987065788
 79
     2
 49
16.82972244591059
 49
-10734.28048182555
 53
25.04599999999999
 43
42909.81781307324
 44
705.9992307902511
 45
39.75589259518684
 46
0.0003200987065788
 79
     2
 49
16.82972244591059
 49
-10734.28048182555
 53
14.07599999999998
 43
42920.3160482435
 44
5240.144780762982
 45
39.75585659252739
 46
-0.0002922356444212
 79
     2
 49
9.670087838729893
 49
-3843.073153322045
 53
14.07599999999998
 43
42920.3160482435
 44
5106.280674857231
 45
39.75585659252739
 46
-0.0002922356444212
 79
     2
 49
9.670087838729893
 49
-3843.073153322045
 53
14.07599999999998
 43
42920.3160482435
 44
4972.416806931722
 45
39.75585659252739
 46
-0.0002922356444212
 79
     2
 49
9.670087838729893
 49
-3843.073153322045
 53
14.07599999999998
 43
42920.3160482435
 44
4838.552939006216
 45
39.75585659252739
 46
-0.0002922356444212
 79
     2
 49
9.670087838729893
 49
-3843.073153322045
 53
14.07599999999998
 43
42920.3160482435
 44
4704.689071080681
 45
39.75585659252739
 46
-0.0002922356444212
 79
     2
 49
9.670087838729893
 49
-3843.073153322045
 53
14.07599999999998
 43
42920.3160482435
 44
4570.82520315515
 45
39.75585659252739
 46
-0.0002922356444212
 79
     2
 49
9.670087838729893
 49
-3843.073153322045
 53
14.07599999999998
 43
42920.3160482435
 44
4436.961335229641
 45
39.75585659252739
 46
-0.0002922356444212
 79
     2
 49
9.670087838729893
 49
-3843.073153322045
 98
        1
 10
4884.604157042723
 20
1018.946215961144
  0
HATCH
  5
5CC1
330
67
100
AcDbEntity
  8
F_01 sichtbar
370
    13
100
AcDbHatch
 10
0.0
 20
0.0
 30
0.0
210
0.0
220
0.0
230
1.0
  2
BATT_INSULATION
 70
     0
 71
     0
 91
        1
 92
        1
 93
        4
 72
     1
 10
423.0583170682876
 20
833.3091023404504
 11
375.5583170683003
 21
819.2345472116622
 72
     1
 10
375.5583170683003
 20
819.2345472116622
 11
375.5583170683021
 21
691.2952698109775
 72
     1
 10
375.5583170683021
 20
691.2952698109775
 11
423.0583170682876
 21
691.2952698109775
 72
     1
 10
423.0583170682876
 20
691.2952698109775
 11
423.0583170682876
 21
833.3091023404504
 97
        0
 75
     0
 76
     2
 52
270.0
 41
46.15373762819272
 77
     0
 78
   528
 53
90.0
 43
-1395.061521483552
 44
17338.62035085892
 45
51.9229548317168
 46
15.42047143269309
 79
     2
 49
0.0
 49
-15.42047143269309
 53
75.92359999999998
 43
-1389.292304280026
 44
17330.91009206569
 45
-0.0000056969334701
 46
15.42045346660799
 79
     2
 49
3.750821949567946
 49
-1490.646556440059
 53
75.92359999999998
 43
-1337.369349448305
 44
17330.91009206569
 45
-0.0000056969334701
 46
15.42045346660799
 79
     2
 49
3.750821949567946
 49
-1490.646556440059
 53
75.92359999999998
 43
-1285.446394616592
 44
17330.91009206569
 45
-0.0000056969334701
 46
15.42045346660799
 79
     2
 49
3.750821949567946
 49
-1490.646556440059
 53
75.92359999999998
 43
-1233.523439784871
 44
17330.91009206569
 45
-0.0000056969334701
 46
15.42045346660799
 79
     2
 49
3.750821949567946
 49
-1490.646556440059
 53
75.92359999999998
 43
-1181.600484953158
 44
17330.91009206569
 45
-0.0000056969334701
 46
15.42045346660799
 79
     2
 49
3.750821949567946
 49
-1490.646556440059
 53
75.92359999999998
 43
-1129.677530121447
 44
17330.91009206569
 45
-0.0000056969334701
 46
15.42045346660799
 79
     2
 49
3.750821949567946
 49
-1490.646556440059
 53
75.92359999999998
 43
-1077.754575289724
 44
17330.91009206569
 45
-0.0000056969334701
 46
15.42045346660799
 79
     2
 49
3.750821949567946
 49
-1490.646556440059
 53
64.95440000000001
 43
-1345.901790923635
 44
17332.70625707297
 45
0.00001650432676
 46
15.42046743135135
 79
     2
 49
6.527892342656226
 49
-4163.599702041419
 53
64.95440000000001
 43
-1293.978836091914
 44
17332.70625707297
 45
0.00001650432676
 46
15.42046743135135
 79
     2
 49
6.527892342656226
 49
-4163.599702041419
 53
64.95440000000001
 43
-1242.055881260203
 44
17332.70625707297
 45
0.00001650432676
 46
15.42046743135135
 79
     2
 49
6.527892342656226
 49
-4163.599702041419
 53
64.95440000000001
 43
-1190.132926428479
 44
17332.70625707297
 45
0.00001650432676
 46
15.42046743135135
 79
     2
 49
6.527892342656226
 49
-4163.599702041419
 53
64.95440000000001
 43
-1138.209971596763
 44
17332.70625707297
 45
0.00001650432676
 46
15.42046743135135
 79
     2
 49
6.527892342656226
 49
-4163.599702041419
 53
64.95440000000001
 43
-1086.287016765045
 44
17332.70625707297
 45
0.00001650432676
 46
15.42046743135135
 79
     2
 49
6.527892342656226
 49
-4163.599702041419
 53
64.95440000000001
 43
-1034.364061933334
 44
17332.70625707297
 45
0.00001650432676
 46
15.42046743135135
 79
     2
 49
6.527892342656226
 49
-4163.599702041419
 53
64.95440000000001
 43
-982.4411071016111
 44
17332.70625707297
 45
0.00001650432676
 46
15.42046743135135
 79
     2
 49
6.527892342656226
 49
-4163.599702041419
 53
64.95440000000001
 43
-930.5195368820314
 44
17332.70625707297
 45
0.00001650432676
 46
15.42046743135135
 79
     2
 49
6.527892342656226
 49
-4163.599702041419
 53
64.95440000000001
 43
-878.5965820503097
 44
17332.70625707297
 45
0.00001650432676
 46
15.42046743135135
 79
     2
 49
6.527892342656226
 49
-4163.599702041419
 53
64.95440000000001
 43
-826.6736272185918
 44
17332.70625707297
 45
0.00001650432676
 46
15.42046743135135
 79
     2
 49
6.527892342656226
 49
-4163.599702041419
 53
64.95440000000001
 43
-774.7506723868755
 44
17332.70625707297
 45
0.00001650432676
 46
15.42046743135135
 79
     2
 49
6.527892342656226
 49
-4163.599702041419
 53
64.95440000000001
 43
-722.8277175551575
 44
17332.70625707297
 45
0.00001650432676
 46
15.42046743135135
 79
     2
 49
6.527892342656226
 49
-4163.599702041419
 53
64.95440000000001
 43
-670.9047627234467
 44
17332.70625707297
 45
0.00001650432676
 46
15.42046743135135
 79
     2
 49
6.527892342656226
 49
-4163.599702041419
 53
64.95440000000001
 43
-618.9818078917287
 44
17332.70625707297
 45
0.00001650432676
 46
15.42046743135135
 79
     2
 49
6.527892342656226
 49
-4163.599702041419
 53
64.95440000000001
 43
-567.058853060007
 44
17332.70625707297
 45
0.00001650432676
 46
15.42046743135135
 79
     2
 49
6.527892342656226
 49
-4163.599702041419
 53
64.95440000000001
 43
-515.1358982282945
 44
17332.70625707297
 45
0.00001650432676
 46
15.42046743135135
 79
     2
 49
6.527892342656226
 49
-4163.599702041419
 53
64.95440000000001
 43
-463.2129433965783
 44
17332.70625707297
 45
0.00001650432676
 46
15.42046743135135
 79
     2
 49
6.527892342656226
 49
-4163.599702041419
 53
64.95440000000001
 43
-411.2899885648602
 44
17332.70625707297
 45
0.00001650432676
 46
15.42046743135135
 79
     2
 49
6.527892342656226
 49
-4163.599702041419
 53
64.95440000000001
 43
-359.3670337331387
 44
17332.70625707297
 45
0.00001650432676
 46
15.42046743135135
 79
     2
 49
6.527892342656226
 49
-4163.599702041419
 53
64.95440000000001
 43
-307.4440789014261
 44
17332.70625707297
 45
0.00001650432676
 46
15.42046743135135
 79
     2
 49
6.527892342656226
 49
-4163.599702041419
 53
64.95440000000001
 43
-255.5211240697099
 44
17332.70625707297
 45
0.00001650432676
 46
15.42046743135135
 79
     2
 49
6.527892342656226
 49
-4163.599702041419
 53
64.95440000000001
 43
-203.5981692379937
 44
17332.70625707297
 45
0.00001650432676
 46
15.42046743135135
 79
     2
 49
6.527892342656226
 49
-4163.599702041419
 53
64.95440000000001
 43
-151.6752144062702
 44
17332.70625707297
 45
0.00001650432676
 46
15.42046743135135
 79
     2
 49
6.527892342656226
 49
-4163.599702041419
 53
64.95440000000001
 43
-99.75225957455769
 44
17332.70625707297
 45
0.00001650432676
 46
15.42046743135135
 79
     2
 49
6.527892342656226
 49
-4163.599702041419
 53
64.95440000000001
 43
-47.82930474284512
 44
17332.70625707297
 45
0.00001650432676
 46
15.42046743135135
 79
     2
 49
6.527892342656226
 49
-4163.599702041419
 53
64.95440000000001
 43
4.09365008887471
 44
17332.70625707297
 45
0.00001650432676
 46
15.42046743135135
 79
     2
 49
6.527892342656226
 49
-4163.599702041419
 53
64.95440000000001
 43
56.01660492058726
 44
17332.70625707297
 45
0.00001650432676
 46
15.42046743135135
 79
     2
 49
6.527892342656226
 49
-4163.599702041419
 53
64.95440000000001
 43
107.9395597523107
 44
17332.70625707297
 45
0.00001650432676
 46
15.42046743135135
 79
     2
 49
6.527892342656226
 49
-4163.599702041419
 53
64.95440000000001
 43
159.8625145840324
 44
17332.70625707297
 45
0.00001650432676
 46
15.42046743135135
 79
     2
 49
6.527892342656226
 49
-4163.599702041419
 53
64.95440000000001
 43
211.7854694157431
 44
17332.70625707297
 45
0.00001650432676
 46
15.42046743135135
 79
     2
 49
6.527892342656226
 49
-4163.599702041419
 53
64.95440000000001
 43
263.7084242474557
 44
17332.70625707297
 45
0.00001650432676
 46
15.42046743135135
 79
     2
 49
6.527892342656226
 49
-4163.599702041419
 53
64.95440000000001
 43
315.6313790791792
 44
17332.70625707297
 45
0.00001650432676
 46
15.42046743135135
 79
     2
 49
6.527892342656226
 49
-4163.599702041419
 53
64.95440000000001
 43
367.5543339108954
 44
17332.70625707297
 45
0.00001650432676
 46
15.42046743135135
 79
     2
 49
6.527892342656226
 49
-4163.599702041419
 53
37.5647
 43
-1388.379937194593
 44
17334.54829889545
 45
0.0000034821466346
 46
15.42046066973198
 79
     2
 49
6.340646629098716
 49
-2548.323746346614
 53
37.5647
 43
-1336.456890055399
 44
17334.54829889545
 45
0.0000034821466346
 46
15.42046066973198
 79
     2
 49
6.340646629098716
 49
-2548.323746346614
 53
37.5647
 43
-1284.533935223682
 44
17334.54829889545
 45
0.0000034821466346
 46
15.42046066973198
 79
     2
 49
6.340646629098716
 49
-2548.323746346614
 53
37.5647
 43
-1232.61098039197
 44
17334.54829889545
 45
0.0000034821466346
 46
15.42046066973198
 79
     2
 49
6.340646629098716
 49
-2548.323746346614
 53
37.5647
 43
-1180.688025560248
 44
17334.54829889545
 45
0.0000034821466346
 46
15.42046066973198
 79
     2
 49
6.340646629098716
 49
-2548.323746346614
 53
37.5647
 43
-1128.765070728525
 44
17334.54829889545
 45
0.0000034821466346
 46
15.42046066973198
 79
     2
 49
6.340646629098716
 49
-2548.323746346614
 53
37.5647
 43
-1076.842115896814
 44
17334.54829889545
 45
0.0000034821466346
 46
15.42046066973198
 79
     2
 49
6.340646629098716
 49
-2548.323746346614
 53
37.5647
 43
-1024.919161065101
 44
17334.54829889545
 45
0.0000034821466346
 46
15.42046066973198
 79
     2
 49
6.340646629098716
 49
-2548.323746346614
 53
37.5647
 43
-972.9962062333797
 44
17334.54829889545
 45
0.0000034821466346
 46
15.42046066973198
 79
     2
 49
6.340646629098716
 49
-2548.323746346614
 53
37.5647
 43
-921.0718667895362
 44
17334.54829889545
 45
0.0000034821466346
 46
15.42046066973198
 79
     2
 49
6.340646629098716
 49
-2548.323746346614
 53
37.5647
 43
-869.1489119578236
 44
17334.54829889545
 45
0.0000034821466346
 46
15.42046066973198
 79
     2
 49
6.340646629098716
 49
-2548.323746346614
 53
37.5647
 43
-817.2259571261019
 44
17334.54829889545
 45
0.0000034821466346
 46
15.42046066973198
 79
     2
 49
6.340646629098716
 49
-2548.323746346614
 53
37.5647
 43
-765.3030022943785
 44
17334.54829889545
 45
0.0000034821466346
 46
15.42046066973198
 79
     2
 49
6.340646629098716
 49
-2548.323746346614
 53
37.5647
 43
-713.3800474626678
 44
17334.54829889545
 45
0.0000034821466346
 46
15.42046066973198
 79
     2
 49
6.340646629098716
 49
-2548.323746346614
 53
37.5647
 43
-661.4570926309552
 44
17334.54829889545
 45
0.0000034821466346
 46
15.42046066973198
 79
     2
 49
6.340646629098716
 49
-2548.323746346614
 53
37.5647
 43
-609.5341377992335
 44
17334.54829889545
 45
0.0000034821466346
 46
15.42046066973198
 79
     2
 49
6.340646629098716
 49
-2548.323746346614
 53
37.5647
 43
-557.6111829675155
 44
17334.54829889545
 45
0.0000034821466346
 46
15.42046066973198
 79
     2
 49
6.340646629098716
 49
-2548.323746346614
 53
37.5647
 43
-505.6882281357993
 44
17334.54829889545
 45
0.0000034821466346
 46
15.42046066973198
 79
     2
 49
6.340646629098716
 49
-2548.323746346614
 53
37.5647
 43
-453.7652733040868
 44
17334.54829889545
 45
0.0000034821466346
 46
15.42046066973198
 79
     2
 49
6.340646629098716
 49
-2548.323746346614
 53
37.5647
 43
-401.8423184723651
 44
17334.54829889545
 45
0.0000034821466346
 46
15.42046066973198
 79
     2
 49
6.340646629098716
 49
-2548.323746346614
 53
37.5647
 43
-349.9193636406526
 44
17334.54829889545
 45
0.0000034821466346
 46
15.42046066973198
 79
     2
 49
6.340646629098716
 49
-2548.323746346614
 53
37.5647
 43
-297.9964088089309
 44
17334.54829889545
 45
0.0000034821466346
 46
15.42046066973198
 79
     2
 49
6.340646629098716
 49
-2548.323746346614
 53
37.5647
 43
-246.0734539772184
 44
17334.54829889545
 45
0.0000034821466346
 46
15.42046066973198
 79
     2
 49
6.340646629098716
 49
-2548.323746346614
 53
37.5647
 43
-194.1504991455003
 44
17334.54829889545
 45
0.0000034821466346
 46
15.42046066973198
 79
     2
 49
6.340646629098716
 49
-2548.323746346614
 53
37.5647
 43
-142.2275443137841
 44
17334.54829889545
 45
0.0000034821466346
 46
15.42046066973198
 79
     2
 49
6.340646629098716
 49
-2548.323746346614
 53
37.5647
 43
-90.3045894820625
 44
17334.54829889545
 45
0.0000034821466346
 46
15.42046066973198
 79
     2
 49
6.340646629098716
 49
-2548.323746346614
 53
37.5647
 43
-38.38163465034995
 44
17334.54829889545
 45
0.0000034821466346
 46
15.42046066973198
 79
     2
 49
6.340646629098716
 49
-2548.323746346614
 53
37.5647
 43
13.54132018136079
 44
17334.54829889545
 45
0.0000034821466346
 46
15.42046066973198
 79
     2
 49
6.340646629098716
 49
-2548.323746346614
 53
37.5647
 43
65.46427501308426
 44
17334.54829889545
 45
0.0000034821466346
 46
15.42046066973198
 79
     2
 49
6.340646629098716
 49
-2548.323746346614
 53
37.5647
 43
117.3872298448004
 44
17334.54829889545
 45
0.0000034821466346
 46
15.42046066973198
 79
     2
 49
6.340646629098716
 49
-2548.323746346614
 53
37.5647
 43
169.3101846765185
 44
17334.54829889545
 45
0.0000034821466346
 46
15.42046066973198
 79
     2
 49
6.340646629098716
 49
-2548.323746346614
 53
37.5647
 43
221.2331395082401
 44
17334.54829889545
 45
0.0000034821466346
 46
15.42046066973198
 79
     2
 49
6.340646629098716
 49
-2548.323746346614
 53
37.5647
 43
273.156094339949
 44
17334.54829889545
 45
0.0000034821466346
 46
15.42046066973198
 79
     2
 49
6.340646629098716
 49
-2548.323746346614
 53
37.5647
 43
325.0790491716653
 44
17334.54829889545
 45
0.0000034821466346
 46
15.42046066973198
 79
     2
 49
6.340646629098716
 49
-2548.323746346614
 53
37.5647
 43
377.0020040033851
 44
17334.54829889545
 45
0.0000034821466346
 46
15.42046066973198
 79
     2
 49
6.340646629098716
 49
-2548.323746346614
 53
37.5647
 43
428.9249588350976
 44
17334.54829889545
 45
0.0000034821466346
 46
15.42046066973198
 79
     2
 49
6.340646629098716
 49
-2548.323746346614
 53
37.5647
 43
480.8479136668138
 44
17334.54829889545
 45
0.0000034821466346
 46
15.42046066973198
 79
     2
 49
6.340646629098716
 49
-2548.323746346614
 53
37.5647
 43
532.7708684985337
 44
17334.54829889545
 45
0.0000034821466346
 46
15.42046066973198
 79
     2
 49
6.340646629098716
 49
-2548.323746346614
 53
37.5647
 43
584.6938233302498
 44
17334.54829889545
 45
0.0000034821466346
 46
15.42046066973198
 79
     2
 49
6.340646629098716
 49
-2548.323746346614
 53
22.93839999999997
 43
-1372.069898622853
 44
17324.62060685476
 45
0.0000064260253368
 46
15.42047545591863
 79
     2
 49
11.80815684974733
 49
-2243.446094003543
 53
22.93839999999997
 43
-1320.147082252348
 44
17324.62060685476
 45
0.0000064260253368
 46
15.42047545591863
 79
     2
 49
11.80815684974733
 49
-2243.446094003543
 53
22.93839999999997
 43
-1268.224127420626
 44
17324.62060685476
 45
0.0000064260253368
 46
15.42047545591863
 79
     2
 49
11.80815684974733
 49
-2243.446094003543
 53
22.93839999999997
 43
-1216.301172588913
 44
17324.62060685476
 45
0.0000064260253368
 46
15.42047545591863
 79
     2
 49
11.80815684974733
 49
-2243.446094003543
 53
22.93839999999997
 43
-1164.378217757201
 44
17324.62060685476
 45
0.0000064260253368
 46
15.42047545591863
 79
     2
 49
11.80815684974733
 49
-2243.446094003543
 53
22.93839999999997
 43
-1112.455262925479
 44
17324.62060685476
 45
0.0000064260253368
 46
15.42047545591863
 79
     2
 49
11.80815684974733
 49
-2243.446094003543
 53
22.93839999999997
 43
-1060.532308093763
 44
17324.62060685476
 45
0.0000064260253368
 46
15.42047545591863
 79
     2
 49
11.80815684974733
 49
-2243.446094003543
 53
22.93839999999997
 43
-1008.609353262045
 44
17324.62060685476
 45
0.0000064260253368
 46
15.42047545591863
 79
     2
 49
11.80815684974733
 49
-2243.446094003543
 53
22.93839999999997
 43
-956.6863984303326
 44
17324.62060685476
 45
0.0000064260253368
 46
15.42047545591863
 79
     2
 49
11.80815684974733
 49
-2243.446094003543
 53
22.93839999999997
 43
-904.7611359117327
 44
17324.62060685476
 45
0.0000064260253368
 46
15.42047545591863
 79
     2
 49
11.80815684974733
 49
-2243.446094003543
 53
22.93839999999997
 43
-852.8381810800166
 44
17324.62060685476
 45
0.0000064260253368
 46
15.42047545591863
 79
     2
 49
11.80815684974733
 49
-2243.446094003543
 53
22.93839999999997
 43
-800.9152262482929
 44
17324.62060685476
 45
0.0000064260253368
 46
15.42047545591863
 79
     2
 49
11.80815684974733
 49
-2243.446094003543
 53
22.93839999999997
 43
-748.9922714165823
 44
17324.62060685476
 45
0.0000064260253368
 46
15.42047545591863
 79
     2
 49
11.80815684974733
 49
-2243.446094003543
 53
22.93839999999997
 43
-697.0693165848697
 44
17324.62060685476
 45
0.0000064260253368
 46
15.42047545591863
 79
     2
 49
11.80815684974733
 49
-2243.446094003543
 53
22.93839999999997
 43
-645.146361753148
 44
17324.62060685476
 45
0.0000064260253368
 46
15.42047545591863
 79
     2
 49
11.80815684974733
 49
-2243.446094003543
 53
22.93839999999997
 43
-593.2234069214301
 44
17324.62060685476
 45
0.0000064260253368
 46
15.42047545591863
 79
     2
 49
11.80815684974733
 49
-2243.446094003543
 53
22.93839999999997
 43
-541.3004520897138
 44
17324.62060685476
 45
0.0000064260253368
 46
15.42047545591863
 79
     2
 49
11.80815684974733
 49
-2243.446094003543
 53
22.93839999999997
 43
-489.3774972579958
 44
17324.62060685476
 45
0.0000064260253368
 46
15.42047545591863
 79
     2
 49
11.80815684974733
 49
-2243.446094003543
 53
22.93839999999997
 43
-437.454542426285
 44
17324.62060685476
 45
0.0000064260253368
 46
15.42047545591863
 79
     2
 49
11.80815684974733
 49
-2243.446094003543
 53
22.93839999999997
 43
-385.5315875945671
 44
17324.62060685476
 45
0.0000064260253368
 46
15.42047545591863
 79
     2
 49
11.80815684974733
 49
-2243.446094003543
 53
22.93839999999997
 43
-333.6086327628454
 44
17324.62060685476
 45
0.0000064260253368
 46
15.42047545591863
 79
     2
 49
11.80815684974733
 49
-2243.446094003543
 53
22.93839999999997
 43
-281.6856779311329
 44
17324.62060685476
 45
0.0000064260253368
 46
15.42047545591863
 79
     2
 49
11.80815684974733
 49
-2243.446094003543
 53
22.93839999999997
 43
-229.7627230994167
 44
17324.62060685476
 45
0.0000064260253368
 46
15.42047545591863
 79
     2
 49
11.80815684974733
 49
-2243.446094003543
 53
22.93839999999997
 43
-177.8397682676986
 44
17324.62060685476
 45
0.0000064260253368
 46
15.42047545591863
 79
     2
 49
11.80815684974733
 49
-2243.446094003543
 53
22.93839999999997
 43
-125.916813435977
 44
17324.62060685476
 45
0.0000064260253368
 46
15.42047545591863
 79
     2
 49
11.80815684974733
 49
-2243.446094003543
 53
22.93839999999997
 43
-73.99385860426446
 44
17324.62060685476
 45
0.0000064260253368
 46
15.42047545591863
 79
     2
 49
11.80815684974733
 49
-2243.446094003543
 53
22.93839999999997
 43
-22.07090377254281
 44
17324.62060685476
 45
0.0000064260253368
 46
15.42047545591863
 79
     2
 49
11.80815684974733
 49
-2243.446094003543
 53
22.93839999999997
 43
29.85205105916975
 44
17324.62060685476
 45
0.0000064260253368
 46
15.42047545591863
 79
     2
 49
11.80815684974733
 49
-2243.446094003543
 53
22.93839999999997
 43
81.7750058908914
 44
17324.62060685476
 45
0.0000064260253368
 46
15.42047545591863
 79
     2
 49
11.80815684974733
 49
-2243.446094003543
 53
22.93839999999997
 43
133.6979607226021
 44
17324.62060685476
 45
0.0000064260253368
 46
15.42047545591863
 79
     2
 49
11.80815684974733
 49
-2243.446094003543
 53
22.93839999999997
 43
185.6209155543147
 44
17324.62060685476
 45
0.0000064260253368
 46
15.42047545591863
 79
     2
 49
11.80815684974733
 49
-2243.446094003543
 53
22.93839999999997
 43
237.5438703860382
 44
17324.62060685476
 45
0.0000064260253368
 46
15.42047545591863
 79
     2
 49
11.80815684974733
 49
-2243.446094003543
 53
22.93839999999997
 43
289.4668252177544
 44
17324.62060685476
 45
0.0000064260253368
 46
15.42047545591863
 79
     2
 49
11.80815684974733
 49
-2243.446094003543
 53
22.93839999999997
 43
341.3897800494706
 44
17324.62060685476
 45
0.0000064260253368
 46
15.42047545591863
 79
     2
 49
11.80815684974733
 49
-2243.446094003543
 53
22.93839999999997
 43
393.3127348811868
 44
17324.62060685476
 45
0.0000064260253368
 46
15.42047545591863
 79
     2
 49
11.80815684974733
 49
-2243.446094003543
 53
22.93839999999997
 43
445.2356897129066
 44
17324.62060685476
 45
0.0000064260253368
 46
15.42047545591863
 79
     2
 49
11.80815684974733
 49
-2243.446094003543
 53
22.93839999999997
 43
497.1586445446191
 44
17324.62060685476
 45
0.0000064260253368
 46
15.42047545591863
 79
     2
 49
11.80815684974733
 49
-2243.446094003543
 53
22.93839999999997
 43
549.0815993763353
 44
17324.62060685476
 45
0.0000064260253368
 46
15.42047545591863
 79
     2
 49
11.80815684974733
 49
-2243.446094003543
 53
22.93839999999997
 43
601.0045542080551
 44
17324.62060685476
 45
0.0000064260253368
 46
15.42047545591863
 79
     2
 49
11.80815684974733
 49
-2243.446094003543
 53
22.93839999999997
 43
652.9275090397677
 44
17324.62060685476
 45
0.0000064260253368
 46
15.42047545591863
 79
     2
 49
11.80815684974733
 49
-2243.446094003543
 53
15.10899999999998
 43
-1350.848779291313
 44
17331.37162944198
 45
51.92292317524827
 46
0.0000001396797961
 79
     2
 49
5.123664875318557
 49
-586.4794671091432
 53
15.10899999999998
 43
-1350.848779291313
 44
17346.79210087468
 45
51.92292317524827
 46
0.0000001396797961
 79
     2
 49
5.123664875318557
 49
-586.4794671091432
 53
15.10899999999998
 43
-1350.848779291313
 44
17362.21257230737
 45
51.92292317524827
 46
0.0000001396797961
 79
     2
 49
5.123664875318557
 49
-586.4794671091432
 53
15.10899999999998
 43
-1350.848779291313
 44
17377.63313604753
 45
51.92292317524827
 46
0.0000001396797961
 79
     2
 49
5.123664875318557
 49
-586.4794671091432
 53
15.10899999999998
 43
-1350.848779291313
 44
17393.05356132649
 45
51.92292317524827
 46
0.0000001396797961
 79
     2
 49
5.123664875318557
 49
-586.4794671091432
 53
15.10899999999998
 43
-1350.848779291313
 44
17408.47398660545
 45
51.92292317524827
 46
0.0000001396797961
 79
     2
 49
5.123664875318557
 49
-586.4794671091432
 53
15.10899999999998
 43
-1350.848779291313
 44
17423.89441188439
 45
51.92292317524827
 46
0.0000001396797961
 79
     2
 49
5.123664875318557
 49
-586.4794671091432
 53
15.10899999999998
 43
-1350.848779291313
 44
17439.31483716336
 45
51.92292317524827
 46
0.0000001396797961
 79
     2
 49
5.123664875318557
 49
-586.4794671091432
 53
15.10899999999998
 43
-1350.848779291313
 44
17454.73526244231
 45
51.92292317524827
 46
0.0000001396797961
 79
     2
 49
5.123664875318557
 49
-586.4794671091432
 53
15.10899999999998
 43
-1350.848779291313
 44
17470.15568772127
 45
51.92292317524827
 46
0.0000001396797961
 79
     2
 49
5.123664875318557
 49
-586.4794671091432
 53
6.747399999999972
 43
-1361.195247270367
 44
17329.22215757317
 45
51.92304656764545
 46
0.0000050432755578
 79
     2
 49
10.4188831934011
 49
-6420.647671753949
 53
6.747399999999972
 43
-1361.195247270367
 44
17344.64262900585
 45
51.92304656764545
 46
0.0000050432755578
 79
     2
 49
10.4188831934011
 49
-6420.647671753949
 53
6.747399999999972
 43
-1361.195247270367
 44
17360.06310043854
 45
51.92304656764545
 46
0.0000050432755578
 79
     2
 49
10.4188831934011
 49
-6420.647671753949
 53
6.747399999999972
 43
-1361.195247270367
 44
17375.4837564862
 45
51.92304656764545
 46
0.0000050432755578
 79
     2
 49
10.4188831934011
 49
-6420.647671753949
 53
6.747399999999972
 43
-1361.195247270367
 44
17390.90418176515
 45
51.92304656764545
 46
0.0000050432755578
 79
     2
 49
10.4188831934011
 49
-6420.647671753949
 53
6.747399999999972
 43
-1361.195247270367
 44
17406.3246070441
 45
51.92304656764545
 46
0.0000050432755578
 79
     2
 49
10.4188831934011
 49
-6420.647671753949
 53
6.747399999999972
 43
-1361.195247270367
 44
17421.74503232306
 45
51.92304656764545
 46
0.0000050432755578
 79
     2
 49
10.4188831934011
 49
-6420.647671753949
 53
6.747399999999972
 43
-1361.195247270367
 44
17437.16545760201
 45
51.92304656764545
 46
0.0000050432755578
 79
     2
 49
10.4188831934011
 49
-6420.647671753949
 53
6.747399999999972
 43
-1361.195247270367
 44
17452.58588288097
 45
51.92304656764545
 46
0.0000050432755578
 79
     2
 49
10.4188831934011
 49
-6420.647671753949
 53
6.747399999999972
 43
-1361.195247270367
 44
17468.00630815992
 45
51.92304656764545
 46
0.0000050432755578
 79
     2
 49
10.4188831934011
 49
-6420.647671753949
 53
6.747399999999972
 43
-1361.195247270367
 44
17483.42673343888
 45
51.92304656764545
 46
0.0000050432755578
 79
     2
 49
10.4188831934011
 49
-6420.647671753949
 53
6.747399999999972
 43
-1361.195247270367
 44
17498.84715871784
 45
51.92304656764545
 46
0.0000050432755578
 79
     2
 49
10.4188831934011
 49
-6420.647671753949
 53
6.747399999999972
 43
-1361.195247270367
 44
17514.26758399679
 45
51.92304656764545
 46
0.0000050432755578
 79
     2
 49
10.4188831934011
 49
-6420.647671753949
 53
6.747399999999972
 43
-1361.195247270367
 44
17529.68800927574
 45
51.92304656764545
 46
0.0000050432755578
 79
     2
 49
10.4188831934011
 49
-6420.647671753949
 53
6.747399999999972
 43
-1361.195247270367
 44
17545.10889609208
 45
51.92304656764545
 46
0.0000050432755578
 79
     2
 49
10.4188831934011
 49
-6420.647671753949
 53
6.747399999999972
 43
-1361.195247270367
 44
17560.52932137103
 45
51.92304656764545
 46
0.0000050432755578
 79
     2
 49
10.4188831934011
 49
-6420.647671753949
 53
6.747399999999972
 43
-1361.195247270367
 44
17575.94974664998
 45
51.92304656764545
 46
0.0000050432755578
 79
     2
 49
10.4188831934011
 49
-6420.647671753949
 53
6.747399999999972
 43
-1361.195247270367
 44
17591.37017192895
 45
51.92304656764545
 46
0.0000050432755578
 79
     2
 49
10.4188831934011
 49
-6420.647671753949
 53
6.747399999999972
 43
-1361.195247270367
 44
17606.79059720789
 45
51.92304656764545
 46
0.0000050432755578
 79
     2
 49
10.4188831934011
 49
-6420.647671753949
 53
6.747399999999972
 43
-1361.195247270367
 44
17622.21102248685
 45
51.92304656764545
 46
0.0000050432755578
 79
     2
 49
10.4188831934011
 49
-6420.647671753949
 53
6.747399999999972
 43
-1361.195247270367
 44
17637.63144776581
 45
51.92304656764545
 46
0.0000050432755578
 79
     2
 49
10.4188831934011
 49
-6420.647671753949
 53
6.747399999999972
 43
-1361.195247270367
 44
17653.05187304477
 45
51.92304656764545
 46
0.0000050432755578
 79
     2
 49
10.4188831934011
 49
-6420.647671753949
 53
6.747399999999972
 43
-1361.195247270367
 44
17668.47229832372
 45
51.92304656764545
 46
0.0000050432755578
 79
     2
 49
10.4188831934011
 49
-6420.647671753949
 53
6.747399999999972
 43
-1361.195247270367
 44
17683.89272360267
 45
51.92304656764545
 46
0.0000050432755578
 79
     2
 49
10.4188831934011
 49
-6420.647671753949
 53
6.747399999999972
 43
-1361.195247270367
 44
17699.31361041901
 45
51.92304656764545
 46
0.0000050432755578
 79
     2
 49
10.4188831934011
 49
-6420.647671753949
 53
6.747399999999972
 43
-1361.195247270367
 44
17714.73403569796
 45
51.92304656764545
 46
0.0000050432755578
 79
     2
 49
10.4188831934011
 49
-6420.647671753949
 53
6.747399999999972
 43
-1361.195247270367
 44
17730.15446097692
 45
51.92304656764545
 46
0.0000050432755578
 79
     2
 49
10.4188831934011
 49
-6420.647671753949
 53
6.747399999999972
 43
-1361.195247270367
 44
17745.57488625588
 45
51.92304656764545
 46
0.0000050432755578
 79
     2
 49
10.4188831934011
 49
-6420.647671753949
 53
6.747399999999972
 43
-1361.195247270367
 44
17760.99531153484
 45
51.92304656764545
 46
0.0000050432755578
 79
     2
 49
10.4188831934011
 49
-6420.647671753949
 53
6.747399999999972
 43
-1361.195247270367
 44
17776.41573681379
 45
51.92304656764545
 46
0.0000050432755578
 79
     2
 49
10.4188831934011
 49
-6420.647671753949
 53
6.747399999999972
 43
-1361.195247270367
 44
17791.83570055536
 45
51.92304656764545
 46
0.0000050432755578
 79
     2
 49
10.4188831934011
 49
-6420.647671753949
 53
6.747399999999972
 43
-1361.195247270367
 44
17807.25566429695
 45
51.92304656764545
 46
0.0000050432755578
 79
     2
 49
10.4188831934011
 49
-6420.647671753949
 53
6.747399999999972
 43
-1361.195247270367
 44
17822.67562803852
 45
51.92304656764545
 46
0.0000050432755578
 79
     2
 49
10.4188831934011
 49
-6420.647671753949
 53
6.747399999999972
 43
-1361.195247270367
 44
17838.0955917801
 45
51.92304656764545
 46
0.0000050432755578
 79
     2
 49
10.4188831934011
 49
-6420.647671753949
 53
6.747399999999972
 43
-1361.195247270367
 44
17853.52017089545
 45
51.92304656764545
 46
0.0000050432755578
 79
     2
 49
10.4188831934011
 49
-6420.647671753949
 53
6.747399999999972
 43
-1361.195247270367
 44
17868.94013463702
 45
51.92304656764545
 46
0.0000050432755578
 79
     2
 49
10.4188831934011
 49
-6420.647671753949
 53
6.747399999999972
 43
-1361.195247270367
 44
17884.3600983786
 45
51.92304656764545
 46
0.0000050432755578
 79
     2
 49
10.4188831934011
 49
-6420.647671753949
 53
6.747399999999972
 43
-1361.195247270367
 44
17899.78006212018
 45
51.92304656764545
 46
0.0000050432755578
 79
     2
 49
10.4188831934011
 49
-6420.647671753949
 53
6.747399999999972
 43
-1361.195247270367
 44
17915.20002586175
 45
51.92304656764545
 46
0.0000050432755578
 79
     2
 49
10.4188831934011
 49
-6420.647671753949
 53
6.747399999999972
 43
-1361.195247270367
 44
17930.61998960334
 45
51.92304656764545
 46
0.0000050432755578
 79
     2
 49
10.4188831934011
 49
-6420.647671753949
 53
6.747399999999972
 43
-1361.195247270367
 44
17946.03995334491
 45
51.92304656764545
 46
0.0000050432755578
 79
     2
 49
10.4188831934011
 49
-6420.647671753949
 53
6.747399999999972
 43
-1361.195247270367
 44
17961.4599170865
 45
51.92304656764545
 46
0.0000050432755578
 79
     2
 49
10.4188831934011
 49
-6420.647671753949
 53
6.747399999999972
 43
-1361.195247270367
 44
17976.87988082807
 45
51.92304656764545
 46
0.0000050432755578
 79
     2
 49
10.4188831934011
 49
-6420.647671753949
 53
6.747399999999972
 43
-1361.195247270367
 44
17992.30445994341
 45
51.92304656764545
 46
0.0000050432755578
 79
     2
 49
10.4188831934011
 49
-6420.647671753949
 53
6.747399999999972
 43
-1361.195247270367
 44
18007.724423685
 45
51.92304656764545
 46
0.0000050432755578
 79
     2
 49
10.4188831934011
 49
-6420.647671753949
 53
6.747399999999972
 43
-1361.195247270367
 44
18023.14438742657
 45
51.92304656764545
 46
0.0000050432755578
 79
     2
 49
10.4188831934011
 49
-6420.647671753949
 53
6.747399999999972
 43
-1361.195247270367
 44
18038.56435116816
 45
51.92304656764545
 46
0.0000050432755578
 79
     2
 49
10.4188831934011
 49
-6420.647671753949
 53
6.747399999999972
 43
-1361.195247270367
 44
18053.98431490973
 45
51.92304656764545
 46
0.0000050432755578
 79
     2
 49
10.4188831934011
 49
-6420.647671753949
 53
6.747399999999972
 43
-1361.195247270367
 44
18069.40427865132
 45
51.92304656764545
 46
0.0000050432755578
 79
     2
 49
10.4188831934011
 49
-6420.647671753949
 53
6.141599999999983
 43
-1383.353979781835
 44
17323.40624894096
 45
51.92281660003864
 46
-0.0000502503489585
 79
     2
 49
11.34925023651022
 49
-3592.016307598095
 53
6.141599999999983
 43
-1383.353979781835
 44
17338.82670421986
 45
51.92281660003864
 46
-0.0000502503489585
 79
     2
 49
11.34925023651022
 49
-3592.016307598095
 53
6.141599999999983
 43
-1383.353979781835
 44
17354.24717565255
 45
51.92281660003864
 46
-0.0000502503489585
 79
     2
 49
11.34925023651022
 49
-3592.016307598095
 53
6.141599999999983
 43
-1383.353979781835
 44
17369.66746247029
 45
51.92281660003864
 46
-0.0000502503489585
 79
     2
 49
11.34925023651022
 49
-3592.016307598095
 53
6.141599999999983
 43
-1383.353979781835
 44
17385.08834928662
 45
51.92281660003864
 46
-0.0000502503489585
 79
     2
 49
11.34925023651022
 49
-3592.016307598095
 53
6.141599999999983
 43
-1383.353979781835
 44
17400.50877456556
 45
51.92281660003864
 46
-0.0000502503489585
 79
     2
 49
11.34925023651022
 49
-3592.016307598095
 53
6.141599999999983
 43
-1383.353979781835
 44
17415.92919984452
 45
51.92281660003864
 46
-0.0000502503489585
 79
     2
 49
11.34925023651022
 49
-3592.016307598095
 53
6.141599999999983
 43
-1383.353979781835
 44
17431.34962512349
 45
51.92281660003864
 46
-0.0000502503489585
 79
     2
 49
11.34925023651022
 49
-3592.016307598095
 53
6.141599999999983
 43
-1383.353979781835
 44
17446.77005040243
 45
51.92281660003864
 46
-0.0000502503489585
 79
     2
 49
11.34925023651022
 49
-3592.016307598095
 53
6.141599999999983
 43
-1383.353979781835
 44
17462.1904756814
 45
51.92281660003864
 46
-0.0000502503489585
 79
     2
 49
11.34925023651022
 49
-3592.016307598095
 53
6.141599999999983
 43
-1383.353979781835
 44
17477.61090096036
 45
51.92281660003864
 46
-0.0000502503489585
 79
     2
 49
11.34925023651022
 49
-3592.016307598095
 53
6.141599999999983
 43
-1383.353979781835
 44
17493.0313262393
 45
51.92281660003864
 46
-0.0000502503489585
 79
     2
 49
11.34925023651022
 49
-3592.016307598095
 53
6.141599999999983
 43
-1383.353979781835
 44
17508.45175151827
 45
51.92281660003864
 46
-0.0000502503489585
 79
     2
 49
11.34925023651022
 49
-3592.016307598095
 53
6.141599999999983
 43
-1383.353979781835
 44
17523.87217679721
 45
51.92281660003864
 46
-0.0000502503489585
 79
     2
 49
11.34925023651022
 49
-3592.016307598095
 53
6.141599999999983
 43
-1383.353979781835
 44
17539.29260207617
 45
51.92281660003864
 46
-0.0000502503489585
 79
     2
 49
11.34925023651022
 49
-3592.016307598095
 53
6.141599999999983
 43
-1383.353979781835
 44
17554.7134888925
 45
51.92281660003864
 46
-0.0000502503489585
 79
     2
 49
11.34925023651022
 49
-3592.016307598095
 53
6.141599999999983
 43
-1383.353979781835
 44
17570.13391417147
 45
51.92281660003864
 46
-0.0000502503489585
 79
     2
 49
11.34925023651022
 49
-3592.016307598095
 53
6.141599999999983
 43
-1383.353979781835
 44
17585.55433945041
 45
51.92281660003864
 46
-0.0000502503489585
 79
     2
 49
11.34925023651022
 49
-3592.016307598095
 53
6.141599999999983
 43
-1383.353979781835
 44
17600.97476472936
 45
51.92281660003864
 46
-0.0000502503489585
 79
     2
 49
11.34925023651022
 49
-3592.016307598095
 53
6.141599999999983
 43
-1383.353979781835
 44
17616.39519000833
 45
51.92281660003864
 46
-0.0000502503489585
 79
     2
 49
11.34925023651022
 49
-3592.016307598095
 53
6.141599999999983
 43
-1383.353979781835
 44
17631.81561528728
 45
51.92281660003864
 46
-0.0000502503489585
 79
     2
 49
11.34925023651022
 49
-3592.016307598095
 53
6.141599999999983
 43
-1383.353979781835
 44
17647.23604056623
 45
51.92281660003864
 46
-0.0000502503489585
 79
     2
 49
11.34925023651022
 49
-3592.016307598095
 53
6.141599999999983
 43
-1383.353979781835
 44
17662.65646584519
 45
51.92281660003864
 46
-0.0000502503489585
 79
     2
 49
11.34925023651022
 49
-3592.016307598095
 53
6.141599999999983
 43
-1383.353979781835
 44
17678.07689112415
 45
51.92281660003864
 46
-0.0000502503489585
 79
     2
 49
11.34925023651022
 49
-3592.016307598095
 53
6.141599999999983
 43
-1383.353979781835
 44
17693.49731640311
 45
51.92281660003864
 46
-0.0000502503489585
 79
     2
 49
11.34925023651022
 49
-3592.016307598095
 53
173.8580000000001
 43
-1372.069898622853
 44
17337.19960035351
 45
0.0000964139596056
 46
15.42045503177991
 79
     2
 49
11.34925023651006
 49
-3592.016307598054
 53
173.8580000000001
 43
-1320.147082252348
 44
17337.19960035351
 45
0.0000964139596056
 46
15.42045503177991
 79
     2
 49
11.34925023651006
 49
-3592.016307598054
 53
173.8580000000001
 43
-1268.224127420626
 44
17337.19960035351
 45
0.0000964139596056
 46
15.42045503177991
 79
     2
 49
11.34925023651006
 49
-3592.016307598054
 53
173.8580000000001
 43
-1216.301172588913
 44
17337.19960035351
 45
0.0000964139596056
 46
15.42045503177991
 79
     2
 49
11.34925023651006
 49
-3592.016307598054
 53
173.8580000000001
 43
-1164.378217757201
 44
17337.19960035351
 45
0.0000964139596056
 46
15.42045503177991
 79
     2
 49
11.34925023651006
 49
-3592.016307598054
 53
173.8580000000001
 43
-1112.455262925479
 44
17337.19960035351
 45
0.0000964139596056
 46
15.42045503177991
 79
     2
 49
11.34925023651006
 49
-3592.016307598054
 53
173.8580000000001
 43
-1060.532308093763
 44
17337.19960035351
 45
0.0000964139596056
 46
15.42045503177991
 79
     2
 49
11.34925023651006
 49
-3592.016307598054
 53
173.8580000000001
 43
-1008.609353262045
 44
17337.19960035351
 45
0.0000964139596056
 46
15.42045503177991
 79
     2
 49
11.34925023651006
 49
-3592.016307598054
 53
173.8580000000001
 43
-956.6863984303326
 44
17337.19960035351
 45
0.0000964139596056
 46
15.42045503177991
 79
     2
 49
11.34925023651006
 49
-3592.016307598054
 53
173.8580000000001
 43
-904.7611359117327
 44
17337.19960035351
 45
0.0000964139596056
 46
15.42045503177991
 79
     2
 49
11.34925023651006
 49
-3592.016307598054
 53
173.8580000000001
 43
-852.8381810800166
 44
17337.19960035351
 45
0.0000964139596056
 46
15.42045503177991
 79
     2
 49
11.34925023651006
 49
-3592.016307598054
 53
173.8580000000001
 43
-800.9152262482929
 44
17337.19960035351
 45
0.0000964139596056
 46
15.42045503177991
 79
     2
 49
11.34925023651006
 49
-3592.016307598054
 53
173.8580000000001
 43
-748.9922714165823
 44
17337.19960035351
 45
0.0000964139596056
 46
15.42045503177991
 79
     2
 49
11.34925023651006
 49
-3592.016307598054
 53
173.8580000000001
 43
-697.0693165848697
 44
17337.19960035351
 45
0.0000964139596056
 46
15.42045503177991
 79
     2
 49
11.34925023651006
 49
-3592.016307598054
 53
173.8580000000001
 43
-645.146361753148
 44
17337.19960035351
 45
0.0000964139596056
 46
15.42045503177991
 79
     2
 49
11.34925023651006
 49
-3592.016307598054
 53
173.8580000000001
 43
-593.2234069214301
 44
17337.19960035351
 45
0.0000964139596056
 46
15.42045503177991
 79
     2
 49
11.34925023651006
 49
-3592.016307598054
 53
173.8580000000001
 43
-541.3004520897138
 44
17337.19960035351
 45
0.0000964139596056
 46
15.42045503177991
 79
     2
 49
11.34925023651006
 49
-3592.016307598054
 53
173.8580000000001
 43
-489.3774972579958
 44
17337.19960035351
 45
0.0000964139596056
 46
15.42045503177991
 79
     2
 49
11.34925023651006
 49
-3592.016307598054
 53
173.8580000000001
 43
-437.454542426285
 44
17337.19960035351
 45
0.0000964139596056
 46
15.42045503177991
 79
     2
 49
11.34925023651006
 49
-3592.016307598054
 53
173.8580000000001
 43
-385.5315875945671
 44
17337.19960035351
 45
0.0000964139596056
 46
15.42045503177991
 79
     2
 49
11.34925023651006
 49
-3592.016307598054
 53
173.8580000000001
 43
-333.6086327628454
 44
17337.19960035351
 45
0.0000964139596056
 46
15.42045503177991
 79
     2
 49
11.34925023651006
 49
-3592.016307598054
 53
173.8580000000001
 43
-281.6856779311329
 44
17337.19960035351
 45
0.0000964139596056
 46
15.42045503177991
 79
     2
 49
11.34925023651006
 49
-3592.016307598054
 53
173.8580000000001
 43
-229.7627230994167
 44
17337.19960035351
 45
0.0000964139596056
 46
15.42045503177991
 79
     2
 49
11.34925023651006
 49
-3592.016307598054
 53
173.8580000000001
 43
-177.8397682676986
 44
17337.19960035351
 45
0.0000964139596056
 46
15.42045503177991
 79
     2
 49
11.34925023651006
 49
-3592.016307598054
 53
173.8580000000001
 43
-125.916813435977
 44
17337.19960035351
 45
0.0000964139596056
 46
15.42045503177991
 79
     2
 49
11.34925023651006
 49
-3592.016307598054
 53
173.8580000000001
 43
-73.99385860426446
 44
17337.19960035351
 45
0.0000964139596056
 46
15.42045503177991
 79
     2
 49
11.34925023651006
 49
-3592.016307598054
 53
173.8580000000001
 43
-22.07090377254281
 44
17337.19960035351
 45
0.0000964139596056
 46
15.42045503177991
 79
     2
 49
11.34925023651006
 49
-3592.016307598054
 53
173.8580000000001
 43
29.85205105916975
 44
17337.19960035351
 45
0.0000964139596056
 46
15.42045503177991
 79
     2
 49
11.34925023651006
 49
-3592.016307598054
 53
173.8580000000001
 43
81.7750058908914
 44
17337.19960035351
 45
0.0000964139596056
 46
15.42045503177991
 79
     2
 49
11.34925023651006
 49
-3592.016307598054
 53
173.8580000000001
 43
133.6979607226021
 44
17337.19960035351
 45
0.0000964139596056
 46
15.42045503177991
 79
     2
 49
11.34925023651006
 49
-3592.016307598054
 53
173.8580000000001
 43
185.6209155543147
 44
17337.19960035351
 45
0.0000964139596056
 46
15.42045503177991
 79
     2
 49
11.34925023651006
 49
-3592.016307598054
 53
173.8580000000001
 43
237.5438703860382
 44
17337.19960035351
 45
0.0000964139596056
 46
15.42045503177991
 79
     2
 49
11.34925023651006
 49
-3592.016307598054
 53
173.8580000000001
 43
289.4668252177544
 44
17337.19960035351
 45
0.0000964139596056
 46
15.42045503177991
 79
     2
 49
11.34925023651006
 49
-3592.016307598054
 53
173.8580000000001
 43
341.3897800494706
 44
17337.19960035351
 45
0.0000964139596056
 46
15.42045503177991
 79
     2
 49
11.34925023651006
 49
-3592.016307598054
 53
173.8580000000001
 43
393.3127348811868
 44
17337.19960035351
 45
0.0000964139596056
 46
15.42045503177991
 79
     2
 49
11.34925023651006
 49
-3592.016307598054
 53
173.8580000000001
 43
445.2356897129066
 44
17337.19960035351
 45
0.0000964139596056
 46
15.42045503177991
 79
     2
 49
11.34925023651006
 49
-3592.016307598054
 53
173.8580000000001
 43
497.1586445446191
 44
17337.19960035351
 45
0.0000964139596056
 46
15.42045503177991
 79
     2
 49
11.34925023651006
 49
-3592.016307598054
 53
173.8580000000001
 43
549.0815993763353
 44
17337.19960035351
 45
0.0000964139596056
 46
15.42045503177991
 79
     2
 49
11.34925023651006
 49
-3592.016307598054
 53
173.8580000000001
 43
601.0045542080551
 44
17337.19960035351
 45
0.0000964139596056
 46
15.42045503177991
 79
     2
 49
11.34925023651006
 49
-3592.016307598054
 53
173.8580000000001
 43
652.9275090397677
 44
17337.19960035351
 45
0.0000964139596056
 46
15.42045503177991
 79
     2
 49
11.34925023651006
 49
-3592.016307598054
 53
173.8580000000001
 43
704.8504638714875
 44
17337.19960035351
 45
0.0000964139596056
 46
15.42045503177991
 79
     2
 49
11.34925023651006
 49
-3592.016307598054
 53
173.8580000000001
 43
756.7734187032037
 44
17337.19960035351
 45
0.0000964139596056
 46
15.42045503177991
 79
     2
 49
11.34925023651006
 49
-3592.016307598054
 53
173.8580000000001
 43
808.6963735349199
 44
17337.19960035351
 45
0.0000964139596056
 46
15.42045503177991
 79
     2
 49
11.34925023651006
 49
-3592.016307598054
 53
173.8580000000001
 43
860.6193283666362
 44
17337.19960035351
 45
0.0000964139596056
 46
15.42045503177991
 79
     2
 49
11.34925023651006
 49
-3592.016307598054
 53
173.8580000000001
 43
912.5422831983559
 44
17337.19960035351
 45
0.0000964139596056
 46
15.42045503177991
 79
     2
 49
11.34925023651006
 49
-3592.016307598054
 53
173.8580000000001
 43
964.4652380300723
 44
17337.19960035351
 45
0.0000964139596056
 46
15.42045503177991
 79
     2
 49
11.34925023651006
 49
-3592.016307598054
 53
173.8580000000001
 43
1016.388192861788
 44
17337.19960035351
 45
0.0000964139596056
 46
15.42045503177991
 79
     2
 49
11.34925023651006
 49
-3592.016307598054
 53
173.8580000000001
 43
1068.311147693512
 44
17337.19960035351
 45
0.0000964139596056
 46
15.42045503177991
 79
     2
 49
11.34925023651006
 49
-3592.016307598054
 53
173.8580000000001
 43
1120.234102525217
 44
17337.19960035351
 45
0.0000964139596056
 46
15.42045503177991
 79
     2
 49
11.34925023651006
 49
-3592.016307598054
 53
173.8580000000001
 43
1172.157057356933
 44
17337.19960035351
 45
0.0000964139596056
 46
15.42045503177991
 79
     2
 49
11.34925023651006
 49
-3592.016307598054
 53
173.8580000000001
 43
1224.080012188657
 44
17337.19960035351
 45
0.0000964139596056
 46
15.42045503177991
 79
     2
 49
11.34925023651006
 49
-3592.016307598054
 53
173.8580000000001
 43
1276.002967020373
 44
17337.19960035351
 45
0.0000964139596056
 46
15.42045503177991
 79
     2
 49
11.34925023651006
 49
-3592.016307598054
 53
173.8580000000001
 43
1327.925921852093
 44
17337.19960035351
 45
0.0000964139596056
 46
15.42045503177991
 79
     2
 49
11.34925023651006
 49
-3592.016307598054
 53
173.8580000000001
 43
1379.848876683809
 44
17337.19960035351
 45
0.0000964139596056
 46
15.42045503177991
 79
     2
 49
11.34925023651006
 49
-3592.016307598054
 53
173.8580000000001
 43
1431.771831515521
 44
17337.19960035351
 45
0.0000964139596056
 46
15.42045503177991
 79
     2
 49
11.34925023651006
 49
-3592.016307598054
 53
173.8580000000001
 43
1483.694786347238
 44
17337.19960035351
 45
0.0000964139596056
 46
15.42045503177991
 79
     2
 49
11.34925023651006
 49
-3592.016307598054
 53
173.8580000000001
 43
1535.617741178961
 44
17337.19960035351
 45
0.0000964139596056
 46
15.42045503177991
 79
     2
 49
11.34925023651006
 49
-3592.016307598054
 53
173.8580000000001
 43
1587.54069601067
 44
17337.19960035351
 45
0.0000964139596056
 46
15.42045503177991
 79
     2
 49
11.34925023651006
 49
-3592.016307598054
 53
173.8580000000001
 43
1639.46365084239
 44
17337.19960035351
 45
0.0000964139596056
 46
15.42045503177991
 79
     2
 49
11.34925023651006
 49
-3592.016307598054
 53
173.8580000000001
 43
1691.386605674106
 44
17337.19960035351
 45
0.0000964139596056
 46
15.42045503177991
 79
     2
 49
11.34925023651006
 49
-3592.016307598054
 53
173.8580000000001
 43
1743.309560505822
 44
17337.19960035351
 45
0.0000964139596056
 46
15.42045503177991
 79
     2
 49
11.34925023651006
 49
-3592.016307598054
 53
173.8580000000001
 43
1795.232515337539
 44
17337.19960035351
 45
0.0000964139596056
 46
15.42045503177991
 79
     2
 49
11.34925023651006
 49
-3592.016307598054
 53
173.8580000000001
 43
1847.155470169255
 44
17337.19960035351
 45
0.0000964139596056
 46
15.42045503177991
 79
     2
 49
11.34925023651006
 49
-3592.016307598054
 53
173.8580000000001
 43
1899.078425000974
 44
17337.19960035351
 45
0.0000964139596056
 46
15.42045503177991
 79
     2
 49
11.34925023651006
 49
-3592.016307598054
 53
173.8580000000001
 43
1951.001379832691
 44
17337.19960035351
 45
0.0000964139596056
 46
15.42045503177991
 79
     2
 49
11.34925023651006
 49
-3592.016307598054
 53
173.8580000000001
 43
2002.924334664411
 44
17337.19960035351
 45
0.0000964139596056
 46
15.42045503177991
 79
     2
 49
11.34925023651006
 49
-3592.016307598054
 53
173.8580000000001
 43
2054.847289496127
 44
17337.19960035351
 45
0.0000964139596056
 46
15.42045503177991
 79
     2
 49
11.34925023651006
 49
-3592.016307598054
 53
173.8580000000001
 43
2106.770244327836
 44
17337.19960035351
 45
0.0000964139596056
 46
15.42045503177991
 79
     2
 49
11.34925023651006
 49
-3592.016307598054
 53
173.8580000000001
 43
2158.693199159559
 44
17337.19960035351
 45
0.0000964139596056
 46
15.42045503177991
 79
     2
 49
11.34925023651006
 49
-3592.016307598054
 53
173.253
 43
-1350.848779291313
 44
17331.37162944198
 45
-0.0001124430909783
 46
15.42047771894057
 79
     2
 49
10.4188831934011
 49
-6420.647671753946
 53
173.253
 43
-1298.926055228281
 44
17331.37162944198
 45
-0.0001124430909783
 46
15.42047771894057
 79
     2
 49
10.4188831934011
 49
-6420.647671753946
 53
173.253
 43
-1247.003100396563
 44
17331.37162944198
 45
-0.0001124430909783
 46
15.42047771894057
 79
     2
 49
10.4188831934011
 49
-6420.647671753946
 53
173.253
 43
-1195.080145564847
 44
17331.37162944198
 45
-0.0001124430909783
 46
15.42047771894057
 79
     2
 49
10.4188831934011
 49
-6420.647671753946
 53
173.253
 43
-1143.157190733134
 44
17331.37162944198
 45
-0.0001124430909783
 46
15.42047771894057
 79
     2
 49
10.4188831934011
 49
-6420.647671753946
 53
173.253
 43
-1091.234235901418
 44
17331.37162944198
 45
-0.0001124430909783
 46
15.42047771894057
 79
     2
 49
10.4188831934011
 49
-6420.647671753946
 53
173.253
 43
-1039.311281069695
 44
17331.37162944198
 45
-0.0001124430909783
 46
15.42047771894057
 79
     2
 49
10.4188831934011
 49
-6420.647671753946
 53
173.253
 43
-987.3883262379841
 44
17331.37162944198
 45
-0.0001124430909783
 46
15.42047771894057
 79
     2
 49
10.4188831934011
 49
-6420.647671753946
 53
173.253
 43
-935.4653714062624
 44
17331.37162944198
 45
-0.0001124430909783
 46
15.42047771894057
 79
     2
 49
10.4188831934011
 49
-6420.647671753946
 53
173.253
 43
-883.5442627240517
 44
17331.37162944198
 45
-0.0001124430909783
 46
15.42047771894057
 79
     2
 49
10.4188831934011
 49
-6420.647671753946
 53
173.253
 43
-831.6213078923393
 44
17331.37162944198
 45
-0.0001124430909783
 46
15.42047771894057
 79
     2
 49
10.4188831934011
 49
-6420.647671753946
 53
173.253
 43
-779.6983530606175
 44
17331.37162944198
 45
-0.0001124430909783
 46
15.42047771894057
 79
     2
 49
10.4188831934011
 49
-6420.647671753946
 53
173.253
 43
-727.7753982289068
 44
17331.37162944198
 45
-0.0001124430909783
 46
15.42047771894057
 79
     2
 49
10.4188831934011
 49
-6420.647671753946
 53
173.253
 43
-675.8524433971834
 44
17331.37162944198
 45
-0.0001124430909783
 46
15.42047771894057
 79
     2
 49
10.4188831934011
 49
-6420.647671753946
 53
173.253
 43
-623.9294885654617
 44
17331.37162944198
 45
-0.0001124430909783
 46
15.42047771894057
 79
     2
 49
10.4188831934011
 49
-6420.647671753946
 53
173.253
 43
-572.0065337337492
 44
17331.37162944198
 45
-0.0001124430909783
 46
15.42047771894057
 79
     2
 49
10.4188831934011
 49
-6420.647671753946
 53
173.253
 43
-520.0835789020384
 44
17331.37162944198
 45
-0.0001124430909783
 46
15.42047771894057
 79
     2
 49
10.4188831934011
 49
-6420.647671753946
 53
173.253
 43
-468.1606240703149
 44
17331.37162944198
 45
-0.0001124430909783
 46
15.42047771894057
 79
     2
 49
10.4188831934011
 49
-6420.647671753946
 53
173.253
 43
-416.2376692385987
 44
17331.37162944198
 45
-0.0001124430909783
 46
15.42047771894057
 79
     2
 49
10.4188831934011
 49
-6420.647671753946
 53
173.253
 43
-364.3147144068807
 44
17331.37162944198
 45
-0.0001124430909783
 46
15.42047771894057
 79
     2
 49
10.4188831934011
 49
-6420.647671753946
 53
173.253
 43
-312.39175957517
 44
17331.37162944198
 45
-0.0001124430909783
 46
15.42047771894057
 79
     2
 49
10.4188831934011
 49
-6420.647671753946
 53
173.253
 43
-260.4688047434574
 44
17331.37162944198
 45
-0.0001124430909783
 46
15.42047771894057
 79
     2
 49
10.4188831934011
 49
-6420.647671753946
 53
173.253
 43
-208.5458499117339
 44
17331.37162944198
 45
-0.0001124430909783
 46
15.42047771894057
 79
     2
 49
10.4188831934011
 49
-6420.647671753946
 53
173.253
 43
-156.6228950800141
 44
17331.37162944198
 45
-0.0001124430909783
 46
15.42047771894057
 79
     2
 49
10.4188831934011
 49
-6420.647671753946
 53
173.253
 43
-104.6999402483016
 44
17331.37162944198
 45
-0.0001124430909783
 46
15.42047771894057
 79
     2
 49
10.4188831934011
 49
-6420.647671753946
 53
173.253
 43
-52.77698541658356
 44
17331.37162944198
 45
-0.0001124430909783
 46
15.42047771894057
 79
     2
 49
10.4188831934011
 49
-6420.647671753946
 53
173.253
 43
-0.8540305848673597
 44
17331.37162944198
 45
-0.0001124430909783
 46
15.42047771894057
 79
     2
 49
10.4188831934011
 49
-6420.647671753946
 53
173.253
 43
51.06892424685065
 44
17331.37162944198
 45
-0.0001124430909783
 46
15.42047771894057
 79
     2
 49
10.4188831934011
 49
-6420.647671753946
 53
173.253
 43
102.9918790785668
 44
17331.37162944198
 45
-0.0001124430909783
 46
15.42047771894057
 79
     2
 49
10.4188831934011
 49
-6420.647671753946
 53
173.253
 43
154.914833910283
 44
17331.37162944198
 45
-0.0001124430909783
 46
15.42047771894057
 79
     2
 49
10.4188831934011
 49
-6420.647671753946
 53
173.253
 43
206.8377887420011
 44
17331.37162944198
 45
-0.0001124430909783
 46
15.42047771894057
 79
     2
 49
10.4188831934011
 49
-6420.647671753946
 53
173.253
 43
258.7607435737191
 44
17331.37162944198
 45
-0.0001124430909783
 46
15.42047771894057
 79
     2
 49
10.4188831934011
 49
-6420.647671753946
 53
173.253
 43
310.6836984054353
 44
17331.37162944198
 45
-0.0001124430909783
 46
15.42047771894057
 79
     2
 49
10.4188831934011
 49
-6420.647671753946
 53
173.253
 43
362.6066532371478
 44
17331.37162944198
 45
-0.0001124430909783
 46
15.42047771894057
 79
     2
 49
10.4188831934011
 49
-6420.647671753946
 53
173.253
 43
414.529608068864
 44
17331.37162944198
 45
-0.0001124430909783
 46
15.42047771894057
 79
     2
 49
10.4188831934011
 49
-6420.647671753946
 53
173.253
 43
466.4525629005802
 44
17331.37162944198
 45
-0.0001124430909783
 46
15.42047771894057
 79
     2
 49
10.4188831934011
 49
-6420.647671753946
 53
173.253
 43
518.3755177323036
 44
17331.37162944198
 45
-0.0001124430909783
 46
15.42047771894057
 79
     2
 49
10.4188831934011
 49
-6420.647671753946
 53
173.253
 43
570.2984725640162
 44
17331.37162944198
 45
-0.0001124430909783
 46
15.42047771894057
 79
     2
 49
10.4188831934011
 49
-6420.647671753946
 53
173.253
 43
622.2214273957397
 44
17331.37162944198
 45
-0.0001124430909783
 46
15.42047771894057
 79
     2
 49
10.4188831934011
 49
-6420.647671753946
 53
173.253
 43
674.1443822274487
 44
17331.37162944198
 45
-0.0001124430909783
 46
15.42047771894057
 79
     2
 49
10.4188831934011
 49
-6420.647671753946
 53
173.253
 43
726.0673370591685
 44
17331.37162944198
 45
-0.0001124430909783
 46
15.42047771894057
 79
     2
 49
10.4188831934011
 49
-6420.647671753946
 53
173.253
 43
777.9902918908846
 44
17331.37162944198
 45
-0.0001124430909783
 46
15.42047771894057
 79
     2
 49
10.4188831934011
 49
-6420.647671753946
 53
173.253
 43
829.9132467226009
 44
17331.37162944198
 45
-0.0001124430909783
 46
15.42047771894057
 79
     2
 49
10.4188831934011
 49
-6420.647671753946
 53
173.253
 43
881.836201554317
 44
17331.37162944198
 45
-0.0001124430909783
 46
15.42047771894057
 79
     2
 49
10.4188831934011
 49
-6420.647671753946
 53
173.253
 43
933.7591563860369
 44
17331.37162944198
 45
-0.0001124430909783
 46
15.42047771894057
 79
     2
 49
10.4188831934011
 49
-6420.647671753946
 53
173.253
 43
985.6821112177531
 44
17331.37162944198
 45
-0.0001124430909783
 46
15.42047771894057
 79
     2
 49
10.4188831934011
 49
-6420.647671753946
 53
173.253
 43
1037.605066049466
 44
17331.37162944198
 45
-0.0001124430909783
 46
15.42047771894057
 79
     2
 49
10.4188831934011
 49
-6420.647671753946
 53
173.253
 43
1089.528020881185
 44
17331.37162944198
 45
-0.0001124430909783
 46
15.42047771894057
 79
     2
 49
10.4188831934011
 49
-6420.647671753946
 53
173.253
 43
1141.450975712905
 44
17331.37162944198
 45
-0.0001124430909783
 46
15.42047771894057
 79
     2
 49
10.4188831934011
 49
-6420.647671753946
 53
173.253
 43
1193.373930544621
 44
17331.37162944198
 45
-0.0001124430909783
 46
15.42047771894057
 79
     2
 49
10.4188831934011
 49
-6420.647671753946
 53
173.253
 43
1245.296885376338
 44
17331.37162944198
 45
-0.0001124430909783
 46
15.42047771894057
 79
     2
 49
10.4188831934011
 49
-6420.647671753946
 53
173.253
 43
1297.21984020805
 44
17331.37162944198
 45
-0.0001124430909783
 46
15.42047771894057
 79
     2
 49
10.4188831934011
 49
-6420.647671753946
 53
173.253
 43
1349.142795039766
 44
17331.37162944198
 45
-0.0001124430909783
 46
15.42047771894057
 79
     2
 49
10.4188831934011
 49
-6420.647671753946
 53
173.253
 43
1401.065749871483
 44
17331.37162944198
 45
-0.0001124430909783
 46
15.42047771894057
 79
     2
 49
10.4188831934011
 49
-6420.647671753946
 53
173.253
 43
1452.988704703206
 44
17331.37162944198
 45
-0.0001124430909783
 46
15.42047771894057
 79
     2
 49
10.4188831934011
 49
-6420.647671753946
 53
173.253
 43
1504.911659534919
 44
17331.37162944198
 45
-0.0001124430909783
 46
15.42047771894057
 79
     2
 49
10.4188831934011
 49
-6420.647671753946
 53
173.253
 43
1556.834614366642
 44
17331.37162944198
 45
-0.0001124430909783
 46
15.42047771894057
 79
     2
 49
10.4188831934011
 49
-6420.647671753946
 53
173.253
 43
1608.757569198351
 44
17331.37162944198
 45
-0.0001124430909783
 46
15.42047771894057
 79
     2
 49
10.4188831934011
 49
-6420.647671753946
 53
173.253
 43
1660.680524030071
 44
17331.37162944198
 45
-0.0001124430909783
 46
15.42047771894057
 79
     2
 49
10.4188831934011
 49
-6420.647671753946
 53
173.253
 43
1712.603478861787
 44
17331.37162944198
 45
-0.0001124430909783
 46
15.42047771894057
 79
     2
 49
10.4188831934011
 49
-6420.647671753946
 53
173.253
 43
1764.526433693503
 44
17331.37162944198
 45
-0.0001124430909783
 46
15.42047771894057
 79
     2
 49
10.4188831934011
 49
-6420.647671753946
 53
173.253
 43
1816.449388525219
 44
17331.37162944198
 45
-0.0001124430909783
 46
15.42047771894057
 79
     2
 49
10.4188831934011
 49
-6420.647671753946
 53
173.253
 43
1868.372343356936
 44
17331.37162944198
 45
-0.0001124430909783
 46
15.42047771894057
 79
     2
 49
10.4188831934011
 49
-6420.647671753946
 53
173.253
 43
1920.295298188656
 44
17331.37162944198
 45
-0.0001124430909783
 46
15.42047771894057
 79
     2
 49
10.4188831934011
 49
-6420.647671753946
 53
173.253
 43
1972.218253020372
 44
17331.37162944198
 45
-0.0001124430909783
 46
15.42047771894057
 79
     2
 49
10.4188831934011
 49
-6420.647671753946
 53
173.253
 43
2024.141207852085
 44
17331.37162944198
 45
-0.0001124430909783
 46
15.42047771894057
 79
     2
 49
10.4188831934011
 49
-6420.647671753946
 53
173.253
 43
2076.064162683808
 44
17331.37162944198
 45
-0.0001124430909783
 46
15.42047771894057
 79
     2
 49
10.4188831934011
 49
-6420.647671753946
 53
173.253
 43
2127.987117515524
 44
17331.37162944198
 45
-0.0001124430909783
 46
15.42047771894057
 79
     2
 49
10.4188831934011
 49
-6420.647671753946
 53
173.253
 43
2179.91007234724
 44
17331.37162944198
 45
-0.0001124430909783
 46
15.42047771894057
 79
     2
 49
10.4188831934011
 49
-6420.647671753946
 53
173.253
 43
2231.833027178953
 44
17331.37162944198
 45
-0.0001124430909783
 46
15.42047771894057
 79
     2
 49
10.4188831934011
 49
-6420.647671753946
 53
173.253
 43
2283.755982010669
 44
17331.37162944198
 45
-0.0001124430909783
 46
15.42047771894057
 79
     2
 49
10.4188831934011
 49
-6420.647671753946
 53
173.253
 43
2335.678936842385
 44
17331.37162944198
 45
-0.0001124430909783
 46
15.42047771894057
 79
     2
 49
10.4188831934011
 49
-6420.647671753946
 53
173.253
 43
2387.601891674108
 44
17331.37162944198
 45
-0.0001124430909783
 46
15.42047771894057
 79
     2
 49
10.4188831934011
 49
-6420.647671753946
 53
173.253
 43
2439.524846505821
 44
17331.37162944198
 45
-0.0001124430909783
 46
15.42047771894057
 79
     2
 49
10.4188831934011
 49
-6420.647671753946
 53
173.253
 43
2491.44780133753
 44
17331.37162944198
 45
-0.0001124430909783
 46
15.42047771894057
 79
     2
 49
10.4188831934011
 49
-6420.647671753946
 53
173.253
 43
2543.370756169254
 44
17331.37162944198
 45
-0.0001124430909783
 46
15.42047771894057
 79
     2
 49
10.4188831934011
 49
-6420.647671753946
 53
173.253
 43
2595.29371100097
 44
17331.37162944198
 45
-0.0001124430909783
 46
15.42047771894057
 79
     2
 49
10.4188831934011
 49
-6420.647671753946
 53
173.253
 43
2647.216665832686
 44
17331.37162944198
 45
-0.0001124430909783
 46
15.42047771894057
 79
     2
 49
10.4188831934011
 49
-6420.647671753946
 53
173.253
 43
2699.139620664406
 44
17331.37162944198
 45
-0.0001124430909783
 46
15.42047771894057
 79
     2
 49
10.4188831934011
 49
-6420.647671753946
 53
173.253
 43
2751.062575496122
 44
17331.37162944198
 45
-0.0001124430909783
 46
15.42047771894057
 79
     2
 49
10.4188831934011
 49
-6420.647671753946
 53
173.253
 43
2802.985530327842
 44
17331.37162944198
 45
-0.0001124430909783
 46
15.42047771894057
 79
     2
 49
10.4188831934011
 49
-6420.647671753946
 53
173.253
 43
2854.908485159558
 44
17331.37162944198
 45
-0.0001124430909783
 46
15.42047771894057
 79
     2
 49
10.4188831934011
 49
-6420.647671753946
 53
173.253
 43
2906.831439991274
 44
17331.37162944198
 45
-0.0001124430909783
 46
15.42047771894057
 79
     2
 49
10.4188831934011
 49
-6420.647671753946
 53
173.253
 43
2958.754394822987
 44
17331.37162944198
 45
-0.0001124430909783
 46
15.42047771894057
 79
     2
 49
10.4188831934011
 49
-6420.647671753946
 53
173.253
 43
3010.677349654707
 44
17331.37162944198
 45
-0.0001124430909783
 46
15.42047771894057
 79
     2
 49
10.4188831934011
 49
-6420.647671753946
 53
173.253
 43
3062.600304486423
 44
17331.37162944198
 45
-0.0001124430909783
 46
15.42047771894057
 79
     2
 49
10.4188831934011
 49
-6420.647671753946
 53
173.253
 43
3114.523259318136
 44
17331.37162944198
 45
-0.0001124430909783
 46
15.42047771894057
 79
     2
 49
10.4188831934011
 49
-6420.647671753946
 53
173.253
 43
3166.446214149856
 44
17331.37162944198
 45
-0.0001124430909783
 46
15.42047771894057
 79
     2
 49
10.4188831934011
 49
-6420.647671753946
 53
173.253
 43
3218.369168981572
 44
17331.37162944198
 45
-0.0001124430909783
 46
15.42047771894057
 79
     2
 49
10.4188831934011
 49
-6420.647671753946
 53
173.253
 43
3270.296739187055
 44
17331.37162944198
 45
-0.0001124430909783
 46
15.42047771894057
 79
     2
 49
10.4188831934011
 49
-6420.647671753946
 53
173.253
 43
3322.219694018772
 44
17331.37162944198
 45
-0.0001124430909783
 46
15.42047771894057
 79
     2
 49
10.4188831934011
 49
-6420.647671753946
 53
173.253
 43
3374.142648850488
 44
17331.37162944198
 45
-0.0001124430909783
 46
15.42047771894057
 79
     2
 49
10.4188831934011
 49
-6420.647671753946
 53
173.253
 43
3426.065603682201
 44
17331.37162944198
 45
-0.0001124430909783
 46
15.42047771894057
 79
     2
 49
10.4188831934011
 49
-6420.647671753946
 53
173.253
 43
3477.988558513916
 44
17331.37162944198
 45
-0.0001124430909783
 46
15.42047771894057
 79
     2
 49
10.4188831934011
 49
-6420.647671753946
 53
173.253
 43
3529.91151334564
 44
17331.37162944198
 45
-0.0001124430909783
 46
15.42047771894057
 79
     2
 49
10.4188831934011
 49
-6420.647671753946
 53
173.253
 43
3581.834468177356
 44
17331.37162944198
 45
-0.0001124430909783
 46
15.42047771894057
 79
     2
 49
10.4188831934011
 49
-6420.647671753946
 53
173.253
 43
3633.757423009072
 44
17331.37162944198
 45
-0.0001124430909783
 46
15.42047771894057
 79
     2
 49
10.4188831934011
 49
-6420.647671753946
 53
173.253
 43
3685.680377840792
 44
17331.37162944198
 45
-0.0001124430909783
 46
15.42047771894057
 79
     2
 49
10.4188831934011
 49
-6420.647671753946
 53
173.253
 43
3737.603332672505
 44
17331.37162944198
 45
-0.0001124430909783
 46
15.42047771894057
 79
     2
 49
10.4188831934011
 49
-6420.647671753946
 53
173.253
 43
3789.526287504221
 44
17331.37162944198
 45
-0.0001124430909783
 46
15.42047771894057
 79
     2
 49
10.4188831934011
 49
-6420.647671753946
 53
173.253
 43
3841.449242335944
 44
17331.37162944198
 45
-0.0001124430909783
 46
15.42047771894057
 79
     2
 49
10.4188831934011
 49
-6420.647671753946
 53
173.253
 43
3893.372197167654
 44
17331.37162944198
 45
-0.0001124430909783
 46
15.42047771894057
 79
     2
 49
10.4188831934011
 49
-6420.647671753946
 53
173.253
 43
3945.29515199937
 44
17331.37162944198
 45
-0.0001124430909783
 46
15.42047771894057
 79
     2
 49
10.4188831934011
 49
-6420.647671753946
 53
173.253
 43
3997.21810683109
 44
17331.37162944198
 45
-0.0001124430909783
 46
15.42047771894057
 79
     2
 49
10.4188831934011
 49
-6420.647671753946
 53
173.253
 43
4049.141061662805
 44
17331.37162944198
 45
-0.0001124430909783
 46
15.42047771894057
 79
     2
 49
10.4188831934011
 49
-6420.647671753946
 53
173.253
 43
4101.064016494521
 44
17331.37162944198
 45
-0.0001124430909783
 46
15.42047771894057
 79
     2
 49
10.4188831934011
 49
-6420.647671753946
 53
173.253
 43
4152.986971326241
 44
17331.37162944198
 45
-0.0001124430909783
 46
15.42047771894057
 79
     2
 49
10.4188831934011
 49
-6420.647671753946
 53
173.253
 43
4204.909926157958
 44
17331.37162944198
 45
-0.0001124430909783
 46
15.42047771894057
 79
     2
 49
10.4188831934011
 49
-6420.647671753946
 53
173.253
 43
4256.832880989674
 44
17331.37162944198
 45
-0.0001124430909783
 46
15.42047771894057
 79
     2
 49
10.4188831934011
 49
-6420.647671753946
 53
173.253
 43
4308.755835821397
 44
17331.37162944198
 45
-0.0001124430909783
 46
15.42047771894057
 79
     2
 49
10.4188831934011
 49
-6420.647671753946
 53
173.253
 43
4360.678790653106
 44
17331.37162944198
 45
-0.0001124430909783
 46
15.42047771894057
 79
     2
 49
10.4188831934011
 49
-6420.647671753946
 53
173.253
 43
4412.601745484822
 44
17331.37162944198
 45
-0.0001124430909783
 46
15.42047771894057
 79
     2
 49
10.4188831934011
 49
-6420.647671753946
 53
173.253
 43
4464.524700316542
 44
17331.37162944198
 45
-0.0001124430909783
 46
15.42047771894057
 79
     2
 49
10.4188831934011
 49
-6420.647671753946
 53
173.253
 43
4516.447655148258
 44
17331.37162944198
 45
-0.0001124430909783
 46
15.42047771894057
 79
     2
 49
10.4188831934011
 49
-6420.647671753946
 53
173.253
 43
4568.370609979978
 44
17331.37162944198
 45
-0.0001124430909783
 46
15.42047771894057
 79
     2
 49
10.4188831934011
 49
-6420.647671753946
 53
173.253
 43
4620.293564811695
 44
17331.37162944198
 45
-0.0001124430909783
 46
15.42047771894057
 79
     2
 49
10.4188831934011
 49
-6420.647671753946
 53
173.253
 43
4672.216519643407
 44
17331.37162944198
 45
-0.0001124430909783
 46
15.42047771894057
 79
     2
 49
10.4188831934011
 49
-6420.647671753946
 53
173.253
 43
4724.139474475123
 44
17331.37162944198
 45
-0.0001124430909783
 46
15.42047771894057
 79
     2
 49
10.4188831934011
 49
-6420.647671753946
 53
173.253
 43
4776.062429306842
 44
17331.37162944198
 45
-0.0001124430909783
 46
15.42047771894057
 79
     2
 49
10.4188831934011
 49
-6420.647671753946
 53
173.253
 43
4827.98538413856
 44
17331.37162944198
 45
-0.0001124430909783
 46
15.42047771894057
 79
     2
 49
10.4188831934011
 49
-6420.647671753946
 53
173.253
 43
4879.908338970276
 44
17331.37162944198
 45
-0.0001124430909783
 46
15.42047771894057
 79
     2
 49
10.4188831934011
 49
-6420.647671753946
 53
173.253
 43
4931.831293801991
 44
17331.37162944198
 45
-0.0001124430909783
 46
15.42047771894057
 79
     2
 49
10.4188831934011
 49
-6420.647671753946
 53
173.253
 43
4983.754248633708
 44
17331.37162944198
 45
-0.0001124430909783
 46
15.42047771894057
 79
     2
 49
10.4188831934011
 49
-6420.647671753946
 53
164.891
 43
-1345.901790923635
 44
17329.11397321216
 45
0.0000042855372929
 46
15.42045352479333
 79
     2
 49
5.123664875318557
 49
-586.4794671091429
 53
164.891
 43
-1293.978836091914
 44
17329.11397321216
 45
0.0000042855372929
 46
15.42045352479333
 79
     2
 49
5.123664875318557
 49
-586.4794671091429
 53
164.891
 43
-1242.055881260203
 44
17329.11397321216
 45
0.0000042855372929
 46
15.42045352479333
 79
     2
 49
5.123664875318557
 49
-586.4794671091429
 53
164.891
 43
-1190.132926428479
 44
17329.11397321216
 45
0.0000042855372929
 46
15.42045352479333
 79
     2
 49
5.123664875318557
 49
-586.4794671091429
 53
164.891
 43
-1138.209971596763
 44
17329.11397321216
 45
0.0000042855372929
 46
15.42045352479333
 79
     2
 49
5.123664875318557
 49
-586.4794671091429
 53
164.891
 43
-1086.287016765045
 44
17329.11397321216
 45
0.0000042855372929
 46
15.42045352479333
 79
     2
 49
5.123664875318557
 49
-586.4794671091429
 53
164.891
 43
-1034.364061933334
 44
17329.11397321216
 45
0.0000042855372929
 46
15.42045352479333
 79
     2
 49
5.123664875318557
 49
-586.4794671091429
 53
164.891
 43
-982.4411071016111
 44
17329.11397321216
 45
0.0000042855372929
 46
15.42045352479333
 79
     2
 49
5.123664875318557
 49
-586.4794671091429
 53
164.891
 43
-930.5195368820314
 44
17329.11397321216
 45
0.0000042855372929
 46
15.42045352479333
 79
     2
 49
5.123664875318557
 49
-586.4794671091429
 53
164.891
 43
-878.5965820503097
 44
17329.11397321216
 45
0.0000042855372929
 46
15.42045352479333
 79
     2
 49
5.123664875318557
 49
-586.4794671091429
 53
164.891
 43
-826.6736272185918
 44
17329.11397321216
 45
0.0000042855372929
 46
15.42045352479333
 79
     2
 49
5.123664875318557
 49
-586.4794671091429
 53
157.062
 43
-1361.195247270367
 44
17332.59807271198
 45
-0.0001140812529166
 46
15.42047545549798
 79
     2
 49
11.80815684974729
 49
-2243.446094003533
 53
157.062
 43
-1309.272338592395
 44
17332.59807271198
 45
-0.0001140812529166
 46
15.42047545549798
 79
     2
 49
11.80815684974729
 49
-2243.446094003533
 53
157.062
 43
-1257.349383760678
 44
17332.59807271198
 45
-0.0001140812529166
 46
15.42047545549798
 79
     2
 49
11.80815684974729
 49
-2243.446094003533
 53
157.062
 43
-1205.42642892896
 44
17332.59807271198
 45
-0.0001140812529166
 46
15.42047545549798
 79
     2
 49
11.80815684974729
 49
-2243.446094003533
 53
157.062
 43
-1153.503474097238
 44
17332.59807271198
 45
-0.0001140812529166
 46
15.42047545549798
 79
     2
 49
11.80815684974729
 49
-2243.446094003533
 53
157.062
 43
-1101.580519265526
 44
17332.59807271198
 45
-0.0001140812529166
 46
15.42047545549798
 79
     2
 49
11.80815684974729
 49
-2243.446094003533
 53
157.062
 43
-1049.65756443381
 44
17332.59807271198
 45
-0.0001140812529166
 46
15.42047545549798
 79
     2
 49
11.80815684974729
 49
-2243.446094003533
 53
157.062
 43
-997.7346096020919
 44
17332.59807271198
 45
-0.0001140812529166
 46
15.42047545549798
 79
     2
 49
11.80815684974729
 49
-2243.446094003533
 53
157.062
 43
-945.8116547703811
 44
17332.59807271198
 45
-0.0001140812529166
 46
15.42047545549798
 79
     2
 49
11.80815684974729
 49
-2243.446094003533
 53
157.062
 43
-893.8873153265268
 44
17332.59807271198
 45
-0.0001140812529166
 46
15.42047545549798
 79
     2
 49
11.80815684974729
 49
-2243.446094003533
 53
157.062
 43
-841.9643604948142
 44
17332.59807271198
 45
-0.0001140812529166
 46
15.42047545549798
 79
     2
 49
11.80815684974729
 49
-2243.446094003533
 53
157.062
 43
-790.0414056630925
 44
17332.59807271198
 45
-0.0001140812529166
 46
15.42047545549798
 79
     2
 49
11.80815684974729
 49
-2243.446094003533
 53
157.062
 43
-738.11845083138
 44
17332.59807271198
 45
-0.0001140812529166
 46
15.42047545549798
 79
     2
 49
11.80815684974729
 49
-2243.446094003533
 53
157.062
 43
-686.1954959996692
 44
17332.59807271198
 45
-0.0001140812529166
 46
15.42047545549798
 79
     2
 49
11.80815684974729
 49
-2243.446094003533
 53
157.062
 43
-634.2725411679457
 44
17332.59807271198
 45
-0.0001140812529166
 46
15.42047545549798
 79
     2
 49
11.80815684974729
 49
-2243.446094003533
 53
157.062
 43
-582.3495863362349
 44
17332.59807271198
 45
-0.0001140812529166
 46
15.42047545549798
 79
     2
 49
11.80815684974729
 49
-2243.446094003533
 53
157.062
 43
-530.4266315045115
 44
17332.59807271198
 45
-0.0001140812529166
 46
15.42047545549798
 79
     2
 49
11.80815684974729
 49
-2243.446094003533
 53
157.062
 43
-478.5036766727898
 44
17332.59807271198
 45
-0.0001140812529166
 46
15.42047545549798
 79
     2
 49
11.80815684974729
 49
-2243.446094003533
 53
157.062
 43
-426.5807218410773
 44
17332.59807271198
 45
-0.0001140812529166
 46
15.42047545549798
 79
     2
 49
11.80815684974729
 49
-2243.446094003533
 53
157.062
 43
-374.6577670093647
 44
17332.59807271198
 45
-0.0001140812529166
 46
15.42047545549798
 79
     2
 49
11.80815684974729
 49
-2243.446094003533
 53
157.062
 43
-322.7348121776449
 44
17332.59807271198
 45
-0.0001140812529166
 46
15.42047545549798
 79
     2
 49
11.80815684974729
 49
-2243.446094003533
 53
157.062
 43
-270.8118573459269
 44
17332.59807271198
 45
-0.0001140812529166
 46
15.42047545549798
 79
     2
 49
11.80815684974729
 49
-2243.446094003533
 53
157.062
 43
-218.8889025142089
 44
17332.59807271198
 45
-0.0001140812529166
 46
15.42047545549798
 79
     2
 49
11.80815684974729
 49
-2243.446094003533
 53
157.062
 43
-166.9659476824927
 44
17332.59807271198
 45
-0.0001140812529166
 46
15.42047545549798
 79
     2
 49
11.80815684974729
 49
-2243.446094003533
 53
157.062
 43
-115.0429928507801
 44
17332.59807271198
 45
-0.0001140812529166
 46
15.42047545549798
 79
     2
 49
11.80815684974729
 49
-2243.446094003533
 53
157.062
 43
-63.12003801906394
 44
17332.59807271198
 45
-0.0001140812529166
 46
15.42047545549798
 79
     2
 49
11.80815684974729
 49
-2243.446094003533
 53
157.062
 43
-11.19708318734047
 44
17332.59807271198
 45
-0.0001140812529166
 46
15.42047545549798
 79
     2
 49
11.80815684974729
 49
-2243.446094003533
 53
157.062
 43
40.72587164437027
 44
17332.59807271198
 45
-0.0001140812529166
 46
15.42047545549798
 79
     2
 49
11.80815684974729
 49
-2243.446094003533
 53
157.062
 43
92.64882647608828
 44
17332.59807271198
 45
-0.0001140812529166
 46
15.42047545549798
 79
     2
 49
11.80815684974729
 49
-2243.446094003533
 53
157.062
 43
144.5717813078045
 44
17332.59807271198
 45
-0.0001140812529166
 46
15.42047545549798
 79
     2
 49
11.80815684974729
 49
-2243.446094003533
 53
157.062
 43
196.494736139528
 44
17332.59807271198
 45
-0.0001140812529166
 46
15.42047545549798
 79
     2
 49
11.80815684974729
 49
-2243.446094003533
 53
157.062
 43
248.4176909712369
 44
17332.59807271198
 45
-0.0001140812529166
 46
15.42047545549798
 79
     2
 49
11.80815684974729
 49
-2243.446094003533
 53
157.062
 43
300.3406458029567
 44
17332.59807271198
 45
-0.0001140812529166
 46
15.42047545549798
 79
     2
 49
11.80815684974729
 49
-2243.446094003533
 53
157.062
 43
352.2636006346729
 44
17332.59807271198
 45
-0.0001140812529166
 46
15.42047545549798
 79
     2
 49
11.80815684974729
 49
-2243.446094003533
 53
157.062
 43
404.1865554663891
 44
17332.59807271198
 45
-0.0001140812529166
 46
15.42047545549798
 79
     2
 49
11.80815684974729
 49
-2243.446094003533
 53
157.062
 43
456.1095102981089
 44
17332.59807271198
 45
-0.0001140812529166
 46
15.42047545549798
 79
     2
 49
11.80815684974729
 49
-2243.446094003533
 53
157.062
 43
508.0324651298251
 44
17332.59807271198
 45
-0.0001140812529166
 46
15.42047545549798
 79
     2
 49
11.80815684974729
 49
-2243.446094003533
 53
157.062
 43
559.9554199615377
 44
17332.59807271198
 45
-0.0001140812529166
 46
15.42047545549798
 79
     2
 49
11.80815684974729
 49
-2243.446094003533
 53
157.062
 43
611.8783747932539
 44
17332.59807271198
 45
-0.0001140812529166
 46
15.42047545549798
 79
     2
 49
11.80815684974729
 49
-2243.446094003533
 53
157.062
 43
663.8013296249737
 44
17332.59807271198
 45
-0.0001140812529166
 46
15.42047545549798
 79
     2
 49
11.80815684974729
 49
-2243.446094003533
 53
142.435
 43
-1383.353979781835
 44
17323.40624894096
 45
0.0000772591966259
 46
15.42046066953884
 79
     2
 49
6.340646629098743
 49
-2548.32374634662
 53
142.435
 43
-1331.431209565071
 44
17323.40624894096
 45
0.0000772591966259
 46
15.42046066953884
 79
     2
 49
6.340646629098743
 49
-2548.32374634662
 53
142.435
 43
-1279.508254733348
 44
17323.40624894096
 45
0.0000772591966259
 46
15.42046066953884
 79
     2
 49
6.340646629098743
 49
-2548.32374634662
 53
142.435
 43
-1227.585299901626
 44
17323.40624894096
 45
0.0000772591966259
 46
15.42046066953884
 79
     2
 49
6.340646629098743
 49
-2548.32374634662
 53
142.435
 43
-1175.662345069913
 44
17323.40624894096
 45
0.0000772591966259
 46
15.42046066953884
 79
     2
 49
6.340646629098743
 49
-2548.32374634662
 53
142.435
 43
-1123.739390238203
 44
17323.40624894096
 45
0.0000772591966259
 46
15.42046066953884
 79
     2
 49
6.340646629098743
 49
-2548.32374634662
 53
142.435
 43
-1071.816435406485
 44
17323.40624894096
 45
0.0000772591966259
 46
15.42046066953884
 79
     2
 49
6.340646629098743
 49
-2548.32374634662
 53
142.435
 43
-1019.893480574768
 44
17323.40624894096
 45
0.0000772591966259
 46
15.42046066953884
 79
     2
 49
6.340646629098743
 49
-2548.32374634662
 53
142.435
 43
-967.970525743045
 44
17323.40624894096
 45
0.0000772591966259
 46
15.42046066953884
 79
     2
 49
6.340646629098743
 49
-2548.32374634662
 53
142.435
 43
-916.0457247618214
 44
17323.40624894096
 45
0.0000772591966259
 46
15.42046066953884
 79
     2
 49
6.340646629098743
 49
-2548.32374634662
 53
142.435
 43
-864.1227699301088
 44
17323.40624894096
 45
0.0000772591966259
 46
15.42046066953884
 79
     2
 49
6.340646629098743
 49
-2548.32374634662
 53
142.435
 43
-812.1998150983964
 44
17323.40624894096
 45
0.0000772591966259
 46
15.42046066953884
 79
     2
 49
6.340646629098743
 49
-2548.32374634662
 53
142.435
 43
-760.2768602666746
 44
17323.40624894096
 45
0.0000772591966259
 46
15.42046066953884
 79
     2
 49
6.340646629098743
 49
-2548.32374634662
 53
142.435
 43
-708.353905434953
 44
17323.40624894096
 45
0.0000772591966259
 46
15.42046066953884
 79
     2
 49
6.340646629098743
 49
-2548.32374634662
 53
142.435
 43
-656.4309506032405
 44
17323.40624894096
 45
0.0000772591966259
 46
15.42046066953884
 79
     2
 49
6.340646629098743
 49
-2548.32374634662
 53
142.435
 43
-604.5079957715297
 44
17323.40624894096
 45
0.0000772591966259
 46
15.42046066953884
 79
     2
 49
6.340646629098743
 49
-2548.32374634662
 53
142.435
 43
-552.5850409398063
 44
17323.40624894096
 45
0.0000772591966259
 46
15.42046066953884
 79
     2
 49
6.340646629098743
 49
-2548.32374634662
 53
142.435
 43
-500.6620861080955
 44
17323.40624894096
 45
0.0000772591966259
 46
15.42046066953884
 79
     2
 49
6.340646629098743
 49
-2548.32374634662
 53
142.435
 43
-448.739131276372
 44
17323.40624894096
 45
0.0000772591966259
 46
15.42046066953884
 79
     2
 49
6.340646629098743
 49
-2548.32374634662
 53
142.435
 43
-396.8161764446595
 44
17323.40624894096
 45
0.0000772591966259
 46
15.42046066953884
 79
     2
 49
6.340646629098743
 49
-2548.32374634662
 53
142.435
 43
-344.8932216129488
 44
17323.40624894096
 45
0.0000772591966259
 46
15.42046066953884
 79
     2
 49
6.340646629098743
 49
-2548.32374634662
 53
142.435
 43
-292.9702667812271
 44
17323.40624894096
 45
0.0000772591966259
 46
15.42046066953884
 79
     2
 49
6.340646629098743
 49
-2548.32374634662
 53
142.435
 43
-241.0473119495037
 44
17323.40624894096
 45
0.0000772591966259
 46
15.42046066953884
 79
     2
 49
6.340646629098743
 49
-2548.32374634662
 53
142.435
 43
-189.1243571177929
 44
17323.40624894096
 45
0.0000772591966259
 46
15.42046066953884
 79
     2
 49
6.340646629098743
 49
-2548.32374634662
 53
142.435
 43
-137.2014022860712
 44
17323.40624894096
 45
0.0000772591966259
 46
15.42046066953884
 79
     2
 49
6.340646629098743
 49
-2548.32374634662
 53
142.435
 43
-85.27844745435869
 44
17323.40624894096
 45
0.0000772591966259
 46
15.42046066953884
 79
     2
 49
6.340646629098743
 49
-2548.32374634662
 53
142.435
 43
-33.35549262263521
 44
17323.40624894096
 45
0.0000772591966259
 46
15.42046066953884
 79
     2
 49
6.340646629098743
 49
-2548.32374634662
 53
142.435
 43
18.56746220907553
 44
17323.40624894096
 45
0.0000772591966259
 46
15.42046066953884
 79
     2
 49
6.340646629098743
 49
-2548.32374634662
 53
142.435
 43
70.49041704079354
 44
17323.40624894096
 45
0.0000772591966259
 46
15.42046066953884
 79
     2
 49
6.340646629098743
 49
-2548.32374634662
 53
142.435
 43
122.4133718725097
 44
17323.40624894096
 45
0.0000772591966259
 46
15.42046066953884
 79
     2
 49
6.340646629098743
 49
-2548.32374634662
 53
142.435
 43
174.3363267042259
 44
17323.40624894096
 45
0.0000772591966259
 46
15.42046066953884
 79
     2
 49
6.340646629098743
 49
-2548.32374634662
 53
142.435
 43
226.259281535944
 44
17323.40624894096
 45
0.0000772591966259
 46
15.42046066953884
 79
     2
 49
6.340646629098743
 49
-2548.32374634662
 53
142.435
 43
278.1822363676583
 44
17323.40624894096
 45
0.0000772591966259
 46
15.42046066953884
 79
     2
 49
6.340646629098743
 49
-2548.32374634662
 53
142.435
 43
330.1051911993782
 44
17323.40624894096
 45
0.0000772591966259
 46
15.42046066953884
 79
     2
 49
6.340646629098743
 49
-2548.32374634662
 53
142.435
 43
382.0281460310907
 44
17323.40624894096
 45
0.0000772591966259
 46
15.42046066953884
 79
     2
 49
6.340646629098743
 49
-2548.32374634662
 53
142.435
 43
433.9511008628142
 44
17323.40624894096
 45
0.0000772591966259
 46
15.42046066953884
 79
     2
 49
6.340646629098743
 49
-2548.32374634662
 53
142.435
 43
485.8740556945304
 44
17323.40624894096
 45
0.0000772591966259
 46
15.42046066953884
 79
     2
 49
6.340646629098743
 49
-2548.32374634662
 53
142.435
 43
537.7970105262465
 44
17323.40624894096
 45
0.0000772591966259
 46
15.42046066953884
 79
     2
 49
6.340646629098743
 49
-2548.32374634662
 53
142.435
 43
589.7199653579591
 44
17323.40624894096
 45
0.0000772591966259
 46
15.42046066953884
 79
     2
 49
6.340646629098743
 49
-2548.32374634662
 53
115.046
 43
-1343.138566651836
 44
17323.19987942623
 45
-0.0001241594983084
 46
15.42046743086035
 79
     2
 49
6.527892342656238
 49
-4163.599702041431
 53
115.046
 43
-1291.215611820118
 44
17323.19987942623
 45
-0.0001241594983084
 46
15.42046743086035
 79
     2
 49
6.527892342656238
 49
-4163.599702041431
 53
115.046
 43
-1239.292656988397
 44
17323.19987942623
 45
-0.0001241594983084
 46
15.42046743086035
 79
     2
 49
6.527892342656238
 49
-4163.599702041431
 53
115.046
 43
-1187.369702156684
 44
17323.19987942623
 45
-0.0001241594983084
 46
15.42046743086035
 79
     2
 49
6.527892342656238
 49
-4163.599702041431
 53
115.046
 43
-1135.446747324962
 44
17323.19987942623
 45
-0.0001241594983084
 46
15.42046743086035
 79
     2
 49
6.527892342656238
 49
-4163.599702041431
 53
115.046
 43
-1083.52379249325
 44
17323.19987942623
 45
-0.0001241594983084
 46
15.42046743086035
 79
     2
 49
6.527892342656238
 49
-4163.599702041431
 53
115.046
 43
-1031.600837661533
 44
17323.19987942623
 45
-0.0001241594983084
 46
15.42046743086035
 79
     2
 49
6.527892342656238
 49
-4163.599702041431
 53
115.046
 43
-979.6778828298156
 44
17323.19987942623
 45
-0.0001241594983084
 46
15.42046743086035
 79
     2
 49
6.527892342656238
 49
-4163.599702041431
 53
115.046
 43
-927.754927998094
 44
17323.19987942623
 45
-0.0001241594983084
 46
15.42046743086035
 79
     2
 49
6.527892342656238
 49
-4163.599702041431
 53
115.046
 43
-875.8319731663814
 44
17323.19987942623
 45
-0.0001241594983084
 46
15.42046743086035
 79
     2
 49
6.527892342656238
 49
-4163.599702041431
 53
115.046
 43
-823.9090183346597
 44
17323.19987942623
 45
-0.0001241594983084
 46
15.42046743086035
 79
     2
 49
6.527892342656238
 49
-4163.599702041431
 53
115.046
 43
-771.9860635029472
 44
17323.19987942623
 45
-0.0001241594983084
 46
15.42046743086035
 79
     2
 49
6.527892342656238
 49
-4163.599702041431
 53
115.046
 43
-720.0631086712347
 44
17323.19987942623
 45
-0.0001241594983084
 46
15.42046743086035
 79
     2
 49
6.527892342656238
 49
-4163.599702041431
 53
115.046
 43
-668.140153839513
 44
17323.19987942623
 45
-0.0001241594983084
 46
15.42046743086035
 79
     2
 49
6.527892342656238
 49
-4163.599702041431
 53
115.046
 43
-616.2171990078022
 44
17323.19987942623
 45
-0.0001241594983084
 46
15.42046743086035
 79
     2
 49
6.527892342656238
 49
-4163.599702041431
 53
115.046
 43
-564.2942441760787
 44
17323.19987942623
 45
-0.0001241594983084
 46
15.42046743086035
 79
     2
 49
6.527892342656238
 49
-4163.599702041431
 53
115.046
 43
-512.3712893443571
 44
17323.19987942623
 45
-0.0001241594983084
 46
15.42046743086035
 79
     2
 49
6.527892342656238
 49
-4163.599702041431
 53
115.046
 43
-460.4483345126445
 44
17323.19987942623
 45
-0.0001241594983084
 46
15.42046743086035
 79
     2
 49
6.527892342656238
 49
-4163.599702041431
 53
115.046
 43
-408.5253796809338
 44
17323.19987942623
 45
-0.0001241594983084
 46
15.42046743086035
 79
     2
 49
6.527892342656238
 49
-4163.599702041431
 53
115.046
 43
-356.6024248492104
 44
17323.19987942623
 45
-0.0001241594983084
 46
15.42046743086035
 79
     2
 49
6.527892342656238
 49
-4163.599702041431
 53
115.046
 43
-304.6794700174996
 44
17323.19987942623
 45
-0.0001241594983084
 46
15.42046743086035
 79
     2
 49
6.527892342656238
 49
-4163.599702041431
 53
115.046
 43
-252.756515185778
 44
17323.19987942623
 45
-0.0001241594983084
 46
15.42046743086035
 79
     2
 49
6.527892342656238
 49
-4163.599702041431
 53
115.046
 43
-200.8335603540599
 44
17323.19987942623
 45
-0.0001241594983084
 46
15.42046743086035
 79
     2
 49
6.527892342656238
 49
-4163.599702041431
 53
115.046
 43
-148.9106055223474
 44
17323.19987942623
 45
-0.0001241594983084
 46
15.42046743086035
 79
     2
 49
6.527892342656238
 49
-4163.599702041431
 53
115.046
 43
-96.98765069063121
 44
17323.19987942623
 45
-0.0001241594983084
 46
15.42046743086035
 79
     2
 49
6.527892342656238
 49
-4163.599702041431
 53
115.046
 43
-45.06469585890954
 44
17323.19987942623
 45
-0.0001241594983084
 46
15.42046743086035
 79
     2
 49
6.527892342656238
 49
-4163.599702041431
 53
115.046
 43
6.858258972803014
 44
17323.19987942623
 45
-0.0001241594983084
 46
15.42046743086035
 79
     2
 49
6.527892342656238
 49
-4163.599702041431
 53
115.046
 43
58.78121380452103
 44
17323.19987942623
 45
-0.0001241594983084
 46
15.42046743086035
 79
     2
 49
6.527892342656238
 49
-4163.599702041431
 53
115.046
 43
110.7041686362372
 44
17323.19987942623
 45
-0.0001241594983084
 46
15.42046743086035
 79
     2
 49
6.527892342656238
 49
-4163.599702041431
 53
115.046
 43
162.6271234679589
 44
17323.19987942623
 45
-0.0001241594983084
 46
15.42046743086035
 79
     2
 49
6.527892342656238
 49
-4163.599702041431
 53
115.046
 43
214.5500782996714
 44
17323.19987942623
 45
-0.0001241594983084
 46
15.42046743086035
 79
     2
 49
6.527892342656238
 49
-4163.599702041431
 53
115.046
 43
266.4730331313876
 44
17323.19987942623
 45
-0.0001241594983084
 46
15.42046743086035
 79
     2
 49
6.527892342656238
 49
-4163.599702041431
 53
115.046
 43
318.3959879631038
 44
17323.19987942623
 45
-0.0001241594983084
 46
15.42046743086035
 79
     2
 49
6.527892342656238
 49
-4163.599702041431
 53
115.046
 43
370.3189427948237
 44
17323.19987942623
 45
-0.0001241594983084
 46
15.42046743086035
 79
     2
 49
6.527892342656238
 49
-4163.599702041431
 53
104.0759999999998
 43
-1388.379937194593
 44
17327.27192215892
 45
0.000113352007534
 46
15.42045346619244
 79
     2
 49
3.750821949567952
 49
-1490.646556440062
 53
104.0759999999998
 43
-1336.456890055399
 44
17327.27192215892
 45
0.000113352007534
 46
15.42045346619244
 79
     2
 49
3.750821949567952
 49
-1490.646556440062
 53
104.0759999999998
 43
-1284.533935223682
 44
17327.27192215892
 45
0.000113352007534
 46
15.42045346619244
 79
     2
 49
3.750821949567952
 49
-1490.646556440062
 53
104.0759999999998
 43
-1232.61098039197
 44
17327.27192215892
 45
0.000113352007534
 46
15.42045346619244
 79
     2
 49
3.750821949567952
 49
-1490.646556440062
 53
104.0759999999998
 43
-1180.688025560248
 44
17327.27192215892
 45
0.000113352007534
 46
15.42045346619244
 79
     2
 49
3.750821949567952
 49
-1490.646556440062
 53
104.0759999999998
 43
-1128.765070728525
 44
17327.27192215892
 45
0.000113352007534
 46
15.42045346619244
 79
     2
 49
3.750821949567952
 49
-1490.646556440062
 53
104.0759999999998
 43
-1076.842115896814
 44
17327.27192215892
 45
0.000113352007534
 46
15.42045346619244
 79
     2
 49
3.750821949567952
 49
-1490.646556440062
 98
        1
 10
248.9334455164208
 20
2574.026097693165
  0
HATCH
  5
5CC2
330
67
100
AcDbEntity
  8
F_01 sichtbar
370
    13
100
AcDbHatch
 10
0.0
 20
0.0
 30
0.0
210
0.0
220
0.0
230
1.0
  2
HEX
 70
     0
 71
     0
 91
        1
 92
        1
 93
        4
 72
     1
 10
256.11466450445
 20
758.2952698109793
 11
256.11466450445
 21
713.2952698109775
 72
     1
 10
256.11466450445
 20
713.2952698109775
 11
348.5583170683022
 21
713.2952698109775
 72
     1
 10
348.5583170683022
 20
713.2952698109775
 11
348.5583170683022
 21
758.2952698109775
 72
     1
 10
348.5583170683022
 20
758.2952698109775
 11
256.11466450445
 21
758.2952698109793
 97
        0
 75
     0
 76
     1
 52
0.0
 41
2.0
 77
     0
 78
     3
 53
0.0
 43
-33490.91934530475
 44
-13965.75312442397
 45
0.0
 46
10.99852
 79
     2
 49
6.349999999999999
 49
-12.7
 53
120.0
 43
-33490.91934530475
 44
-13965.75312442397
 45
-9.524997724031223
 46
-5.499259999999996
 79
     2
 49
6.349999999999982
 49
-12.69999999999996
 53
60.0
 43
-33484.56934530474
 44
-13965.75312442397
 45
-9.524997724031223
 46
5.49926
 79
     2
 49
6.349999999999999
 49
-12.7
 98
        1
 10
270.8103977229039
 20
712.7142943389344
1001
ACAD
1010
0.0
1020
0.0
1030
0.0
  0
HATCH
  5
5CC3
330
67
100
AcDbEntity
  8
F_01 sichtbar
370
    13
100
AcDbHatch
 10
0.0
 20
0.0
 30
0.0
210
0.0
220
0.0
230
1.0
  2
HEX
 70
     0
 71
     0
 91
        1
 92
        1
 93
        4
 72
     1
 10
256.1146645044519
 20
566.2952698109775
 11
256.11466450445
 21
529.2952698109766
 72
     1
 10
256.11466450445
 20
529.2952698109766
 11
420.5583170682875
 21
529.2952698109774
 72
     1
 10
420.5583170682875
 20
529.2952698109774
 11
420.5583170682875
 21
566.2952698109775
 72
     1
 10
420.5583170682875
 20
566.2952698109775
 11
256.1146645044519
 21
566.2952698109775
 97
        0
 75
     0
 76
     1
 52
0.0
 41
2.0
 77
     0
 78
     3
 53
0.0
 43
-33421.41934530475
 44
-14157.75312442397
 45
0.0
 46
10.99852
 79
     2
 49
6.349999999999999
 49
-12.7
 53
120.0
 43
-33421.41934530475
 44
-14157.75312442397
 45
-9.524997724031223
 46
-5.499259999999996
 79
     2
 49
6.349999999999981
 49
-12.69999999999996
 53
60.0
 43
-33415.06934530474
 44
-14157.75312442397
 45
-9.524997724031223
 46
5.49926
 79
     2
 49
6.349999999999999
 49
-12.7
 98
        1
 10
340.3103977229039
 20
520.7142943389344
1001
ACAD
1010
0.0
1020
0.0
1030
0.0
  0
POLYLINE
  5
5CC4
330
67
100
AcDbEntity
  8
F_0 sichtbar
370
    13
100
AcDb2dPolyline
 66
     1
 10
0.0
 20
0.0
 30
0.0
  0
VERTEX
  5
5CC5
330
5CC4
100
AcDbEntity
  8
F_0 sichtbar
370
    13
100
AcDbVertex
100
AcDb2dVertex
 10
326.8150756163541
 20
804.7916116543683
 30
0.0
  0
VERTEX
  5
5CC6
330
5CC4
100
AcDbEntity
  8
F_0 sichtbar
370
    13
100
AcDbVertex
100
AcDb2dVertex
 10
477.2497836829879
 20
849.3663820115807
 30
0.0
  0
SEQEND
  5
5CC7
330
5CC4
100
AcDbEntity
  8
F_0 sichtbar
370
    13
  0
POLYLINE
  5
5CC8
330
67
100
AcDbEntity
  8
F_0 sichtbar
370
    13
100
AcDb2dPolyline
 66
     1
 10
0.0
 20
0.0
 30
0.0
  0
VERTEX
  5
5CC9
330
5CC8
100
AcDbEntity
  8
F_0 sichtbar
370
    13
100
AcDbVertex
100
AcDb2dVertex
 10
323.9741030545683
 20
814.3795663321498
 30
0.0
  0
VERTEX
  5
5CCA
330
5CC8
100
AcDbEntity
  8
F_0 sichtbar
370
    13
100
AcDbVertex
100
AcDb2dVertex
 10
474.4088111212022
 20
858.9543366893622
 30
0.0
  0
SEQEND
  5
5CCB
330
5CC8
100
AcDbEntity
  8
F_0 sichtbar
370
    13
  0
HATCH
  5
5CCC
330
67
100
AcDbEntity
  8
F_01 sichtbar
370
    13
100
AcDbHatch
 10
0.0
 20
0.0
 30
0.0
210
0.0
220
0.0
230
1.0
  2
CROSS
 70
     0
 71
     0
 91
        2
 92
        1
 93
        5
 72
     1
 10
420.558317068273
 20
346.2952698109775
 11
318.7412362515388
 21
346.2952698109775
 72
     1
 10
318.7412362515388
 20
346.2952698109775
 11
318.7412362515388
 21
334.2952698109739
 72
     1
 10
318.7412362515388
 20
334.2952698109739
 11
380.0582987611415
 21
334.2952710724285
 72
     1
 10
380.0582987611415
 20
334.2952710724285
 11
420.558317068273
 21
334.2952710724285
 72
     1
 10
420.558317068273
 20
334.2952710724285
 11
420.558317068273
 21
346.2952698109775
 97
        0
 92
        1
 93
        4
 72
     1
 10
318.7412362515388
 20
346.2952698109775
 11
256.11466450445
 21
346.2952698109775
 72
     1
 10
256.11466450445
 20
346.2952698109775
 11
256.11466450445
 21
334.2952698109739
 72
     1
 10
256.11466450445
 20
334.2952698109739
 11
318.7412362515388
 21
334.2952698109739
 72
     1
 10
318.7412362515388
 20
334.2952698109739
 11
318.7412362515388
 21
346.2952698109775
 97
        0
 75
     0
 76
     1
 52
0.0
 41
1.0
 77
     0
 78
     2
 53
0.0
 43
-33421.41934530476
 44
-14064.75312426627
 45
6.349999999999999
 46
6.349999999999999
 79
     2
 49
3.174999999999999
 49
-9.525
 53
90.0
 43
-33419.83184530476
 44
-14066.34062426627
 45
-6.349999999999999
 46
6.349999999999999
 79
     2
 49
3.174999999999999
 49
-9.525
 98
        2
 10
332.6903622905593
 20
336.3142724867766
 10
304.8210748072888
 20
335.6883224846106
1001
ACAD
1010
0.0
1020
0.0
1030
0.0
  0
POLYLINE
  5
5CCD
330
67
100
AcDbEntity
  8
F_01 sichtbar
370
    13
100
AcDb2dPolyline
 66
     1
 10
0.0
 20
0.0
 30
0.0
  0
VERTEX
  5
5CCE
330
5CCD
100
AcDbEntity
  8
F_01 sichtbar
370
    13
100
AcDbVertex
100
AcDb2dVertex
 10
256.11466450445
 20
346.2952698109775
 30
0.0
  0
VERTEX
  5
5CCF
330
5CCD
100
AcDbEntity
  8
F_01 sichtbar
370
    13
100
AcDbVertex
100
AcDb2dVertex
 10
420.558317068273
 20
346.2952698109775
 30
0.0
  0
VERTEX
  5
5CD0
330
5CCD
100
AcDbEntity
  8
F_01 sichtbar
370
    13
100
AcDbVertex
100
AcDb2dVertex
 10
420.558317068273
 20
334.2952698109739
 30
0.0
  0
VERTEX
  5
5CD1
330
5CCD
100
AcDbEntity
  8
F_01 sichtbar
370
    13
100
AcDbVertex
100
AcDb2dVertex
 10
256.11466450445
 20
334.2952698109739
 30
0.0
  0
SEQEND
  5
5CD2
330
5CCD
100
AcDbEntity
  8
F_01 sichtbar
370
    13
  0
LINE
  5
5CD3
330
67
100
AcDbEntity
  8
F_02 unsichtbar
370
    13
100
AcDbLine
 10
420.5583170682875
 20
347.7952698109775
 30
0.0
 11
256.1146645044573
 21
347.7952698109775
 31
0.0
  0
TEXT
  5
5CD4
330
67
100
AcDbEntity
  8
F_01 sichtbar
370
    13
100
AcDbText
 10
325.3297185188494
 20
259.0282556523925
 30
0.0
 40
15.0
  1
RH
 50
90.0
  7
Arial
100
AcDbText
  0
LINE
  5
5CD5
330
67
100
AcDbEntity
  8
F_01 sichtbar
370
    13
100
AcDbLine
 10
330.3297185188494
 20
326.7952685495193
 30
0.0
 11
330.3297185188494
 21
140.2072522837006
 31
0.0
  0
SOLID
  5
5CD6
330
67
100
AcDbEntity
  8
F_01 sichtbar
370
    13
100
AcDbTrace
 10
327.8297185188494
 20
319.2952685495193
 30
0.0
 11
332.8297185188494
 21
319.2952685495193
 31
0.0
 12
330.3297185188494
 22
334.2952685495193
 32
0.0
 13
330.3297185188494
 23
334.2952685495193
 33
0.0
  0
SOLID
  5
5CD7
330
67
100
AcDbEntity
  8
F_01 sichtbar
370
    13
100
AcDbTrace
 10
327.829718308607
 20
349.2952698109739
 30
0.0
 11
332.829718308607
 21
349.2952698109739
 31
0.0
 12
330.329718308607
 22
334.2952698109739
 32
0.0
 13
330.329718308607
 23
334.2952698109739
 33
0.0
  0
SOLID
  5
5CD8
330
67
100
AcDbEntity
  8
F_01 sichtbar
370
    13
100
AcDbTrace
 10
327.829718308607
 20
514.2952698109775
 30
0.0
 11
332.829718308607
 21
514.2952698109775
 31
0.0
 12
330.329718308607
 22
529.2952698109774
 32
0.0
 13
330.329718308607
 23
529.2952698109774
 33
0.0
  0
TEXT
  5
5CD9
330
67
100
AcDbEntity
  8
F_01 sichtbar
370
    13
100
AcDbText
 10
325.329718308607
 20
426.1547389289362
 30
0.0
 40
15.0
  1
D1
 50
90.0
  7
Arial
100
AcDbText
  0
SOLID
  5
5CDA
330
67
100
AcDbEntity
  8
F_01 sichtbar
370
    13
100
AcDbTrace
 10
327.829718308607
 20
544.2952698109775
 30
0.0
 11
332.829718308607
 21
544.2952698109775
 31
0.0
 12
330.329718308607
 22
529.2952698109774
 32
0.0
 13
330.329718308607
 23
529.2952698109774
 33
0.0
  0
SOLID
  5
5CDB
330
67
100
AcDbEntity
  8
F_01 sichtbar
370
    13
100
AcDbTrace
 10
327.829718308607
 20
743.2952698109784
 30
0.0
 11
332.829718308607
 21
743.2952698109784
 31
0.0
 12
330.329718308607
 22
758.2952698109784
 32
0.0
 13
330.329718308607
 23
758.2952698109784
 33
0.0
  0
TEXT
  5
5CDC
330
67
100
AcDbEntity
  8
F_01 sichtbar
370
    13
100
AcDbText
 10
325.329718308607
 20
637.9259920253598
 30
0.0
 40
15.0
  1
D2
 50
90.0
  7
Arial
100
AcDbText
  0
LINE
  5
5CDD
330
67
100
AcDbEntity
  8
F_01 sichtbar
370
    13
100
AcDbLine
 10
330.329718308607
 20
750.7952698109784
 30
0.0
 11
330.329718308607
 21
536.7952698109775
 31
0.0
  0
LINE
  5
5CDE
330
67
100
AcDbEntity
  8
F_01 sichtbar
370
    13
100
AcDbLine
 10
330.329718308607
 20
521.7952698109775
 30
0.0
 11
330.329718308607
 21
341.7952698109739
 31
0.0
  0
MTEXT
  5
5CDF
330
67
100
AcDbEntity
  8
F_01 sichtbar
370
    13
100
AcDbMText
 10
281.1146645044392
 20
883.2952698109783
 30
0.0
 40
30.0
 41
187.1747820159653
 71
     1
 72
     5
  1
\A1;{\fArial Narrow|b1|i0|c0|p34;B}
 73
     1
 44
1.0
  0
POLYLINE
  5
5CE0
330
67
100
AcDbEntity
  8
F_31 Ansichtsfenster
370
    13
100
AcDb2dPolyline
 66
     1
 10
0.0
 20
0.0
 30
0.0
  0
VERTEX
  5
5CE1
330
5CE0
100
AcDbEntity
  8
F_31 Ansichtsfenster
370
    13
100
AcDbVertex
100
AcDb2dVertex
 10
256.1146645044464
 20
334.2952698109739
 30
0.0
  0
VERTEX
  5
5CE2
330
5CE0
100
AcDbEntity
  8
F_31 Ansichtsfenster
370
    13
100
AcDbVertex
100
AcDb2dVertex
 10
256.1146645044464
 20
758.2952698109784
 30
0.0
  0
SEQEND
  5
5CE3
330
5CE0
100
AcDbEntity
  8
F_31 Ansichtsfenster
370
    13
  0
HATCH
  5
5CE4
330
67
100
AcDbEntity
  8
F_18 Schr-Holz hell
370
    13
100
AcDbHatch
 10
0.0
 20
0.0
 30
0.0
210
0.0
220
0.0
230
1.0
  2
SOLID
 70
     1
 71
     0
 91
        1
 92
        1
 93
        6
 72
     1
 10
425.5583074387105
 20
334.2952680239114
 11
437.5583068214328
 21
334.2952698109739
 72
     1
 10
437.5583068214328
 20
334.2952698109739
 11
437.5583035626696
 21
371.295269285366
 72
     1
 10
437.5583035626696
 20
371.295269285366
 11
450.5584307536337
 21
371.2953042863828
 72
     1
 10
450.5584307536337
 20
371.2953042863828
 11
450.559320506487
 21
841.457826319146
 72
     1
 10
450.559320506487
 20
841.457826319146
 11
425.5583170682875
 21
834.0498683998603
 72
     1
 10
425.5583170682875
 20
834.0498683998603
 11
425.5583074387105
 21
334.2952680239114
 97
        0
 75
     0
 76
     1
 98
        1
 10
-34317.2053425112
 20
-14061.75312605333
450
        0
451
        0
460
0.0
461
0.0
452
        1
462
1.0
453
        2
463
0.0
 63
     5
421
      255
463
1.0
 63
     7
421
 16777215
470
LINEAR
1001
ACAD
1010
0.0
1020
0.0
1030
0.0
  0
HATCH
  5
5CE5
330
67
100
AcDbEntity
  8
F_29 Bemassung M
370
    13
100
AcDbHatch
 10
0.0
 20
0.0
 30
0.0
210
0.0
220
0.0
230
1.0
  2
SOLID
 70
     1
 71
     0
 91
        1
 92
        1
 93
        4
 72
     1
 10
437.5583169847159
 20
331.2952680239114
 11
437.5583169847159
 21
334.2952680239114
 72
     1
 10
437.5583169847159
 20
334.2952680239114
 11
407.5583169847159
 21
334.2952680239114
 72
     1
 10
407.5583169847159
 20
334.2952680239114
 11
407.5583169847159
 21
331.2952680239114
 72
     1
 10
407.5583169847159
 20
331.2952680239114
 11
437.5583169847159
 21
331.2952680239114
 97
        0
 75
     0
 76
     1
 98
        1
 10
-34317.2053425112
 20
-14061.7531278404
450
        0
451
        0
460
0.0
461
0.0
452
        1
462
1.0
453
        2
463
0.0
 63
     5
421
      255
463
1.0
 63
     7
421
 16777215
470
LINEAR
1001
ACAD
1010
0.0
1020
0.0
1030
0.0
  0
LINE
  5
5CE6
330
67
100
AcDbEntity
  8
F_01 sichtbar
370
    13
100
AcDbLine
 10
449.0583035626677
 20
841.0130653565147
 30
0.0
 11
449.0583035626696
 21
371.2952706519436
 31
0.0
  0
HATCH
  5
5CE7
330
67
100
AcDbEntity
  8
F_01 sichtbar
370
    13
100
AcDbHatch
 10
0.0
 20
0.0
 30
0.0
210
0.0
220
0.0
230
1.0
  2
JIS_WOOD
 70
     0
 71
     0
 91
        1
 92
        1
 93
        6
 72
     1
 10
427.0583113551892
 20
334.2952681815941
 11
437.5583169847159
 21
334.2952698109739
 72
     1
 10
437.5583169847159
 20
334.2952698109739
 11
437.5583035626696
 21
368.2952782957445
 72
     1
 10
437.5583035626696
 20
368.2952782957445
 11
449.0583035626696
 21
368.2953042899253
 72
     1
 10
449.0583035626696
 20
368.2953042899253
 11
449.0583035626677
 21
841.0130653565147
 72
     1
 10
449.0583035626677
 20
841.0130653565147
 11
427.0583035626677
 21
834.4943240337061
 72
     1
 10
427.0583035626677
 20
834.4943240337061
 11
427.0583113551892
 21
334.2952681815941
 97
        0
 75
     0
 76
     1
 52
315.0
 41
30.0
 77
     0
 78
     1
 53
0.0
 43
-23283.26261558398
 44
-14152.24544489806
 45
0.0000000000000071
 46
21.2132034
 79
     0
 98
        1
 10
-23283.26261558398
 20
-14152.24544489806
1001
ACAD
1010
0.0
1020
0.0
1030
0.0
  0
LWPOLYLINE
  5
5CE8
330
67
100
AcDbEntity
  8
F_01 sichtbar
370
    13
100
AcDbPolyline
 90
       10
 70
     1
 43
0.0
 10
437.5583068214328
 20
334.295269285366
 10
437.5583035626696
 20
371.295269285366
 10
437.5583035626696
 20
371.295269285366
 10
437.5583035626696
 20
371.295269285366
 10
437.5583035626696
 20
371.295269285366
 10
437.5583035626696
 20
371.295269285366
 10
450.5583100104159
 20
371.2952706519368
 10
450.559320506487
 20
841.457826319146
 10
425.5583170682875
 20
834.0498683998603
 10
425.5583068214328
 20
334.2952680239114
  0
LWPOLYLINE
  5
5CE9
330
67
100
AcDbEntity
  8
F_01 sichtbar
370
    13
100
AcDbPolyline
 90
        4
 70
     1
 43
0.0
 10
437.5583169847159
 20
331.2952698109739
 10
437.5583169847159
 20
334.2952698109739
 10
407.5583169847159
 20
334.2952698109739
 10
407.5583169847159
 20
331.2952698109739
  0
MTEXT
  5
5CEA
330
67
100
AcDbEntity
  8
F_01 sichtbar
370
    13
100
AcDbMText
 10
392.7015187074721
 20
279.2749121035849
 30
0.0
 40
15.0
 41
173.6657447330071
 71
     1
 72
     5
  1
\A1;{\fArial Narrow|b0|i0|c0|p34;Metall-Flachrahmen\P30/3 mm}
 73
     1
 44
1.0
  0
LINE
  5
5CEB
330
67
100
AcDbEntity
  8
F_01 sichtbar
370
    13
100
AcDbLine
 10
414.5583169847159
 20
316.2952698109739
 30
0.0
 11
414.5583169847159
 21
282.9723746291247
 31
0.0
  0
SOLID
  5
5CEC
330
67
100
AcDbEntity
  8
F_01 sichtbar
370
    13
100
AcDbTrace
 10
412.0583169847159
 20
316.2952698109739
 30
0.0
 11
417.0583169847159
 21
316.2952698109739
 31
0.0
 12
414.5583169847159
 22
331.2952698109739
 32
0.0
 13
414.5583169847159
 23
331.2952698109739
 33
0.0
  0
LINE
  5
5CED
330
67
100
AcDbEntity
  8
F_01 sichtbar
370
    13
100
AcDbLine
 10
427.0583035626696
 20
334.295269285366
 30
0.0
 11
427.0583035626677
 21
834.4943240337061
 31
0.0
  0
LINE
  5
5CEE
330
67
100
AcDbEntity
  8
F_01 sichtbar
370
    13
100
AcDbLine
 10
440.5582849841921
 20
371.2953042899244
 30
0.0
 11
440.5582849841921
 21
331.2953042899244
 31
0.0
  0
LINE
  5
5CEF
330
67
100
AcDbEntity
  8
F_01 sichtbar
370
    13
100
AcDbLine
 10
440.5582849841921
 20
331.2953042899244
 30
0.0
 11
480.5582849841921
 21
331.2953042899244
 31
0.0
  0
LINE
  5
5CF0
330
67
100
AcDbEntity
  8
F_01 sichtbar
370
    13
100
AcDbLine
 10
480.5582849841921
 20
331.2953042899244
 30
0.0
 11
480.5582849841921
 21
336.2953042899244
 31
0.0
  0
LINE
  5
5CF1
330
67
100
AcDbEntity
  8
F_01 sichtbar
370
    13
100
AcDbLine
 10
480.5582849841921
 20
336.2953042899244
 30
0.0
 11
460.5582849841921
 21
336.2953042899244
 31
0.0
  0
LINE
  5
5CF2
330
67
100
AcDbEntity
  8
F_01 sichtbar
370
    13
100
AcDbLine
 10
460.5582849841921
 20
336.2953042899244
 30
0.0
 11
460.5582849841921
 21
371.2953042899244
 31
0.0
  0
LINE
  5
5CF3
330
67
100
AcDbEntity
  8
F_01 sichtbar
370
    13
100
AcDbLine
 10
460.5582849841921
 20
371.2953042899244
 30
0.0
 11
440.5582849841921
 21
371.2953042899244
 31
0.0
  0
LINE
  5
5CF4
330
67
100
AcDbEntity
  8
F_02 unsichtbar
370
    13
100
AcDbLine
 10
443.0582849841921
 20
368.7953042899244
 30
0.0
 11
443.0582849841921
 21
333.7953042899244
 31
0.0
  0
LINE
  5
5CF5
330
67
100
AcDbEntity
  8
F_02 unsichtbar
370
    13
100
AcDbLine
 10
443.0582849841921
 20
333.7953042899244
 30
0.0
 11
458.0582849841921
 21
333.7953042899244
 31
0.0
  0
LINE
  5
5CF6
330
67
100
AcDbEntity
  8
F_02 unsichtbar
370
    13
100
AcDbLine
 10
458.0582849841921
 20
333.7953042899244
 30
0.0
 11
458.0582849841921
 21
368.7953042899244
 31
0.0
  0
LINE
  5
5CF7
330
67
100
AcDbEntity
  8
F_02 unsichtbar
370
    13
100
AcDbLine
 10
458.0582849841921
 20
368.7953042899244
 30
0.0
 11
443.0582849841921
 21
368.7953042899244
 31
0.0
  0
LINE
  5
5CF8
330
67
100
AcDbEntity
  8
F_02 unsichtbar
370
    13
100
AcDbLine
 10
458.3253902860779
 20
333.7953042899244
 30
0.0
 11
478.0582849841921
 21
333.7953042899244
 31
0.0
  0
LINE
  5
5CF9
330
67
100
AcDbEntity
  8
F_01 sichtbar
370
    13
100
AcDbLine
 10
460.5582849841921
 20
336.2953042899244
 30
0.0
 11
656.9006617108644
 21
336.2953042899244
 31
0.0
  0
LINE
  5
5CFA
330
67
100
AcDbEntity
  8
F_01 sichtbar
370
    13
100
AcDbLine
 10
461.5582849841921
 20
356.2953042899244
 30
0.0
 11
656.9006617108644
 21
356.2953042899244
 31
0.0
  0
LINE
  5
5CFB
330
67
100
AcDbEntity
  8
F_01 sichtbar
370
    13
100
AcDbLine
 10
460.5582849841921
 20
366.2953042899244
 30
0.0
 11
460.5582849841921
 21
371.2953042899244
 31
0.0
  0
LINE
  5
5CFC
330
67
100
AcDbEntity
  8
F_01 sichtbar
370
    13
100
AcDbLine
 10
480.5582849841921
 20
331.2953042899244
 30
0.0
 11
656.9006617108644
 21
331.2953042899244
 31
0.0
  0
LINE
  5
5CFD
330
67
100
AcDbEntity
  8
F_01 sichtbar
370
    13
100
AcDbLine
 10
652.9082849841979
 20
336.2953042899244
 30
0.0
 11
652.9082849841979
 21
356.2953042899244
 31
0.0
  0
LINE
  5
5CFE
330
67
100
AcDbEntity
  8
F_01 sichtbar
370
    13
100
AcDbLine
 10
650.908284984198
 20
336.2953042899244
 30
0.0
 11
650.908284984198
 21
356.2953042899244
 31
0.0
  0
LINE
  5
5CFF
330
67
100
AcDbEntity
  8
F_01 sichtbar
370
    13
100
AcDbLine
 10
619.608284984195
 20
336.2953042899244
 30
0.0
 11
619.608284984195
 21
356.2953042899244
 31
0.0
  0
LINE
  5
5D00
330
67
100
AcDbEntity
  8
F_01 sichtbar
370
    13
100
AcDbLine
 10
617.608284984195
 20
336.2953042899244
 30
0.0
 11
617.608284984195
 21
356.2953042899244
 31
0.0
  0
LINE
  5
5D01
330
67
100
AcDbEntity
  8
F_01 sichtbar
370
    13
100
AcDbLine
 10
586.3082849841921
 20
336.2953042899244
 30
0.0
 11
586.3082849841921
 21
356.2953042899244
 31
0.0
  0
LINE
  5
5D02
330
67
100
AcDbEntity
  8
F_01 sichtbar
370
    13
100
AcDbLine
 10
584.3082849841921
 20
336.2953042899244
 30
0.0
 11
584.3082849841921
 21
356.2953042899244
 31
0.0
  0
LINE
  5
5D03
330
67
100
AcDbEntity
  8
F_01 sichtbar
370
    13
100
AcDbLine
 10
553.0082849841964
 20
336.2953042899244
 30
0.0
 11
553.0082849841964
 21
356.2953042899244
 31
0.0
  0
LINE
  5
5D04
330
67
100
AcDbEntity
  8
F_01 sichtbar
370
    13
100
AcDbLine
 10
551.0082849841965
 20
336.2953042899244
 30
0.0
 11
551.0082849841965
 21
356.2953042899244
 31
0.0
  0
LINE
  5
5D05
330
67
100
AcDbEntity
  8
F_01 sichtbar
370
    13
100
AcDbLine
 10
519.7082849841936
 20
336.2953042899244
 30
0.0
 11
519.7082849841936
 21
356.2953042899244
 31
0.0
  0
LINE
  5
5D06
330
67
100
AcDbEntity
  8
F_01 sichtbar
370
    13
100
AcDbLine
 10
517.7082849841935
 20
336.2953042899244
 30
0.0
 11
517.7082849841935
 21
356.2953042899244
 31
0.0
  0
LINE
  5
5D07
330
67
100
AcDbEntity
  8
F_01 sichtbar
370
    13
100
AcDbLine
 10
486.4082849841979
 20
336.2953042899244
 30
0.0
 11
486.4082849841979
 21
356.2953042899244
 31
0.0
  0
LINE
  5
5D08
330
67
100
AcDbEntity
  8
F_01 sichtbar
370
    13
100
AcDbLine
 10
484.408284984198
 20
336.2953042899244
 30
0.0
 11
484.408284984198
 21
356.2953042899244
 31
0.0
  0
LINE
  5
5D09
330
67
100
AcDbEntity
  8
F_02 unsichtbar
370
    13
100
AcDbLine
 10
472.5582849841921
 20
336.2953042899244
 30
0.0
 11
472.5582849841921
 21
331.2953042899244
 31
0.0
  0
LINE
  5
5D0A
330
67
100
AcDbEntity
  8
F_01 sichtbar
370
    13
100
AcDbLine
 10
461.5582849841921
 20
356.2953042899098
 30
0.0
 11
461.5582849841921
 21
336.2953042899099
 31
0.0
  0
LINE
  5
5D0B
330
67
100
AcDbEntity
  8
F_01 sichtbar
370
    13
100
AcDbLine
 10
463.5582849841921
 20
356.2953042899098
 30
0.0
 11
463.5582849841921
 21
336.2953042899099
 31
0.0
  0
LINE
  5
5D0C
330
67
100
AcDbEntity
  8
F_02 unsichtbar
370
    13
100
AcDbLine
 10
461.5582849841921
 20
346.2883253542131
 30
0.0
 11
656.9006617108644
 21
346.2883253542131
 31
0.0
  0
MTEXT
  5
5D0D
330
67
100
AcDbEntity
  8
F_01 sichtbar
370
    13
100
AcDbMText
 10
456.4518978416272
 20
449.6618497399867
 30
0.0
 40
15.0
 41
267.009647861938
 71
     1
 72
     5
  1
\A1;{\fArial Narrow|b0|i0|c0|p34;Gitterrost mit\PLamellen 20/10/2 mm\PMaschenweite 33.3 x 33.3 mm}
 73
     1
 44
1.0
  0
ENDSEC
  0
SECTION
  2
OBJECTS
  0
DICTIONARY
  5
C
330
0
100
AcDbDictionary
281
     1
  3
ACAD_2007HEADERVARS_RT
350
5D1E
  3
ACAD_COLOR
350
5E
  3
ACAD_GROUP
350
D
  3
ACAD_LAYOUT
350
5D
  3
ACAD_MATERIAL
350
10
  3
ACAD_MLEADERSTYLE
350
61
  3
ACAD_MLINESTYLE
350
5A
  3
ACAD_PLOTSETTINGS
350
5C
  3
ACAD_PLOTSTYLENAME
350
E
  3
ACAD_SCALELIST
350
3D
  3
ACAD_TABLESTYLE
350
5F
  3
ACAD_VISUALSTYLE
350
29
  3
ACDB_RECOMPOSE_DATA
350
5D1D
  3
AcDbVariableDictionary
350
5D12
  3
AEC_PROPERTY_SET_DEFS
350
5C46
  0
DICTIONARY
  5
5B79
330
2
100
AcDbDictionary
280
     1
281
     1
  3
ACAD_LAYERSTATES
360
5B7A
  0
DICTIONARY
  5
5B6C
330
5B6B
100
AcDbDictionary
280
     1
281
     1
  0
DICTIONARY
  5
5B6E
330
5B6D
100
AcDbDictionary
280
     1
281
     1
  0
DICTIONARY
  5
5B49
330
5B48
100
AcDbDictionary
280
     1
281
     1
  3
ACAD_SORTENTS
360
5B4A
  0
DICTIONARY
  5
5B4F
330
5B4E
100
AcDbDictionary
280
     1
281
     1
  3
ACAD_SORTENTS
360
5B50
  0
DICTIONARY
  5
5D1E
102
{ACAD_REACTORS
330
C
102
}
330
C
100
AcDbDictionary
281
     1
  3
DIMJOGANG
350
5D1F
  0
DICTIONARY
  5
5E
102
{ACAD_REACTORS
330
C
102
}
330
C
100
AcDbDictionary
281
     1
  0
DICTIONARY
  5
D
102
{ACAD_REACTORS
330
C
102
}
330
C
100
AcDbDictionary
281
     1
  0
DICTIONARY
  5
5D
102
{ACAD_REACTORS
330
C
102
}
330
C
100
AcDbDictionary
281
     1
  3
Layout1
350
66
  3
Layout2
350
6E
  3
Model
350
6A
  0
DICTIONARY
  5
10
102
{ACAD_REACTORS
330
C
102
}
330
C
100
AcDbDictionary
281
     1
  3
ByBlock
350
19
  3
ByLayer
350
11
  3
Global
350
21
  0
DICTIONARY
  5
61
102
{ACAD_REACTORS
330
C
102
}
330
C
100
AcDbDictionary
281
     1
  3
Standard
350
62
  0
DICTIONARY
  5
5A
102
{ACAD_REACTORS
330
C
102
}
330
C
100
AcDbDictionary
281
     1
  3
Standard
350
5B
  0
DICTIONARY
  5
5C
102
{ACAD_REACTORS
330
C
102
}
330
C
100
AcDbDictionary
281
     1
  0
ACDBDICTIONARYWDFLT
  5
E
102
{ACAD_REACTORS
330
C
102
}
330
C
100
AcDbDictionary
281
     1
  3
Normal
350
F
100
AcDbDictionaryWithDefault
340
F
  0
DICTIONARY
  5
3D
102
{ACAD_REACTORS
330
C
102
}
330
C
100
AcDbDictionary
281
     1
  3
A0
350
3E
  3
A1
350
3F
  3
A2
350
40
  3
A3
350
41
  3
A4
350
42
  3
A5
350
43
  3
A6
350
44
  3
A7
350
45
  3
A8
350
46
  3
A9
350
47
  3
B0
350
48
  3
B1
350
49
  3
B2
350
4A
  3
B3
350
4B
  3
B4
350
4C
  3
B5
350
4D
  3
B6
350
4E
  0
DICTIONARY
  5
5F
102
{ACAD_REACTORS
330
C
102
}
330
C
100
AcDbDictionary
281
     1
  3
Standard
350
60
  0
DICTIONARY
  5
29
102
{ACAD_REACTORS
330
C
102
}
330
C
100
AcDbDictionary
281
     1
  3
2dWireframe
350
2F
  3
3D Hidden
350
31
  3
3dWireframe
350
30
  3
Basic
350
2E
  3
Brighten
350
35
  3
ColorChange
350
39
  3
Conceptual
350
32
  3
Dim
350
34
  3
EdgeColorOff
350
3C
  3
Facepattern
350
38
  3
Flat
350
2A
  3
FlatWithEdges
350
2B
  3
Gouraud
350
2C
  3
GouraudWithEdges
350
2D
  3
JitterOff
350
3A
  3
Linepattern
350
37
  3
OverhangOff
350
3B
  3
Realistic
350
33
  3
Thicken
350
36
  0
XRECORD
  5
5D1D
102
{ACAD_REACTORS
330
C
102
}
330
C
100
AcDbXrecord
280
     1
 90
        1
330
60
  0
DICTIONARY
  5
5D12
102
{ACAD_REACTORS
330
C
102
}
330
C
100
AcDbDictionary
281
     1
  3
CANNOSCALE
350
5D16
  3
CMLEADERSTYLE
350
5D14
  3
CTABLESTYLE
350
5D13
  3
LAYEREVAL
350
5D18
  3
LAYERNOTIFY
350
5D19
  3
LIGHTINGUNITS
350
5D17
  3
MSLTSCALE
350
5D15
  3
XCLIPFRAME
350
5D1A
  0
DICTIONARY
  5
5C46
102
{ACAD_REACTORS
330
C
102
}
330
C
100
AcDbDictionary
281
     1
  0
DICTIONARY
  5
5B7A
102
{ACAD_REACTORS
330
5B79
102
}
330
5B79
100
AcDbDictionary
281
     1
  0
SORTENTSTABLE
  5
5B4A
102
{ACAD_REACTORS
330
5B49
102
}
330
5B49
100
AcDbSortentsTable
330
5B48
  0
SORTENTSTABLE
  5
5B50
102
{ACAD_REACTORS
330
5B4F
102
}
330
5B4F
100
AcDbSortentsTable
330
5B4E
  0
XRECORD
  5
5D1F
102
{ACAD_REACTORS
330
5D1E
102
}
330
5D1E
100
AcDbXrecord
280
     1
 40
1.570796326794896
  0
LAYOUT
  5
66
102
{ACAD_REACTORS
330
5D
102
}
330
5D
100
AcDbPlotSettings
  1

  2
HP Deskjet 1280 series
  4

  6

 40
0.0
 41
0.0
 42
0.0
 43
0.0
 44
0.0
 45
0.0
 46
0.0
 47
0.0
 48
0.0
 49
0.0
140
0.0
141
0.0
142
1.0
143
1.0
 70
   688
 72
     0
 73
     0
 74
     5
  7

 75
    16
147
1.0
 76
     0
 77
     2
 78
   300
148
0.0
149
0.0
100
AcDbLayout
  1
Layout1
 70
     1
 71
     1
 10
0.0
 20
0.0
 11
420.0
 21
297.0
 12
0.0
 22
0.0
 32
0.0
 14
1.000000000000000E+20
 24
1.000000000000000E+20
 34
1.000000000000000E+20
 15
-1.000000000000000E+20
 25
-1.000000000000000E+20
 35
-1.000000000000000E+20
146
0.0
 13
0.0
 23
0.0
 33
0.0
 16
1.0
 26
0.0
 36
0.0
 17
0.0
 27
1.0
 37
0.0
 76
     0
330
63
  0
LAYOUT
  5
6E
102
{ACAD_REACTORS
330
5D
102
}
330
5D
100
AcDbPlotSettings
  1

  2
HP Deskjet 1280 series
  4

  6

 40
0.0
 41
0.0
 42
0.0
 43
0.0
 44
0.0
 45
0.0
 46
0.0
 47
0.0
 48
0.0
 49
0.0
140
0.0
141
0.0
142
1.0
143
1.0
 70
   688
 72
     0
 73
     0
 74
     5
  7

 75
    16
147
1.0
 76
     0
 77
     2
 78
   300
148
0.0
149
0.0
100
AcDbLayout
  1
Layout2
 70
     1
 71
     2
 10
0.0
 20
0.0
 11
12.0
 21
9.0
 12
0.0
 22
0.0
 32
0.0
 14
0.0
 24
0.0
 34
0.0
 15
0.0
 25
0.0
 35
0.0
146
0.0
 13
0.0
 23
0.0
 33
0.0
 16
1.0
 26
0.0
 36
0.0
 17
0.0
 27
1.0
 37
0.0
 76
     0
330
6B
  0
LAYOUT
  5
6A
102
{ACAD_REACTORS
330
5D
102
}
330
5D
100
AcDbPlotSettings
  1

  2
HP Deskjet 1280 series
  4

  6

 40
0.0
 41
0.0
 42
0.0
 43
0.0
 44
0.0
 45
0.0
 46
0.0
 47
0.0
 48
0.0
 49
0.0
140
0.0
141
0.0
142
1.0
143
1.0
 70
  1712
 72
     0
 73
     0
 74
     0
  7

 75
     0
147
1.0
 76
     0
 77
     2
 78
   300
148
0.0
149
0.0
100
AcDbLayout
  1
Model
 70
     1
 71
     0
 10
0.0
 20
0.0
 11
12.0
 21
9.0
 12
0.0
 22
0.0
 32
0.0
 14
0.0
 24
0.0
 34
0.0
 15
0.0
 25
0.0
 35
0.0
146
0.0
 13
0.0
 23
0.0
 33
0.0
 16
1.0
 26
0.0
 36
0.0
 17
0.0
 27
1.0
 37
0.0
 76
     0
330
67
331
52
  0
MATERIAL
  5
19
102
{ACAD_XDICTIONARY
360
1A
102
}
102
{ACAD_REACTORS
330
10
102
}
330
10
100
AcDbMaterial
  1
ByBlock
 72
     0
 43
0.0208333333333333
 43
0.0
 43
0.0
 43
0.0
 43
0.0
 43
0.0208333333333333
 43
0.0
 43
0.0
 43
0.0
 43
0.0
 43
1.0
 43
0.0
 43
0.0
 43
0.0
 43
0.0
 43
1.0
 77
     0
 47
0.0208333333333333
 47
0.0
 47
0.0
 47
0.0
 47
0.0
 47
0.0208333333333333
 47
0.0
 47
0.0
 47
0.0
 47
0.0
 47
1.0
 47
0.0
 47
0.0
 47
0.0
 47
0.0
 47
1.0
171
     0
 49
0.0208333333333333
 49
0.0
 49
0.0
 49
0.0
 49
0.0
 49
0.0208333333333333
 49
0.0
 49
0.0
 49
0.0
 49
0.0
 49
1.0
 49
0.0
 49
0.0
 49
0.0
 49
0.0
 49
1.0
175
     0
142
0.0208333333333333
142
0.0
142
0.0
142
0.0
142
0.0
142
0.0208333333333333
142
0.0
142
0.0
142
0.0
142
0.0
142
1.0
142
0.0
142
0.0
142
0.0
142
0.0
142
1.0
179
     0
144
0.0208333333333333
144
0.0
144
0.0
144
0.0
144
0.0
144
0.0208333333333333
144
0.0
144
0.0
144
0.0
144
0.0
144
1.0
144
0.0
144
0.0
144
0.0
144
0.0
144
1.0
147
0.0208333333333333
147
0.0
147
0.0
147
0.0
147
0.0
147
0.0208333333333333
147
0.0
147
0.0
147
0.0
147
0.0
147
1.0
147
0.0
147
0.0
147
0.0
147
0.0
147
1.0
  0
MATERIAL
  5
11
102
{ACAD_XDICTIONARY
360
12
102
}
102
{ACAD_REACTORS
330
10
102
}
330
10
100
AcDbMaterial
  1
ByLayer
 72
     0
 43
0.0208333333333333
 43
0.0
 43
0.0
 43
0.0
 43
0.0
 43
0.0208333333333333
 43
0.0
 43
0.0
 43
0.0
 43
0.0
 43
1.0
 43
0.0
 43
0.0
 43
0.0
 43
0.0
 43
1.0
 77
     0
 47
0.0208333333333333
 47
0.0
 47
0.0
 47
0.0
 47
0.0
 47
0.0208333333333333
 47
0.0
 47
0.0
 47
0.0
 47
0.0
 47
1.0
 47
0.0
 47
0.0
 47
0.0
 47
0.0
 47
1.0
171
     0
 49
0.0208333333333333
 49
0.0
 49
0.0
 49
0.0
 49
0.0
 49
0.0208333333333333
 49
0.0
 49
0.0
 49
0.0
 49
0.0
 49
1.0
 49
0.0
 49
0.0
 49
0.0
 49
0.0
 49
1.0
175
     0
142
0.0208333333333333
142
0.0
142
0.0
142
0.0
142
0.0
142
0.0208333333333333
142
0.0
142
0.0
142
0.0
142
0.0
142
1.0
142
0.0
142
0.0
142
0.0
142
0.0
142
1.0
179
     0
144
0.0208333333333333
144
0.0
144
0.0
144
0.0
144
0.0
144
0.0208333333333333
144
0.0
144
0.0
144
0.0
144
0.0
144
1.0
144
0.0
144
0.0
144
0.0
144
0.0
144
1.0
147
0.0208333333333333
147
0.0
147
0.0
147
0.0
147
0.0
147
0.0208333333333333
147
0.0
147
0.0
147
0.0
147
0.0
147
1.0
147
0.0
147
0.0
147
0.0
147
0.0
147
1.0
  0
MATERIAL
  5
21
102
{ACAD_XDICTIONARY
360
22
102
}
102
{ACAD_REACTORS
330
10
102
}
330
10
100
AcDbMaterial
  1
Global
 72
     0
 43
0.0208333333333333
 43
0.0
 43
0.0
 43
0.0
 43
0.0
 43
0.0208333333333333
 43
0.0
 43
0.0
 43
0.0
 43
0.0
 43
1.0
 43
0.0
 43
0.0
 43
0.0
 43
0.0
 43
1.0
 77
     0
 47
0.0208333333333333
 47
0.0
 47
0.0
 47
0.0
 47
0.0
 47
0.0208333333333333
 47
0.0
 47
0.0
 47
0.0
 47
0.0
 47
1.0
 47
0.0
 47
0.0
 47
0.0
 47
0.0
 47
1.0
171
     0
 49
0.0208333333333333
 49
0.0
 49
0.0
 49
0.0
 49
0.0
 49
0.0208333333333333
 49
0.0
 49
0.0
 49
0.0
 49
0.0
 49
1.0
 49
0.0
 49
0.0
 49
0.0
 49
0.0
 49
1.0
175
     0
142
0.0208333333333333
142
0.0
142
0.0
142
0.0
142
0.0
142
0.0208333333333333
142
0.0
142
0.0
142
0.0
142
0.0
142
1.0
142
0.0
142
0.0
142
0.0
142
0.0
142
1.0
179
     0
144
0.0208333333333333
144
0.0
144
0.0
144
0.0
144
0.0
144
0.0208333333333333
144
0.0
144
0.0
144
0.0
144
0.0
144
1.0
144
0.0
144
0.0
144
0.0
144
0.0
144
1.0
147
0.0208333333333333
147
0.0
147
0.0
147
0.0
147
0.0
147
0.0208333333333333
147
0.0
147
0.0
147
0.0
147
0.0
147
1.0
147
0.0
147
0.0
147
0.0
147
0.0
147
1.0
  0
MLEADERSTYLE
  5
62
102
{ACAD_REACTORS
330
61
102
}
330
61
100
AcDbMLeaderStyle
170
     2
171
     1
172
     0
 90
        2
 40
0.0
 41
0.0
173
     1
 91
-1056964608
340
56
 92
       -2
290
     1
 42
0.09
291
     1
 43
0.36
  3
Standard
 44
0.18
300

342
50
174
     1
178
     6
175
     1
176
     0
 93
-1056964608
 45
0.18
292
     0
297
     0
 46
0.18
 94
-1056964608
 47
1.0
 49
1.0
140
1.0
293
     1
141
0.0
294
     1
177
     0
142
1.0
295
     0
296
     0
143
0.125
1001
ACAD_MLEADERVER
1070
     2
  0
MLINESTYLE
  5
5B
102
{ACAD_REACTORS
330
5A
102
}
330
5A
100
AcDbMlineStyle
  2
STANDARD
 70
     0
  3

 62
   256
 51
90.0
 52
90.0
 71
     2
 49
0.5
 62
   256
  6
BYLAYER
 49
-0.5
 62
   256
  6
BYLAYER
  0
ACDBPLACEHOLDER
  5
F
102
{ACAD_REACTORS
330
E
102
}
330
E
  0
SCALE
  5
3E
102
{ACAD_REACTORS
330
3D
102
}
330
3D
100
AcDbScale
 70
     0
300
1:1
140
1.0
141
1.0
290
     1
  0
SCALE
  5
3F
102
{ACAD_REACTORS
330
3D
102
}
330
3D
100
AcDbScale
 70
     0
300
1:2
140
1.0
141
2.0
290
     0
  0
SCALE
  5
40
102
{ACAD_REACTORS
330
3D
102
}
330
3D
100
AcDbScale
 70
     0
300
1:4
140
1.0
141
4.0
290
     0
  0
SCALE
  5
41
102
{ACAD_REACTORS
330
3D
102
}
330
3D
100
AcDbScale
 70
     0
300
1:5
140
1.0
141
5.0
290
     0
  0
SCALE
  5
42
102
{ACAD_REACTORS
330
3D
102
}
330
3D
100
AcDbScale
 70
     0
300
1:8
140
1.0
141
8.0
290
     0
  0
SCALE
  5
43
102
{ACAD_REACTORS
330
3D
102
}
330
3D
100
AcDbScale
 70
     0
300
1:10
140
1.0
141
10.0
290
     0
  0
SCALE
  5
44
102
{ACAD_REACTORS
330
3D
102
}
330
3D
100
AcDbScale
 70
     0
300
1:16
140
1.0
141
16.0
290
     0
  0
SCALE
  5
45
102
{ACAD_REACTORS
330
3D
102
}
330
3D
100
AcDbScale
 70
     0
300
1:20
140
1.0
141
20.0
290
     0
  0
SCALE
  5
46
102
{ACAD_REACTORS
330
3D
102
}
330
3D
100
AcDbScale
 70
     0
300
1:30
140
1.0
141
30.0
290
     0
  0
SCALE
  5
47
102
{ACAD_REACTORS
330
3D
102
}
330
3D
100
AcDbScale
 70
     0
300
1:40
140
1.0
141
40.0
290
     0
  0
SCALE
  5
48
102
{ACAD_REACTORS
330
3D
102
}
330
3D
100
AcDbScale
 70
     0
300
1:50
140
1.0
141
50.0
290
     0
  0
SCALE
  5
49
102
{ACAD_REACTORS
330
3D
102
}
330
3D
100
AcDbScale
 70
     0
300
1:100
140
1.0
141
100.0
290
     0
  0
SCALE
  5
4A
102
{ACAD_REACTORS
330
3D
102
}
330
3D
100
AcDbScale
 70
     0
300
2:1
140
2.0
141
1.0
290
     0
  0
SCALE
  5
4B
102
{ACAD_REACTORS
330
3D
102
}
330
3D
100
AcDbScale
 70
     0
300
4:1
140
4.0
141
1.0
290
     0
  0
SCALE
  5
4C
102
{ACAD_REACTORS
330
3D
102
}
330
3D
100
AcDbScale
 70
     0
300
8:1
140
8.0
141
1.0
290
     0
  0
SCALE
  5
4D
102
{ACAD_REACTORS
330
3D
102
}
330
3D
100
AcDbScale
 70
     0
300
10:1
140
10.0
141
1.0
290
     0
  0
SCALE
  5
4E
102
{ACAD_REACTORS
330
3D
102
}
330
3D
100
AcDbScale
 70
     0
300
100:1
140
100.0
141
1.0
290
     0
  0
TABLESTYLE
  5
60
102
{ACAD_XDICTIONARY
360
5D1B
102
}
102
{ACAD_REACTORS
330
5F
102
}
330
5F
100
AcDbTableStyle
  3
Standard
 70
     0
 71
     0
 40
1.5
 41
1.5
280
     0
281
     0
  7
Standard
140
4.5
170
     2
 62
     0
 63
     7
283
     0
274
    -2
284
     1
 64
     0
275
    -2
285
     1
 65
     0
276
    -2
286
     1
 66
     0
277
    -2
287
     1
 67
     0
278
    -2
288
     1
 68
     0
279
    -2
289
     1
 69
     0
  7
Standard
140
6.0
170
     5
 62
     0
 63
     7
283
     0
274
    -2
284
     1
 64
     0
275
    -2
285
     1
 65
     0
276
    -2
286
     1
 66
     0
277
    -2
287
     1
 67
     0
278
    -2
288
     1
 68
     0
279
    -2
289
     1
 69
     0
  7
Standard
140
4.5
170
     5
 62
     0
 63
     7
283
     0
274
    -2
284
     1
 64
     0
275
    -2
285
     1
 65
     0
276
    -2
286
     1
 66
     0
277
    -2
287
     1
 67
     0
278
    -2
288
     1
 68
     0
279
    -2
289
     1
 69
     0
  0
VISUALSTYLE
  5
2F
102
{ACAD_XDICTIONARY
360
5D2D
102
}
102
{ACAD_REACTORS
330
29
102
}
330
29
100
AcDbVisualStyle
  2
2dWireframe
 70
     4
 71
     0
 72
     2
 73
     0
 90
        0
 40
-0.6
 41
-30.0
 62
     5
 63
     7
421
 16777215
 74
     1
 91
        4
 64
     7
 65
   257
 75
     1
175
     1
 42
1.0
 92
        0
 66
   257
 43
1.0
 76
     1
 77
     6
 78
     2
 67
     7
 79
     5
170
     0
171
     0
290
     0
174
     0
 93
        1
 44
0.0
173
     0
291
     0
 45
0.0
1001
ACAD
1000
AcDbSavedByObjectVersion
1070
     0
  0
VISUALSTYLE
  5
31
102
{ACAD_XDICTIONARY
360
5D31
102
}
102
{ACAD_REACTORS
330
29
102
}
330
29
100
AcDbVisualStyle
  2
3D Hidden
 70
     6
 71
     1
 72
     2
 73
     2
 90
        0
 40
-0.6
 41
-30.0
 62
     5
 63
     7
421
 16777215
 74
     2
 91
        2
 64
     7
 65
   257
 75
     2
175
     1
 42
179.0
 92
        0
 66
   257
 43
1.0
 76
     1
 77
     6
 78
     2
 67
     7
 79
     3
170
     0
171
     0
290
     0
174
     0
 93
        1
 44
0.0
173
     0
291
     0
 45
0.0
1001
ACAD
1000
AcDbSavedByObjectVersion
1070
     0
  0
VISUALSTYLE
  5
30
102
{ACAD_XDICTIONARY
360
5D2F
102
}
102
{ACAD_REACTORS
330
29
102
}
330
29
100
AcDbVisualStyle
  2
3dWireframe
 70
     5
 71
     0
 72
     2
 73
     0
 90
        0
 40
-0.6
 41
-30.0
 62
     5
 63
     7
421
 16777215
 74
     1
 91
        4
 64
     7
 65
   257
 75
     1
175
     1
 42
1.0
 92
        0
 66
   257
 43
1.0
 76
     1
 77
     6
 78
     2
 67
     7
 79
     5
170
     0
171
     0
290
     0
174
     0
 93
        1
 44
0.0
173
     0
291
     0
 45
0.0
1001
ACAD
1000
AcDbSavedByObjectVersion
1070
     0
  0
VISUALSTYLE
  5
2E
102
{ACAD_XDICTIONARY
360
5D2B
102
}
102
{ACAD_REACTORS
330
29
102
}
330
29
100
AcDbVisualStyle
  2
Basic
 70
     7
 71
     1
 72
     0
 73
     1
 90
        0
 40
-0.6
 41
-30.0
 62
     5
 63
     7
421
 16777215
 74
     0
 91
        4
 64
     7
 65
   257
 75
     1
175
     1
 42
1.0
 92
        8
 66
     7
 43
1.0
 76
     1
 77
     6
 78
     2
 67
     7
 79
     5
170
     0
171
     0
290
     0
174
     0
 93
        1
 44
0.0
173
     0
291
     1
 45
0.0
1001
ACAD
1000
AcDbSavedByObjectVersion
1070
     0
  0
VISUALSTYLE
  5
35
102
{ACAD_XDICTIONARY
360
5D39
102
}
102
{ACAD_REACTORS
330
29
102
}
330
29
100
AcDbVisualStyle
  2
Brighten
 70
    12
 71
     2
 72
     2
 73
     0
 90
        0
 40
-0.6
 41
-30.0
 62
     5
 63
     7
421
 16777215
 74
     1
 91
        4
 64
     7
 65
   257
 75
     1
175
     1
 42
1.0
 92
        8
 66
     7
 43
1.0
 76
     1
 77
     6
 78
     2
 67
     7
 79
     5
170
     0
171
     0
290
     0
174
     0
 93
        1
 44
50.0
173
     0
291
     1
 45
0.0
1001
ACAD
1000
AcDbSavedByObjectVersion
1070
     0
  0
VISUALSTYLE
  5
39
102
{ACAD_XDICTIONARY
360
5D41
102
}
102
{ACAD_REACTORS
330
29
102
}
330
29
100
AcDbVisualStyle
  2
ColorChange
 70
    16
 71
     2
 72
     2
 73
     3
 90
        0
 40
-0.6
 41
-30.0
 62
     5
 63
     8
421
  8421504
 74
     1
 91
        4
 64
     7
 65
   257
 75
     1
175
     1
 42
1.0
 92
        8
 66
     8
424
  8421504
 43
1.0
 76
     1
 77
     6
 78
     2
 67
     7
 79
     5
170
     0
171
     0
290
     0
174
     0
 93
        1
 44
0.0
173
     0
291
     1
 45
0.0
1001
ACAD
1000
AcDbSavedByObjectVersion
1070
     0
  0
VISUALSTYLE
  5
32
102
{ACAD_XDICTIONARY
360
5D33
102
}
102
{ACAD_REACTORS
330
29
102
}
330
29
100
AcDbVisualStyle
  2
Conceptual
 70
     9
 71
     3
 72
     2
 73
     0
 90
        0
 40
-0.6
 41
-30.0
 62
     5
 63
     7
421
 16777215
 74
     2
 91
        2
 64
     7
 65
   257
 75
     1
175
     1
 42
179.0
 92
        8
 66
     7
 43
1.0
 76
     1
 77
     6
 78
     2
 67
     7
 79
     3
170
     0
171
     0
290
     0
174
     0
 93
        1
 44
0.0
173
     0
291
     0
 45
0.0
1001
ACAD
1000
AcDbSavedByObjectVersion
1070
     0
  0
VISUALSTYLE
  5
34
102
{ACAD_XDICTIONARY
360
5D37
102
}
102
{ACAD_REACTORS
330
29
102
}
330
29
100
AcDbVisualStyle
  2
Dim
 70
    11
 71
     2
 72
     2
 73
     0
 90
        0
 40
-0.6
 41
-30.0
 62
     5
 63
     7
421
 16777215
 74
     1
 91
        4
 64
     7
 65
   257
 75
     1
175
     1
 42
1.0
 92
        8
 66
     7
 43
1.0
 76
     1
 77
     6
 78
     2
 67
     7
 79
     5
170
     0
171
     0
290
     0
174
     0
 93
        1
 44
-50.0
173
     0
291
     1
 45
0.0
1001
ACAD
1000
AcDbSavedByObjectVersion
1070
     0
  0
VISUALSTYLE
  5
3C
102
{ACAD_XDICTIONARY
360
5D47
102
}
102
{ACAD_REACTORS
330
29
102
}
330
29
100
AcDbVisualStyle
  2
EdgeColorOff
 70
    22
 71
     2
 72
     2
 73
     0
 90
        0
 40
-0.6
 41
-30.0
 62
     5
 63
     7
421
 16777215
 74
     1
 91
        4
 64
     7
 65
   257
 75
     1
175
     1
 42
1.0
 92
        8
 66
     7
 43
1.0
 76
     1
 77
     6
 78
     2
 67
     7
 79
     5
170
     0
171
     0
290
     0
174
     0
 93
        1
 44
0.0
173
     0
291
     1
 45
0.0
1001
ACAD
1000
AcDbSavedByObjectVersion
1070
     0
  0
VISUALSTYLE
  5
38
102
{ACAD_XDICTIONARY
360
5D3F
102
}
102
{ACAD_REACTORS
330
29
102
}
330
29
100
AcDbVisualStyle
  2
Facepattern
 70
    15
 71
     2
 72
     2
 73
     0
 90
        0
 40
-0.6
 41
-30.0
 62
     5
 63
     7
421
 16777215
 74
     1
 91
        4
 64
     7
 65
   257
 75
     1
175
     1
 42
1.0
 92
        8
 66
     7
 43
1.0
 76
     1
 77
     6
 78
     2
 67
     7
 79
     5
170
     0
171
     0
290
     0
174
     0
 93
        1
 44
0.0
173
     0
291
     1
 45
0.0
1001
ACAD
1000
AcDbSavedByObjectVersion
1070
     0
  0
VISUALSTYLE
  5
2A
102
{ACAD_XDICTIONARY
360
5D23
102
}
102
{ACAD_REACTORS
330
29
102
}
330
29
100
AcDbVisualStyle
  2
Flat
 70
     0
 71
     2
 72
     1
 73
     1
 90
        2
 40
-0.6
 41
30.0
 62
     5
 63
     7
421
 16777215
 74
     0
 91
        4
 64
     7
 65
   257
 75
     1
175
     1
 42
1.0
 92
        8
 66
     7
 43
1.0
 76
     1
 77
     6
 78
     2
 67
     7
 79
     5
170
     0
171
     0
290
     0
174
     0
 93
       13
 44
0.0
173
     0
291
     1
 45
0.0
1001
ACAD
1000
AcDbSavedByObjectVersion
1070
     0
  0
VISUALSTYLE
  5
2B
102
{ACAD_XDICTIONARY
360
5D25
102
}
102
{ACAD_REACTORS
330
29
102
}
330
29
100
AcDbVisualStyle
  2
FlatWithEdges
 70
     1
 71
     2
 72
     1
 73
     1
 90
        2
 40
-0.6
 41
30.0
 62
     5
 63
     7
421
 16777215
 74
     1
 91
        4
 64
     7
 65
   257
 75
     1
175
     1
 42
1.0
 92
        0
 66
   257
 43
1.0
 76
     1
 77
     6
 78
     2
 67
     7
 79
     5
170
     0
171
     0
290
     0
174
     0
 93
       13
 44
0.0
173
     0
291
     1
 45
0.0
1001
ACAD
1000
AcDbSavedByObjectVersion
1070
     0
  0
VISUALSTYLE
  5
2C
102
{ACAD_XDICTIONARY
360
5D27
102
}
102
{ACAD_REACTORS
330
29
102
}
330
29
100
AcDbVisualStyle
  2
Gouraud
 70
     2
 71
     2
 72
     2
 73
     1
 90
        2
 40
-0.6
 41
30.0
 62
     5
 63
     7
421
 16777215
 74
     0
 91
        4
 64
     7
 65
   257
 75
     1
175
     1
 42
1.0
 92
        0
 66
     7
 43
1.0
 76
     1
 77
     6
 78
     2
 67
     7
 79
     5
170
     0
171
     0
290
     0
174
     0
 93
       13
 44
0.0
173
     0
291
     1
 45
0.0
1001
ACAD
1000
AcDbSavedByObjectVersion
1070
     0
  0
VISUALSTYLE
  5
2D
102
{ACAD_XDICTIONARY
360
5D29
102
}
102
{ACAD_REACTORS
330
29
102
}
330
29
100
AcDbVisualStyle
  2
GouraudWithEdges
 70
     3
 71
     2
 72
     2
 73
     1
 90
        2
 40
-0.6
 41
30.0
 62
     5
 63
     7
421
 16777215
 74
     1
 91
        4
 64
     7
 65
   257
 75
     1
175
     1
 42
1.0
 92
        0
 66
   257
 43
1.0
 76
     1
 77
     6
 78
     2
 67
     7
 79
     5
170
     0
171
     0
290
     0
174
     0
 93
       13
 44
0.0
173
     0
291
     1
 45
0.0
1001
ACAD
1000
AcDbSavedByObjectVersion
1070
     0
  0
VISUALSTYLE
  5
3A
102
{ACAD_XDICTIONARY
360
5D43
102
}
102
{ACAD_REACTORS
330
29
102
}
330
29
100
AcDbVisualStyle
  2
JitterOff
 70
    20
 71
     2
 72
     2
 73
     0
 90
        0
 40
-0.6
 41
-30.0
 62
     5
 63
     7
421
 16777215
 74
     1
 91
        4
 64
     7
 65
   257
 75
     1
175
     1
 42
1.0
 92
       10
 66
     7
 43
1.0
 76
     1
 77
     6
 78
     2
 67
     7
 79
     5
170
     0
171
     0
290
     0
174
     0
 93
        1
 44
0.0
173
     0
291
     1
 45
0.0
1001
ACAD
1000
AcDbSavedByObjectVersion
1070
     0
  0
VISUALSTYLE
  5
37
102
{ACAD_XDICTIONARY
360
5D3D
102
}
102
{ACAD_REACTORS
330
29
102
}
330
29
100
AcDbVisualStyle
  2
Linepattern
 70
    14
 71
     2
 72
     2
 73
     0
 90
        0
 40
-0.6
 41
-30.0
 62
     5
 63
     7
421
 16777215
 74
     1
 91
        4
 64
     7
 65
   257
 75
     7
175
     7
 42
1.0
 92
        8
 66
     7
 43
1.0
 76
     1
 77
     6
 78
     2
 67
     7
 79
     5
170
     0
171
     0
290
     0
174
     0
 93
        1
 44
0.0
173
     0
291
     1
 45
0.0
1001
ACAD
1000
AcDbSavedByObjectVersion
1070
     0
  0
VISUALSTYLE
  5
3B
102
{ACAD_XDICTIONARY
360
5D45
102
}
102
{ACAD_REACTORS
330
29
102
}
330
29
100
AcDbVisualStyle
  2
OverhangOff
 70
    21
 71
     2
 72
     2
 73
     0
 90
        0
 40
-0.6
 41
-30.0
 62
     5
 63
     7
421
 16777215
 74
     1
 91
        4
 64
     7
 65
   257
 75
     1
175
     1
 42
1.0
 92
        9
 66
     7
 43
1.0
 76
     1
 77
     6
 78
     2
 67
     7
 79
     5
170
     0
171
     0
290
     0
174
     0
 93
        1
 44
0.0
173
     0
291
     1
 45
0.0
1001
ACAD
1000
AcDbSavedByObjectVersion
1070
     0
  0
VISUALSTYLE
  5
33
102
{ACAD_XDICTIONARY
360
5D35
102
}
102
{ACAD_REACTORS
330
29
102
}
330
29
100
AcDbVisualStyle
  2
Realistic
 70
     8
 71
     2
 72
     2
 73
     0
 90
        0
 40
-0.6
 41
-30.0
 62
     5
 63
     7
421
 16777215
 74
     1
 91
        0
 64
     7
 65
   257
 75
     1
175
     1
 42
1.0
 92
        8
 66
     8
424
  7895160
 43
1.0
 76
     1
 77
     6
 78
     2
 67
     7
 79
     5
170
     0
171
     0
290
     0
174
     0
 93
       13
 44
0.0
173
     0
291
     0
 45
0.0
1001
ACAD
1000
AcDbSavedByObjectVersion
1070
     0
  0
VISUALSTYLE
  5
36
102
{ACAD_XDICTIONARY
360
5D3B
102
}
102
{ACAD_REACTORS
330
29
102
}
330
29
100
AcDbVisualStyle
  2
Thicken
 70
    13
 71
     2
 72
     2
 73
     0
 90
        0
 40
-0.6
 41
-30.0
 62
     5
 63
     7
421
 16777215
 74
     1
 91
        4
 64
     7
 65
   257
 75
     1
175
     1
 42
1.0
 92
       12
 66
     7
 43
1.0
 76
     1
 77
     6
 78
     2
 67
     7
 79
     5
170
     0
171
     0
290
     0
174
     0
 93
        1
 44
0.0
173
     0
291
     1
 45
0.0
1001
ACAD
1000
AcDbSavedByObjectVersion
1070
     0
  0
DICTIONARYVAR
  5
5D16
102
{ACAD_REACTORS
330
5D12
102
}
330
5D12
100
DictionaryVariables
280
     0
  1
1:1
  0
DICTIONARYVAR
  5
5D14
102
{ACAD_REACTORS
330
5D12
102
}
330
5D12
100
DictionaryVariables
280
     0
  1
STANDARD
  0
DICTIONARYVAR
  5
5D13
102
{ACAD_REACTORS
330
5D12
102
}
330
5D12
100
DictionaryVariables
280
     0
  1
STANDARD
  0
DICTIONARYVAR
  5
5D18
102
{ACAD_REACTORS
330
5D12
102
}
330
5D12
100
DictionaryVariables
280
     0
  1
0
  0
DICTIONARYVAR
  5
5D19
102
{ACAD_REACTORS
330
5D12
102
}
330
5D12
100
DictionaryVariables
280
     0
  1
0
  0
DICTIONARYVAR
  5
5D17
102
{ACAD_REACTORS
330
5D12
102
}
330
5D12
100
DictionaryVariables
280
     0
  1
2
  0
DICTIONARYVAR
  5
5D15
102
{ACAD_REACTORS
330
5D12
102
}
330
5D12
100
DictionaryVariables
280
     0
  1
1
  0
DICTIONARYVAR
  5
5D1A
102
{ACAD_REACTORS
330
5D12
102
}
330
5D12
100
DictionaryVariables
280
     0
  1
2
  0
DICTIONARY
  5
1A
330
19
100
AcDbDictionary
280
     1
281
     1
  3
ACAD_XREC_ROUNDTRIP
360
5D21
  3
BUMPTILE
360
1C
  3
DIFFUSETILE
360
1B
  3
OPACITYTILE
360
1F
  3
REFLECTIONTILE
360
1E
  3
REFRACTIONTILE
360
20
  3
SPECULARTILE
360
1D
  0
DICTIONARY
  5
12
330
11
100
AcDbDictionary
280
     1
281
     1
  3
ACAD_XREC_ROUNDTRIP
360
5D20
  3
BUMPTILE
360
14
  3
DIFFUSETILE
360
13
  3
OPACITYTILE
360
17
  3
REFLECTIONTILE
360
16
  3
REFRACTIONTILE
360
18
  3
SPECULARTILE
360
15
  0
DICTIONARY
  5
22
330
21
100
AcDbDictionary
280
     1
281
     1
  3
ACAD_XREC_ROUNDTRIP
360
5D22
  3
BUMPTILE
360
24
  3
DIFFUSETILE
360
23
  3
OPACITYTILE
360
27
  3
REFLECTIONTILE
360
26
  3
REFRACTIONTILE
360
28
  3
SPECULARTILE
360
25
  0
DICTIONARY
  5
5D1B
330
60
100
AcDbDictionary
280
     1
281
     1
  3
ACAD_ROUNDTRIP_2008_TABLESTYLE_CELLSTYLEMAP
360
5D1C
  3
ACAD_XREC_ROUNDTRIP
360
5D4A
  0
DICTIONARY
  5
5D2D
330
2F
100
AcDbDictionary
280
     1
281
     1
  3
ACAD_XREC_ROUNDTRIP
360
5D2E
  0
DICTIONARY
  5
5D31
330
31
100
AcDbDictionary
280
     1
281
     1
  3
ACAD_XREC_ROUNDTRIP
360
5D32
  0
DICTIONARY
  5
5D2F
330
30
100
AcDbDictionary
280
     1
281
     1
  3
ACAD_XREC_ROUNDTRIP
360
5D30
  0
DICTIONARY
  5
5D2B
330
2E
100
AcDbDictionary
280
     1
281
     1
  3
ACAD_XREC_ROUNDTRIP
360
5D2C
  0
DICTIONARY
  5
5D39
330
35
100
AcDbDictionary
280
     1
281
     1
  3
ACAD_XREC_ROUNDTRIP
360
5D3A
  0
DICTIONARY
  5
5D41
330
39
100
AcDbDictionary
280
     1
281
     1
  3
ACAD_XREC_ROUNDTRIP
360
5D42
  0
DICTIONARY
  5
5D33
330
32
100
AcDbDictionary
280
     1
281
     1
  3
ACAD_XREC_ROUNDTRIP
360
5D34
  0
DICTIONARY
  5
5D37
330
34
100
AcDbDictionary
280
     1
281
     1
  3
ACAD_XREC_ROUNDTRIP
360
5D38
  0
DICTIONARY
  5
5D47
330
3C
100
AcDbDictionary
280
     1
281
     1
  3
ACAD_XREC_ROUNDTRIP
360
5D48
  0
DICTIONARY
  5
5D3F
330
38
100
AcDbDictionary
280
     1
281
     1
  3
ACAD_XREC_ROUNDTRIP
360
5D40
  0
DICTIONARY
  5
5D23
330
2A
100
AcDbDictionary
280
     1
281
     1
  3
ACAD_XREC_ROUNDTRIP
360
5D24
  0
DICTIONARY
  5
5D25
330
2B
100
AcDbDictionary
280
     1
281
     1
  3
ACAD_XREC_ROUNDTRIP
360
5D26
  0
DICTIONARY
  5
5D27
330
2C
100
AcDbDictionary
280
     1
281
     1
  3
ACAD_XREC_ROUNDTRIP
360
5D28
  0
DICTIONARY
  5
5D29
330
2D
100
AcDbDictionary
280
     1
281
     1
  3
ACAD_XREC_ROUNDTRIP
360
5D2A
  0
DICTIONARY
  5
5D43
330
3A
100
AcDbDictionary
280
     1
281
     1
  3
ACAD_XREC_ROUNDTRIP
360
5D44
  0
DICTIONARY
  5
5D3D
330
37
100
AcDbDictionary
280
     1
281
     1
  3
ACAD_XREC_ROUNDTRIP
360
5D3E
  0
DICTIONARY
  5
5D45
330
3B
100
AcDbDictionary
280
     1
281
     1
  3
ACAD_XREC_ROUNDTRIP
360
5D46
  0
DICTIONARY
  5
5D35
330
33
100
AcDbDictionary
280
     1
281
     1
  3
ACAD_XREC_ROUNDTRIP
360
5D36
  0
DICTIONARY
  5
5D3B
330
36
100
AcDbDictionary
280
     1
281
     1
  3
ACAD_XREC_ROUNDTRIP
360
5D3C
  0
XRECORD
  5
5D21
102
{ACAD_REACTORS
330
1A
102
}
330
1A
100
AcDbXrecord
280
     1
102
MATERIAL
148
0.0
149
0.0
149
0.0
 93
        0
 94
      127
282
     0
 72
     0
 77
     0
171
     0
175
     0
179
     0
273
     0
  0
XRECORD
  5
1C
102
{ACAD_REACTORS
330
1A
102
}
330
1A
100
AcDbXrecord
280
     1
270
     1
271
     1
  0
XRECORD
  5
1B
102
{ACAD_REACTORS
330
1A
102
}
330
1A
100
AcDbXrecord
280
     1
270
     1
271
     1
  0
XRECORD
  5
1F
102
{ACAD_REACTORS
330
1A
102
}
330
1A
100
AcDbXrecord
280
     1
270
     1
271
     1
  0
XRECORD
  5
1E
102
{ACAD_REACTORS
330
1A
102
}
330
1A
100
AcDbXrecord
280
     1
270
     1
271
     1
  0
XRECORD
  5
20
102
{ACAD_REACTORS
330
1A
102
}
330
1A
100
AcDbXrecord
280
     1
270
     1
271
     1
  0
XRECORD
  5
1D
102
{ACAD_REACTORS
330
1A
102
}
330
1A
100
AcDbXrecord
280
     1
270
     1
271
     1
  0
XRECORD
  5
5D20
102
{ACAD_REACTORS
330
12
102
}
330
12
100
AcDbXrecord
280
     1
102
MATERIAL
148
0.0
149
0.0
149
0.0
 93
        0
 94
      127
282
     0
 72
     0
 77
     0
171
     0
175
     0
179
     0
273
     0
  0
XRECORD
  5
14
102
{ACAD_REACTORS
330
12
102
}
330
12
100
AcDbXrecord
280
     1
270
     1
271
     1
  0
XRECORD
  5
13
102
{ACAD_REACTORS
330
12
102
}
330
12
100
AcDbXrecord
280
     1
270
     1
271
     1
  0
XRECORD
  5
17
102
{ACAD_REACTORS
330
12
102
}
330
12
100
AcDbXrecord
280
     1
270
     1
271
     1
  0
XRECORD
  5
16
102
{ACAD_REACTORS
330
12
102
}
330
12
100
AcDbXrecord
280
     1
270
     1
271
     1
  0
XRECORD
  5
18
102
{ACAD_REACTORS
330
12
102
}
330
12
100
AcDbXrecord
280
     1
270
     1
271
     1
  0
XRECORD
  5
15
102
{ACAD_REACTORS
330
12
102
}
330
12
100
AcDbXrecord
280
     1
270
     1
271
     1
  0
XRECORD
  5
5D22
102
{ACAD_REACTORS
330
22
102
}
330
22
100
AcDbXrecord
280
     1
102
MATERIAL
148
0.0
149
0.0
149
0.0
 93
        0
 94
      127
282
     0
 72
     0
 77
     0
171
     0
175
     0
179
     0
273
     0
  0
XRECORD
  5
24
102
{ACAD_REACTORS
330
22
102
}
330
22
100
AcDbXrecord
280
     1
270
     1
271
     1
  0
XRECORD
  5
23
102
{ACAD_REACTORS
330
22
102
}
330
22
100
AcDbXrecord
280
     1
270
     1
271
     1
  0
XRECORD
  5
27
102
{ACAD_REACTORS
330
22
102
}
330
22
100
AcDbXrecord
280
     1
270
     1
271
     1
  0
XRECORD
  5
26
102
{ACAD_REACTORS
330
22
102
}
330
22
100
AcDbXrecord
280
     1
270
     1
271
     1
  0
XRECORD
  5
28
102
{ACAD_REACTORS
330
22
102
}
330
22
100
AcDbXrecord
280
     1
270
     1
271
     1
  0
XRECORD
  5
25
102
{ACAD_REACTORS
330
22
102
}
330
22
100
AcDbXrecord
280
     1
270
     1
271
     1
  0
CELLSTYLEMAP
  5
5D1C
102
{ACAD_REACTORS
330
5D1B
102
}
330
5D1B
100
AcDbCellStyleMap
 90
        3
300
CELLSTYLE
  1
TABLEFORMAT_BEGIN
 90
        5
170
     1
 91
        0
 92
    32768
 62
   257
 93
        1
300
CONTENTFORMAT
  1
CONTENTFORMAT_BEGIN
 90
        0
 91
        0
 92
      512
 93
        0
300

 40
0.0
140
1.0
 94
        5
 62
     0
340
50
144
6.0
309
CONTENTFORMAT_END
171
     1
301
MARGIN
  1
CELLMARGIN_BEGIN
 40
1.5
 40
1.5
 40
1.5
 40
1.5
 40
4.5
 40
4.5
309
CELLMARGIN_END
 94
        6
 95
        1
302
GRIDFORMAT
  1
GRIDFORMAT_BEGIN
 90
        0
 91
        1
 62
     0
 92
       -2
340
0
 93
        0
 40
1.125
309
GRIDFORMAT_END
 95
        2
302
GRIDFORMAT
  1
GRIDFORMAT_BEGIN
 90
        0
 91
        1
 62
     0
 92
       -2
340
0
 93
        0
 40
1.125
309
GRIDFORMAT_END
 95
        4
302
GRIDFORMAT
  1
GRIDFORMAT_BEGIN
 90
        0
 91
        1
 62
     0
 92
       -2
340
0
 93
        0
 40
1.125
309
GRIDFORMAT_END
 95
        8
302
GRIDFORMAT
  1
GRIDFORMAT_BEGIN
 90
        0
 91
        1
 62
     0
 92
       -2
340
0
 93
        0
 40
1.125
309
GRIDFORMAT_END
 95
       16
302
GRIDFORMAT
  1
GRIDFORMAT_BEGIN
 90
        0
 91
        1
 62
     0
 92
       -2
340
0
 93
        0
 40
1.125
309
GRIDFORMAT_END
 95
       32
302
GRIDFORMAT
  1
GRIDFORMAT_BEGIN
 90
        0
 91
        1
 62
     0
 92
       -2
340
0
 93
        0
 40
1.125
309
GRIDFORMAT_END
309
TABLEFORMAT_END
  1
CELLSTYLE_BEGIN
 90
        1
 91
        1
300
_TITLE
309
CELLSTYLE_END
300
CELLSTYLE
  1
TABLEFORMAT_BEGIN
 90
        5
170
     1
 91
        0
 92
        0
 62
   257
 93
        1
300
CONTENTFORMAT
  1
CONTENTFORMAT_BEGIN
 90
        0
 91
        0
 92
      512
 93
        0
300

 40
0.0
140
1.0
 94
        5
 62
     0
340
50
144
4.5
309
CONTENTFORMAT_END
171
     1
301
MARGIN
  1
CELLMARGIN_BEGIN
 40
1.5
 40
1.5
 40
1.5
 40
1.5
 40
4.5
 40
4.5
309
CELLMARGIN_END
 94
        6
 95
        1
302
GRIDFORMAT
  1
GRIDFORMAT_BEGIN
 90
        0
 91
        1
 62
     0
 92
       -2
340
0
 93
        0
 40
1.125
309
GRIDFORMAT_END
 95
        2
302
GRIDFORMAT
  1
GRIDFORMAT_BEGIN
 90
        0
 91
        1
 62
     0
 92
       -2
340
0
 93
        0
 40
1.125
309
GRIDFORMAT_END
 95
        4
302
GRIDFORMAT
  1
GRIDFORMAT_BEGIN
 90
        0
 91
        1
 62
     0
 92
       -2
340
0
 93
        0
 40
1.125
309
GRIDFORMAT_END
 95
        8
302
GRIDFORMAT
  1
GRIDFORMAT_BEGIN
 90
        0
 91
        1
 62
     0
 92
       -2
340
0
 93
        0
 40
1.125
309
GRIDFORMAT_END
 95
       16
302
GRIDFORMAT
  1
GRIDFORMAT_BEGIN
 90
        0
 91
        1
 62
     0
 92
       -2
340
0
 93
        0
 40
1.125
309
GRIDFORMAT_END
 95
       32
302
GRIDFORMAT
  1
GRIDFORMAT_BEGIN
 90
        0
 91
        1
 62
     0
 92
       -2
340
0
 93
        0
 40
1.125
309
GRIDFORMAT_END
309
TABLEFORMAT_END
  1
CELLSTYLE_BEGIN
 90
        2
 91
        1
300
_HEADER
309
CELLSTYLE_END
300
CELLSTYLE
  1
TABLEFORMAT_BEGIN
 90
        5
170
     1
 91
        0
 92
        0
 62
   257
 93
        1
300
CONTENTFORMAT
  1
CONTENTFORMAT_BEGIN
 90
        0
 91
        0
 92
      512
 93
        0
300

 40
0.0
140
1.0
 94
        2
 62
     0
340
50
144
4.5
309
CONTENTFORMAT_END
171
     1
301
MARGIN
  1
CELLMARGIN_BEGIN
 40
1.5
 40
1.5
 40
1.5
 40
1.5
 40
4.5
 40
4.5
309
CELLMARGIN_END
 94
        6
 95
        1
302
GRIDFORMAT
  1
GRIDFORMAT_BEGIN
 90
        0
 91
        1
 62
     0
 92
       -2
340
0
 93
        0
 40
1.125
309
GRIDFORMAT_END
 95
        2
302
GRIDFORMAT
  1
GRIDFORMAT_BEGIN
 90
        0
 91
        1
 62
     0
 92
       -2
340
0
 93
        0
 40
1.125
309
GRIDFORMAT_END
 95
        4
302
GRIDFORMAT
  1
GRIDFORMAT_BEGIN
 90
        0
 91
        1
 62
     0
 92
       -2
340
0
 93
        0
 40
1.125
309
GRIDFORMAT_END
 95
        8
302
GRIDFORMAT
  1
GRIDFORMAT_BEGIN
 90
        0
 91
        1
 62
     0
 92
       -2
340
0
 93
        0
 40
1.125
309
GRIDFORMAT_END
 95
       16
302
GRIDFORMAT
  1
GRIDFORMAT_BEGIN
 90
        0
 91
        1
 62
     0
 92
       -2
340
0
 93
        0
 40
1.125
309
GRIDFORMAT_END
 95
       32
302
GRIDFORMAT
  1
GRIDFORMAT_BEGIN
 90
        0
 91
        1
 62
     0
 92
       -2
340
0
 93
        0
 40
1.125
309
GRIDFORMAT_END
309
TABLEFORMAT_END
  1
CELLSTYLE_BEGIN
 90
        3
 91
        2
300
_DATA
309
CELLSTYLE_END
  0
XRECORD
  5
5D4A
102
{ACAD_REACTORS
330
5D1B
102
}
330
5D1B
100
AcDbXrecord
280
     1
102
ACAD_ROUNDTRIP_PRE2007_TABLESTYLE
 90
      512
 91
        0
  1

 92
      512
 93
        0
  2

 94
      512
 95
        0
  3

  0
XRECORD
  5
5D2E
102
{ACAD_REACTORS
330
5D2D
102
}
330
5D2D
100
AcDbXrecord
280
     1
102
RTVSPropertyOp0
 70
     1
102
RTVSPropertyOp1
 70
     1
102
RTVSPropertyOp2
 70
     1
102
RTVSPropertyOp3
 70
     1
102
RTVSPropertyOp4
 70
     1
102
RTVSPropertyOp5
 70
     1
102
RTVSPropertyOp6
 70
     1
102
RTVSPropertyOp7
 70
     1
102
RTVSPropertyOp8
 70
     1
102
RTVSPropertyOp9
 70
     1
102
RTVSPropertyOp10
 70
     1
102
RTVSPropertyOp11
 70
     1
102
RTVSPropertyOp12
 70
     1
102
RTVSPropertyOp13
 70
     1
102
RTVSPropertyOp14
 70
     1
102
RTVSPropertyOp15
 70
     1
102
RTVSPropertyOp16
 70
     1
102
RTVSPropertyOp17
 70
     1
102
RTVSPropertyOp18
 70
     1
102
RTVSPropertyOp19
 70
     1
102
RTVSPropertyOp20
 70
     1
102
RTVSPropertyOp21
 70
     1
102
RTVSPropertyOp22
 70
     1
102
RTVSPropertyOp23
 70
     1
102
RTVSPropertyOp24
 70
     1
102
RTVSPropertyOp25
 70
     1
102
RTVSPropertyOp26
 70
     1
102
RTVSPropertyOp27
 70
     1
  0
XRECORD
  5
5D32
102
{ACAD_REACTORS
330
5D31
102
}
330
5D31
100
AcDbXrecord
280
     1
102
RTVSPropertyOp0
 70
     1
102
RTVSPropertyOp1
 70
     1
102
RTVSPropertyOp2
 70
     1
102
RTVSPropertyOp3
 70
     1
102
RTVSPropertyOp4
 70
     1
102
RTVSPropertyOp5
 70
     1
102
RTVSPropertyOp6
 70
     1
102
RTVSPropertyOp7
 70
     1
102
RTVSPropertyOp8
 70
     1
102
RTVSPropertyOp9
 70
     1
102
RTVSPropertyOp10
 70
     1
102
RTVSPropertyOp11
 70
     1
102
RTVSPropertyOp12
 70
     1
102
RTVSPropertyOp13
 70
     1
102
RTVSPropertyOp14
 70
     1
102
RTVSPropertyOp15
 70
     1
102
RTVSPropertyOp16
 70
     1
102
RTVSPropertyOp17
 70
     1
102
RTVSPropertyOp18
 70
     1
102
RTVSPropertyOp19
 70
     1
102
RTVSPropertyOp20
 70
     1
102
RTVSPropertyOp21
 70
     1
102
RTVSPropertyOp22
 70
     1
102
RTVSPropertyOp23
 70
     1
102
RTVSPropertyOp24
 70
     1
102
RTVSPropertyOp25
 70
     1
102
RTVSPropertyOp26
 70
     1
102
RTVSPropertyOp27
 70
     1
  0
XRECORD
  5
5D30
102
{ACAD_REACTORS
330
5D2F
102
}
330
5D2F
100
AcDbXrecord
280
     1
102
RTVSPropertyOp0
 70
     1
102
RTVSPropertyOp1
 70
     1
102
RTVSPropertyOp2
 70
     1
102
RTVSPropertyOp3
 70
     1
102
RTVSPropertyOp4
 70
     1
102
RTVSPropertyOp5
 70
     1
102
RTVSPropertyOp6
 70
     1
102
RTVSPropertyOp7
 70
     1
102
RTVSPropertyOp8
 70
     1
102
RTVSPropertyOp9
 70
     1
102
RTVSPropertyOp10
 70
     1
102
RTVSPropertyOp11
 70
     1
102
RTVSPropertyOp12
 70
     1
102
RTVSPropertyOp13
 70
     1
102
RTVSPropertyOp14
 70
     1
102
RTVSPropertyOp15
 70
     1
102
RTVSPropertyOp16
 70
     1
102
RTVSPropertyOp17
 70
     1
102
RTVSPropertyOp18
 70
     1
102
RTVSPropertyOp19
 70
     1
102
RTVSPropertyOp20
 70
     1
102
RTVSPropertyOp21
 70
     1
102
RTVSPropertyOp22
 70
     1
102
RTVSPropertyOp23
 70
     1
102
RTVSPropertyOp24
 70
     1
102
RTVSPropertyOp25
 70
     1
102
RTVSPropertyOp26
 70
     1
102
RTVSPropertyOp27
 70
     1
  0
XRECORD
  5
5D2C
102
{ACAD_REACTORS
330
5D2B
102
}
330
5D2B
100
AcDbXrecord
280
     1
102
RTVSPropertyOp0
 70
     1
102
RTVSPropertyOp1
 70
     1
102
RTVSPropertyOp2
 70
     1
102
RTVSPropertyOp3
 70
     1
102
RTVSPropertyOp4
 70
     1
102
RTVSPropertyOp5
 70
     1
102
RTVSPropertyOp6
 70
     1
102
RTVSPropertyOp7
 70
     1
102
RTVSPropertyOp8
 70
     1
102
RTVSPropertyOp9
 70
     1
102
RTVSPropertyOp10
 70
     1
102
RTVSPropertyOp11
 70
     1
102
RTVSPropertyOp12
 70
     1
102
RTVSPropertyOp13
 70
     1
102
RTVSPropertyOp14
 70
     1
102
RTVSPropertyOp15
 70
     1
102
RTVSPropertyOp16
 70
     1
102
RTVSPropertyOp17
 70
     1
102
RTVSPropertyOp18
 70
     1
102
RTVSPropertyOp19
 70
     1
102
RTVSPropertyOp20
 70
     1
102
RTVSPropertyOp21
 70
     1
102
RTVSPropertyOp22
 70
     1
102
RTVSPropertyOp23
 70
     1
102
RTVSPropertyOp24
 70
     1
102
RTVSPropertyOp25
 70
     1
102
RTVSPropertyOp26
 70
     1
102
RTVSPropertyOp27
 70
     1
  0
XRECORD
  5
5D3A
102
{ACAD_REACTORS
330
5D39
102
}
330
5D39
100
AcDbXrecord
280
     1
102
RTVSPropertyOp0
 70
     1
102
RTVSPropertyOp1
 70
     1
102
RTVSPropertyOp2
 70
     1
102
RTVSPropertyOp3
 70
     1
102
RTVSPropertyOp4
 70
     1
102
RTVSPropertyOp5
 70
     1
102
RTVSPropertyOp6
 70
     1
102
RTVSPropertyOp7
 70
     1
102
RTVSPropertyOp8
 70
     1
102
RTVSPropertyOp9
 70
     1
102
RTVSPropertyOp10
 70
     1
102
RTVSPropertyOp11
 70
     1
102
RTVSPropertyOp12
 70
     1
102
RTVSPropertyOp13
 70
     1
102
RTVSPropertyOp14
 70
     1
102
RTVSPropertyOp15
 70
     1
102
RTVSPropertyOp16
 70
     1
102
RTVSPropertyOp17
 70
     1
102
RTVSPropertyOp18
 70
     1
102
RTVSPropertyOp19
 70
     1
102
RTVSPropertyOp20
 70
     1
102
RTVSPropertyOp21
 70
     1
102
RTVSPropertyOp22
 70
     1
102
RTVSPropertyOp23
 70
     1
102
RTVSPropertyOp24
 70
     1
102
RTVSPropertyOp25
 70
     1
102
RTVSPropertyOp26
 70
     1
102
RTVSPropertyOp27
 70
     1
  0
XRECORD
  5
5D42
102
{ACAD_REACTORS
330
5D41
102
}
330
5D41
100
AcDbXrecord
280
     1
102
RTVSPropertyOp0
 70
     1
102
RTVSPropertyOp1
 70
     1
102
RTVSPropertyOp2
 70
     1
102
RTVSPropertyOp3
 70
     1
102
RTVSPropertyOp4
 70
     1
102
RTVSPropertyOp5
 70
     1
102
RTVSPropertyOp6
 70
     1
102
RTVSPropertyOp7
 70
     1
102
RTVSPropertyOp8
 70
     1
102
RTVSPropertyOp9
 70
     1
102
RTVSPropertyOp10
 70
     1
102
RTVSPropertyOp11
 70
     1
102
RTVSPropertyOp12
 70
     1
102
RTVSPropertyOp13
 70
     1
102
RTVSPropertyOp14
 70
     1
102
RTVSPropertyOp15
 70
     1
102
RTVSPropertyOp16
 70
     1
102
RTVSPropertyOp17
 70
     1
102
RTVSPropertyOp18
 70
     1
102
RTVSPropertyOp19
 70
     1
102
RTVSPropertyOp20
 70
     1
102
RTVSPropertyOp21
 70
     1
102
RTVSPropertyOp22
 70
     1
102
RTVSPropertyOp23
 70
     1
102
RTVSPropertyOp24
 70
     1
102
RTVSPropertyOp25
 70
     1
102
RTVSPropertyOp26
 70
     1
102
RTVSPropertyOp27
 70
     1
  0
XRECORD
  5
5D34
102
{ACAD_REACTORS
330
5D33
102
}
330
5D33
100
AcDbXrecord
280
     1
102
RTVSPropertyOp0
 70
     1
102
RTVSPropertyOp1
 70
     1
102
RTVSPropertyOp2
 70
     1
102
RTVSPropertyOp3
 70
     1
102
RTVSPropertyOp4
 70
     1
102
RTVSPropertyOp5
 70
     1
102
RTVSPropertyOp6
 70
     1
102
RTVSPropertyOp7
 70
     1
102
RTVSPropertyOp8
 70
     1
102
RTVSPropertyOp9
 70
     1
102
RTVSPropertyOp10
 70
     1
102
RTVSPropertyOp11
 70
     1
102
RTVSPropertyOp12
 70
     1
102
RTVSPropertyOp13
 70
     1
102
RTVSPropertyOp14
 70
     1
102
RTVSPropertyOp15
 70
     1
102
RTVSPropertyOp16
 70
     1
102
RTVSPropertyOp17
 70
     1
102
RTVSPropertyOp18
 70
     1
102
RTVSPropertyOp19
 70
     1
102
RTVSPropertyOp20
 70
     1
102
RTVSPropertyOp21
 70
     1
102
RTVSPropertyOp22
 70
     1
102
RTVSPropertyOp23
 70
     1
102
RTVSPropertyOp24
 70
     1
102
RTVSPropertyOp25
 70
     1
102
RTVSPropertyOp26
 70
     1
102
RTVSPropertyOp27
 70
     1
  0
XRECORD
  5
5D38
102
{ACAD_REACTORS
330
5D37
102
}
330
5D37
100
AcDbXrecord
280
     1
102
RTVSPropertyOp0
 70
     1
102
RTVSPropertyOp1
 70
     1
102
RTVSPropertyOp2
 70
     1
102
RTVSPropertyOp3
 70
     1
102
RTVSPropertyOp4
 70
     1
102
RTVSPropertyOp5
 70
     1
102
RTVSPropertyOp6
 70
     1
102
RTVSPropertyOp7
 70
     1
102
RTVSPropertyOp8
 70
     1
102
RTVSPropertyOp9
 70
     1
102
RTVSPropertyOp10
 70
     1
102
RTVSPropertyOp11
 70
     1
102
RTVSPropertyOp12
 70
     1
102
RTVSPropertyOp13
 70
     1
102
RTVSPropertyOp14
 70
     1
102
RTVSPropertyOp15
 70
     1
102
RTVSPropertyOp16
 70
     1
102
RTVSPropertyOp17
 70
     1
102
RTVSPropertyOp18
 70
     1
102
RTVSPropertyOp19
 70
     1
102
RTVSPropertyOp20
 70
     1
102
RTVSPropertyOp21
 70
     1
102
RTVSPropertyOp22
 70
     1
102
RTVSPropertyOp23
 70
     1
102
RTVSPropertyOp24
 70
     1
102
RTVSPropertyOp25
 70
     1
102
RTVSPropertyOp26
 70
     1
102
RTVSPropertyOp27
 70
     1
  0
XRECORD
  5
5D48
102
{ACAD_REACTORS
330
5D47
102
}
330
5D47
100
AcDbXrecord
280
     1
102
RTVSPropertyOp0
 70
     0
102
RTVSPropertyOp1
 70
     0
102
RTVSPropertyOp2
 70
     0
102
RTVSPropertyOp3
 70
     0
102
RTVSPropertyOp4
 70
     0
102
RTVSPropertyOp5
 70
     0
102
RTVSPropertyOp6
 70
     0
102
RTVSPropertyOp7
 70
     0
102
RTVSPropertyOp8
 70
     0
102
RTVSPropertyOp9
 70
     0
102
RTVSPropertyOp10
 70
     0
102
RTVSPropertyOp11
 70
     0
102
RTVSPropertyOp12
 70
     0
102
RTVSPropertyOp13
 70
     0
102
RTVSPropertyOp14
 70
     2
102
RTVSPropertyOp15
 70
     0
102
RTVSPropertyOp16
 70
     0
102
RTVSPropertyOp17
 70
     0
102
RTVSPropertyOp18
 70
     0
102
RTVSPropertyOp19
 70
     0
102
RTVSPropertyOp20
 70
     0
102
RTVSPropertyOp21
 70
     0
102
RTVSPropertyOp22
 70
     0
102
RTVSPropertyOp23
 70
     0
102
RTVSPropertyOp24
 70
     0
102
RTVSPropertyOp25
 70
     0
102
RTVSPropertyOp26
 70
     0
102
RTVSPropertyOp27
 70
     0
  0
XRECORD
  5
5D40
102
{ACAD_REACTORS
330
5D3F
102
}
330
5D3F
100
AcDbXrecord
280
     1
102
RTVSPropertyOp0
 70
     1
102
RTVSPropertyOp1
 70
     1
102
RTVSPropertyOp2
 70
     1
102
RTVSPropertyOp3
 70
     1
102
RTVSPropertyOp4
 70
     1
102
RTVSPropertyOp5
 70
     1
102
RTVSPropertyOp6
 70
     1
102
RTVSPropertyOp7
 70
     1
102
RTVSPropertyOp8
 70
     1
102
RTVSPropertyOp9
 70
     1
102
RTVSPropertyOp10
 70
     1
102
RTVSPropertyOp11
 70
     1
102
RTVSPropertyOp12
 70
     1
102
RTVSPropertyOp13
 70
     1
102
RTVSPropertyOp14
 70
     1
102
RTVSPropertyOp15
 70
     1
102
RTVSPropertyOp16
 70
     1
102
RTVSPropertyOp17
 70
     1
102
RTVSPropertyOp18
 70
     1
102
RTVSPropertyOp19
 70
     1
102
RTVSPropertyOp20
 70
     1
102
RTVSPropertyOp21
 70
     1
102
RTVSPropertyOp22
 70
     1
102
RTVSPropertyOp23
 70
     1
102
RTVSPropertyOp24
 70
     1
102
RTVSPropertyOp25
 70
     1
102
RTVSPropertyOp26
 70
     1
102
RTVSPropertyOp27
 70
     1
  0
XRECORD
  5
5D24
102
{ACAD_REACTORS
330
5D23
102
}
330
5D23
100
AcDbXrecord
280
     1
102
RTVSPropertyOp0
 70
     1
102
RTVSPropertyOp1
 70
     1
102
RTVSPropertyOp2
 70
     1
102
RTVSPropertyOp3
 70
     1
102
RTVSPropertyOp4
 70
     1
102
RTVSPropertyOp5
 70
     1
102
RTVSPropertyOp6
 70
     1
102
RTVSPropertyOp7
 70
     1
102
RTVSPropertyOp8
 70
     1
102
RTVSPropertyOp9
 70
     1
102
RTVSPropertyOp10
 70
     1
102
RTVSPropertyOp11
 70
     1
102
RTVSPropertyOp12
 70
     1
102
RTVSPropertyOp13
 70
     1
102
RTVSPropertyOp14
 70
     1
102
RTVSPropertyOp15
 70
     1
102
RTVSPropertyOp16
 70
     1
102
RTVSPropertyOp17
 70
     1
102
RTVSPropertyOp18
 70
     1
102
RTVSPropertyOp19
 70
     1
102
RTVSPropertyOp20
 70
     1
102
RTVSPropertyOp21
 70
     1
102
RTVSPropertyOp22
 70
     1
102
RTVSPropertyOp23
 70
     1
102
RTVSPropertyOp24
 70
     1
102
RTVSPropertyOp25
 70
     1
102
RTVSPropertyOp26
 70
     1
102
RTVSPropertyOp27
 70
     1
  0
XRECORD
  5
5D26
102
{ACAD_REACTORS
330
5D25
102
}
330
5D25
100
AcDbXrecord
280
     1
102
RTVSPropertyOp0
 70
     1
102
RTVSPropertyOp1
 70
     1
102
RTVSPropertyOp2
 70
     1
102
RTVSPropertyOp3
 70
     1
102
RTVSPropertyOp4
 70
     1
102
RTVSPropertyOp5
 70
     1
102
RTVSPropertyOp6
 70
     1
102
RTVSPropertyOp7
 70
     1
102
RTVSPropertyOp8
 70
     1
102
RTVSPropertyOp9
 70
     1
102
RTVSPropertyOp10
 70
     1
102
RTVSPropertyOp11
 70
     1
102
RTVSPropertyOp12
 70
     1
102
RTVSPropertyOp13
 70
     1
102
RTVSPropertyOp14
 70
     1
102
RTVSPropertyOp15
 70
     1
102
RTVSPropertyOp16
 70
     1
102
RTVSPropertyOp17
 70
     1
102
RTVSPropertyOp18
 70
     1
102
RTVSPropertyOp19
 70
     1
102
RTVSPropertyOp20
 70
     1
102
RTVSPropertyOp21
 70
     1
102
RTVSPropertyOp22
 70
     1
102
RTVSPropertyOp23
 70
     1
102
RTVSPropertyOp24
 70
     1
102
RTVSPropertyOp25
 70
     1
102
RTVSPropertyOp26
 70
     1
102
RTVSPropertyOp27
 70
     1
  0
XRECORD
  5
5D28
102
{ACAD_REACTORS
330
5D27
102
}
330
5D27
100
AcDbXrecord
280
     1
102
RTVSPropertyOp0
 70
     1
102
RTVSPropertyOp1
 70
     1
102
RTVSPropertyOp2
 70
     1
102
RTVSPropertyOp3
 70
     1
102
RTVSPropertyOp4
 70
     1
102
RTVSPropertyOp5
 70
     1
102
RTVSPropertyOp6
 70
     1
102
RTVSPropertyOp7
 70
     1
102
RTVSPropertyOp8
 70
     1
102
RTVSPropertyOp9
 70
     1
102
RTVSPropertyOp10
 70
     1
102
RTVSPropertyOp11
 70
     1
102
RTVSPropertyOp12
 70
     1
102
RTVSPropertyOp13
 70
     1
102
RTVSPropertyOp14
 70
     1
102
RTVSPropertyOp15
 70
     1
102
RTVSPropertyOp16
 70
     1
102
RTVSPropertyOp17
 70
     1
102
RTVSPropertyOp18
 70
     1
102
RTVSPropertyOp19
 70
     1
102
RTVSPropertyOp20
 70
     1
102
RTVSPropertyOp21
 70
     1
102
RTVSPropertyOp22
 70
     1
102
RTVSPropertyOp23
 70
     1
102
RTVSPropertyOp24
 70
     1
102
RTVSPropertyOp25
 70
     1
102
RTVSPropertyOp26
 70
     1
102
RTVSPropertyOp27
 70
     1
  0
XRECORD
  5
5D2A
102
{ACAD_REACTORS
330
5D29
102
}
330
5D29
100
AcDbXrecord
280
     1
102
RTVSPropertyOp0
 70
     1
102
RTVSPropertyOp1
 70
     1
102
RTVSPropertyOp2
 70
     1
102
RTVSPropertyOp3
 70
     1
102
RTVSPropertyOp4
 70
     1
102
RTVSPropertyOp5
 70
     1
102
RTVSPropertyOp6
 70
     1
102
RTVSPropertyOp7
 70
     1
102
RTVSPropertyOp8
 70
     1
102
RTVSPropertyOp9
 70
     1
102
RTVSPropertyOp10
 70
     1
102
RTVSPropertyOp11
 70
     1
102
RTVSPropertyOp12
 70
     1
102
RTVSPropertyOp13
 70
     1
102
RTVSPropertyOp14
 70
     1
102
RTVSPropertyOp15
 70
     1
102
RTVSPropertyOp16
 70
     1
102
RTVSPropertyOp17
 70
     1
102
RTVSPropertyOp18
 70
     1
102
RTVSPropertyOp19
 70
     1
102
RTVSPropertyOp20
 70
     1
102
RTVSPropertyOp21
 70
     1
102
RTVSPropertyOp22
 70
     1
102
RTVSPropertyOp23
 70
     1
102
RTVSPropertyOp24
 70
     1
102
RTVSPropertyOp25
 70
     1
102
RTVSPropertyOp26
 70
     1
102
RTVSPropertyOp27
 70
     1
  0
XRECORD
  5
5D44
102
{ACAD_REACTORS
330
5D43
102
}
330
5D43
100
AcDbXrecord
280
     1
102
RTVSPropertyOp0
 70
     0
102
RTVSPropertyOp1
 70
     0
102
RTVSPropertyOp2
 70
     0
102
RTVSPropertyOp3
 70
     0
102
RTVSPropertyOp4
 70
     0
102
RTVSPropertyOp5
 70
     0
102
RTVSPropertyOp6
 70
     0
102
RTVSPropertyOp7
 70
     0
102
RTVSPropertyOp8
 70
     0
102
RTVSPropertyOp9
 70
     0
102
RTVSPropertyOp10
 70
     0
102
RTVSPropertyOp11
 70
     0
102
RTVSPropertyOp12
 70
     0
102
RTVSPropertyOp13
 70
     0
102
RTVSPropertyOp14
 70
     2
102
RTVSPropertyOp15
 70
     0
102
RTVSPropertyOp16
 70
     0
102
RTVSPropertyOp17
 70
     0
102
RTVSPropertyOp18
 70
     0
102
RTVSPropertyOp19
 70
     0
102
RTVSPropertyOp20
 70
     0
102
RTVSPropertyOp21
 70
     0
102
RTVSPropertyOp22
 70
     0
102
RTVSPropertyOp23
 70
     0
102
RTVSPropertyOp24
 70
     0
102
RTVSPropertyOp25
 70
     0
102
RTVSPropertyOp26
 70
     0
102
RTVSPropertyOp27
 70
     0
  0
XRECORD
  5
5D3E
102
{ACAD_REACTORS
330
5D3D
102
}
330
5D3D
100
AcDbXrecord
280
     1
102
RTVSPropertyOp0
 70
     1
102
RTVSPropertyOp1
 70
     1
102
RTVSPropertyOp2
 70
     1
102
RTVSPropertyOp3
 70
     1
102
RTVSPropertyOp4
 70
     1
102
RTVSPropertyOp5
 70
     1
102
RTVSPropertyOp6
 70
     1
102
RTVSPropertyOp7
 70
     1
102
RTVSPropertyOp8
 70
     1
102
RTVSPropertyOp9
 70
     1
102
RTVSPropertyOp10
 70
     1
102
RTVSPropertyOp11
 70
     1
102
RTVSPropertyOp12
 70
     1
102
RTVSPropertyOp13
 70
     1
102
RTVSPropertyOp14
 70
     1
102
RTVSPropertyOp15
 70
     1
102
RTVSPropertyOp16
 70
     1
102
RTVSPropertyOp17
 70
     1
102
RTVSPropertyOp18
 70
     1
102
RTVSPropertyOp19
 70
     1
102
RTVSPropertyOp20
 70
     1
102
RTVSPropertyOp21
 70
     1
102
RTVSPropertyOp22
 70
     1
102
RTVSPropertyOp23
 70
     1
102
RTVSPropertyOp24
 70
     1
102
RTVSPropertyOp25
 70
     1
102
RTVSPropertyOp26
 70
     1
102
RTVSPropertyOp27
 70
     1
  0
XRECORD
  5
5D46
102
{ACAD_REACTORS
330
5D45
102
}
330
5D45
100
AcDbXrecord
280
     1
102
RTVSPropertyOp0
 70
     0
102
RTVSPropertyOp1
 70
     0
102
RTVSPropertyOp2
 70
     0
102
RTVSPropertyOp3
 70
     0
102
RTVSPropertyOp4
 70
     0
102
RTVSPropertyOp5
 70
     0
102
RTVSPropertyOp6
 70
     0
102
RTVSPropertyOp7
 70
     0
102
RTVSPropertyOp8
 70
     0
102
RTVSPropertyOp9
 70
     0
102
RTVSPropertyOp10
 70
     0
102
RTVSPropertyOp11
 70
     0
102
RTVSPropertyOp12
 70
     0
102
RTVSPropertyOp13
 70
     0
102
RTVSPropertyOp14
 70
     2
102
RTVSPropertyOp15
 70
     0
102
RTVSPropertyOp16
 70
     0
102
RTVSPropertyOp17
 70
     0
102
RTVSPropertyOp18
 70
     0
102
RTVSPropertyOp19
 70
     0
102
RTVSPropertyOp20
 70
     0
102
RTVSPropertyOp21
 70
     0
102
RTVSPropertyOp22
 70
     0
102
RTVSPropertyOp23
 70
     0
102
RTVSPropertyOp24
 70
     0
102
RTVSPropertyOp25
 70
     0
102
RTVSPropertyOp26
 70
     0
102
RTVSPropertyOp27
 70
     0
  0
XRECORD
  5
5D36
102
{ACAD_REACTORS
330
5D35
102
}
330
5D35
100
AcDbXrecord
280
     1
102
RTVSPropertyOp0
 70
     1
102
RTVSPropertyOp1
 70
     1
102
RTVSPropertyOp2
 70
     1
102
RTVSPropertyOp3
 70
     1
102
RTVSPropertyOp4
 70
     1
102
RTVSPropertyOp5
 70
     1
102
RTVSPropertyOp6
 70
     1
102
RTVSPropertyOp7
 70
     1
102
RTVSPropertyOp8
 70
     1
102
RTVSPropertyOp9
 70
     1
102
RTVSPropertyOp10
 70
     1
102
RTVSPropertyOp11
 70
     1
102
RTVSPropertyOp12
 70
     1
102
RTVSPropertyOp13
 70
     1
102
RTVSPropertyOp14
 70
     1
102
RTVSPropertyOp15
 70
     1
102
RTVSPropertyOp16
 70
     1
102
RTVSPropertyOp17
 70
     1
102
RTVSPropertyOp18
 70
     1
102
RTVSPropertyOp19
 70
     1
102
RTVSPropertyOp20
 70
     1
102
RTVSPropertyOp21
 70
     1
102
RTVSPropertyOp22
 70
     1
102
RTVSPropertyOp23
 70
     1
102
RTVSPropertyOp24
 70
     1
102
RTVSPropertyOp25
 70
     1
102
RTVSPropertyOp26
 70
     1
102
RTVSPropertyOp27
 70
     1
  0
XRECORD
  5
5D3C
102
{ACAD_REACTORS
330
5D3B
102
}
330
5D3B
100
AcDbXrecord
280
     1
102
RTVSPropertyOp0
 70
     1
102
RTVSPropertyOp1
 70
     1
102
RTVSPropertyOp2
 70
     1
102
RTVSPropertyOp3
 70
     1
102
RTVSPropertyOp4
 70
     1
102
RTVSPropertyOp5
 70
     1
102
RTVSPropertyOp6
 70
     1
102
RTVSPropertyOp7
 70
     1
102
RTVSPropertyOp8
 70
     1
102
RTVSPropertyOp9
 70
     1
102
RTVSPropertyOp10
 70
     1
102
RTVSPropertyOp11
 70
     1
102
RTVSPropertyOp12
 70
     1
102
RTVSPropertyOp13
 70
     1
102
RTVSPropertyOp14
 70
     1
102
RTVSPropertyOp15
 70
     1
102
RTVSPropertyOp16
 70
     1
102
RTVSPropertyOp17
 70
     1
102
RTVSPropertyOp18
 70
     1
102
RTVSPropertyOp19
 70
     1
102
RTVSPropertyOp20
 70
     1
102
RTVSPropertyOp21
 70
     1
102
RTVSPropertyOp22
 70
     1
102
RTVSPropertyOp23
 70
     1
102
RTVSPropertyOp24
 70
     1
102
RTVSPropertyOp25
 70
     1
102
RTVSPropertyOp26
 70
     1
102
RTVSPropertyOp27
 70
     1
  0
ENDSEC
  0
EOF
