  0
SECTION
  2
HEADER
  9
$ACADVER
  1
AC1018
  9
$ACADMAINTVER
 70
   104
  9
$DWGCODEPAGE
  3
ANSI_1252
  9
$LASTSAVEDBY
  1
admin
  9
$INSBASE
 10
0.0
 20
0.0
 30
0.0
  9
$EXTMIN
 10
273.6921625833074
 20
107.0078557785109
 30
-0.0015258207003583
  9
$EXTMAX
 10
679.0685036919231
 20
858.963784460262
 30
0.0000000349246037
  9
$LIMMIN
 10
0.0
 20
0.0
  9
$LIMMAX
 10
420.0
 20
297.0
  9
$ORTHOMODE
 70
     0
  9
$REGENMODE
 70
     1
  9
$FILLMODE
 70
     1
  9
$QTEXTMODE
 70
     0
  9
$MIRRTEXT
 70
     0
  9
$LTSCALE
 40
1.0
  9
$ATTMODE
 70
     1
  9
$TEXTSIZE
 40
2.5
  9
$TRACEWID
 40
1.0
  9
$TEXTSTYLE
  7
Standard
  9
$CLAYER
  8
0
  9
$CELTYPE
  6
ByLayer
  9
$CECOLOR
 62
   256
  9
$CELTSCALE
 40
1.0
  9
$DISPSILH
 70
     0
  9
$DIMSCALE
 40
1.0
  9
$DIMASZ
 40
2.5
  9
$DIMEXO
 40
0.625
  9
$DIMDLI
 40
3.75
  9
$DIMRND
 40
0.0
  9
$DIMDLE
 40
0.0
  9
$DIMEXE
 40
1.25
  9
$DIMTP
 40
0.0
  9
$DIMTM
 40
0.0
  9
$DIMTXT
 40
2.5
  9
$DIMCEN
 40
2.5
  9
$DIMTSZ
 40
0.0
  9
$DIMTOL
 70
     0
  9
$DIMLIM
 70
     0
  9
$DIMTIH
 70
     0
  9
$DIMTOH
 70
     0
  9
$DIMSE1
 70
     0
  9
$DIMSE2
 70
     0
  9
$DIMTAD
 70
     1
  9
$DIMZIN
 70
     8
  9
$DIMBLK
  1

  9
$DIMASO
 70
     1
  9
$DIMSHO
 70
     1
  9
$DIMPOST
  1

  9
$DIMAPOST
  1

  9
$DIMALT
 70
     0
  9
$DIMALTD
 70
     3
  9
$DIMALTF
 40
0.03937007874016
  9
$DIMLFAC
 40
1.0
  9
$DIMTOFL
 70
     1
  9
$DIMTVP
 40
0.0
  9
$DIMTIX
 70
     0
  9
$DIMSOXD
 70
     0
  9
$DIMSAH
 70
     0
  9
$DIMBLK1
  1

  9
$DIMBLK2
  1

  9
$DIMSTYLE
  2
ISO-25
  9
$DIMCLRD
 70
     0
  9
$DIMCLRE
 70
     0
  9
$DIMCLRT
 70
     0
  9
$DIMTFAC
 40
1.0
  9
$DIMGAP
 40
0.625
  9
$DIMJUST
 70
     0
  9
$DIMSD1
 70
     0
  9
$DIMSD2
 70
     0
  9
$DIMTOLJ
 70
     0
  9
$DIMTZIN
 70
     8
  9
$DIMALTZ
 70
     0
  9
$DIMALTTZ
 70
     0
  9
$DIMUPT
 70
     0
  9
$DIMDEC
 70
     2
  9
$DIMTDEC
 70
     2
  9
$DIMALTU
 70
     2
  9
$DIMALTTD
 70
     3
  9
$DIMTXSTY
  7
Standard
  9
$DIMAUNIT
 70
     0
  9
$DIMADEC
 70
     0
  9
$DIMALTRND
 40
0.0
  9
$DIMAZIN
 70
     0
  9
$DIMDSEP
 70
    44
  9
$DIMATFIT
 70
     3
  9
$DIMFRAC
 70
     0
  9
$DIMLDRBLK
  1

  9
$DIMLUNIT
 70
     2
  9
$DIMLWD
 70
    -2
  9
$DIMLWE
 70
    -2
  9
$DIMTMOVE
 70
     0
  9
$LUNITS
 70
     2
  9
$LUPREC
 70
     4
  9
$SKETCHINC
 40
1.0
  9
$FILLETRAD
 40
0.0
  9
$AUNITS
 70
     0
  9
$AUPREC
 70
     0
  9
$MENU
  1
.
  9
$ELEVATION
 40
0.0
  9
$PELEVATION
 40
0.0
  9
$THICKNESS
 40
0.0
  9
$LIMCHECK
 70
     0
  9
$CHAMFERA
 40
0.0
  9
$CHAMFERB
 40
0.0
  9
$CHAMFERC
 40
0.0
  9
$CHAMFERD
 40
0.0
  9
$SKPOLY
 70
     0
  9
$TDCREATE
 40
2457869.280614120
  9
$TDUCREATE
 40
2457869.197280787
  9
$TDUPDATE
 40
2457869.326130544
  9
$TDUUPDATE
 40
2457869.242797211
  9
$TDINDWG
 40
0.0455168287
  9
$TDUSRTIMER
 40
0.0455166435
  9
$USRTIMER
 70
     1
  9
$ANGBASE
 50
0.0
  9
$ANGDIR
 70
     0
  9
$PDMODE
 70
     0
  9
$PDSIZE
 40
0.0
  9
$PLINEWID
 40
0.0
  9
$SPLFRAME
 70
     0
  9
$SPLINETYPE
 70
     6
  9
$SPLINESEGS
 70
     8
  9
$HANDSEED
  5
5B48
  9
$SURFTAB1
 70
     6
  9
$SURFTAB2
 70
     6
  9
$SURFTYPE
 70
     6
  9
$SURFU
 70
     6
  9
$SURFV
 70
     6
  9
$UCSBASE
  2

  9
$UCSNAME
  2

  9
$UCSORG
 10
0.0
 20
0.0
 30
0.0
  9
$UCSXDIR
 10
1.0
 20
0.0
 30
0.0
  9
$UCSYDIR
 10
0.0
 20
1.0
 30
0.0
  9
$UCSORTHOREF
  2

  9
$UCSORTHOVIEW
 70
     0
  9
$UCSORGTOP
 10
0.0
 20
0.0
 30
0.0
  9
$UCSORGBOTTOM
 10
0.0
 20
0.0
 30
0.0
  9
$UCSORGLEFT
 10
0.0
 20
0.0
 30
0.0
  9
$UCSORGRIGHT
 10
0.0
 20
0.0
 30
0.0
  9
$UCSORGFRONT
 10
0.0
 20
0.0
 30
0.0
  9
$UCSORGBACK
 10
0.0
 20
0.0
 30
0.0
  9
$PUCSBASE
  2

  9
$PUCSNAME
  2

  9
$PUCSORG
 10
0.0
 20
0.0
 30
0.0
  9
$PUCSXDIR
 10
1.0
 20
0.0
 30
0.0
  9
$PUCSYDIR
 10
0.0
 20
1.0
 30
0.0
  9
$PUCSORTHOREF
  2

  9
$PUCSORTHOVIEW
 70
     0
  9
$PUCSORGTOP
 10
0.0
 20
0.0
 30
0.0
  9
$PUCSORGBOTTOM
 10
0.0
 20
0.0
 30
0.0
  9
$PUCSORGLEFT
 10
0.0
 20
0.0
 30
0.0
  9
$PUCSORGRIGHT
 10
0.0
 20
0.0
 30
0.0
  9
$PUCSORGFRONT
 10
0.0
 20
0.0
 30
0.0
  9
$PUCSORGBACK
 10
0.0
 20
0.0
 30
0.0
  9
$USERI1
 70
     0
  9
$USERI2
 70
     0
  9
$USERI3
 70
     0
  9
$USERI4
 70
     0
  9
$USERI5
 70
     0
  9
$USERR1
 40
0.0
  9
$USERR2
 40
0.0
  9
$USERR3
 40
0.0
  9
$USERR4
 40
0.0
  9
$USERR5
 40
0.0
  9
$WORLDVIEW
 70
     1
  9
$SHADEDGE
 70
     3
  9
$SHADEDIF
 70
    70
  9
$TILEMODE
 70
     1
  9
$MAXACTVP
 70
    64
  9
$PINSBASE
 10
0.0
 20
0.0
 30
0.0
  9
$PLIMCHECK
 70
     0
  9
$PEXTMIN
 10
1.000000000000000E+20
 20
1.000000000000000E+20
 30
1.000000000000000E+20
  9
$PEXTMAX
 10
-1.000000000000000E+20
 20
-1.000000000000000E+20
 30
-1.000000000000000E+20
  9
$PLIMMIN
 10
0.0
 20
0.0
  9
$PLIMMAX
 10
420.0
 20
297.0
  9
$UNITMODE
 70
     0
  9
$VISRETAIN
 70
     1
  9
$PLINEGEN
 70
     0
  9
$PSLTSCALE
 70
     1
  9
$TREEDEPTH
 70
  3020
  9
$CMLSTYLE
  2
Standard
  9
$CMLJUST
 70
     0
  9
$CMLSCALE
 40
20.0
  9
$PROXYGRAPHICS
 70
     1
  9
$MEASUREMENT
 70
     1
  9
$CELWEIGHT
370
    -1
  9
$ENDCAPS
280
     0
  9
$JOINSTYLE
280
     0
  9
$LWDISPLAY
290
     0
  9
$INSUNITS
 70
     4
  9
$HYPERLINKBASE
  1

  9
$STYLESHEET
  1

  9
$XEDIT
290
     1
  9
$CEPSNTYPE
380
     0
  9
$PSTYLEMODE
290
     1
  9
$FINGERPRINTGUID
  2
{9DFB5F12-FE38-410F-B4C1-738DA96BFA2A}
  9
$VERSIONGUID
  2
{56B76255-5CB5-4294-8583-13251B8EE450}
  9
$EXTNAMES
290
     1
  9
$PSVPSCALE
 40
0.0
  9
$OLESTARTUP
290
     0
  9
$SORTENTS
280
   127
  9
$INDEXCTL
280
     0
  9
$HIDETEXT
280
     1
  9
$XCLIPFRAME
290
     0
  9
$HALOGAP
280
     0
  9
$OBSCOLOR
 70
   257
  9
$OBSLTYPE
280
     0
  9
$INTERSECTIONDISPLAY
280
     0
  9
$INTERSECTIONCOLOR
 70
   257
  9
$DIMASSOC
280
     2
  9
$PROJECTNAME
  1

  0
ENDSEC
  0
SECTION
  2
CLASSES
  0
CLASS
  1
ACDBDICTIONARYWDFLT
  2
AcDbDictionaryWithDefault
  3
ObjectDBX Classes
 90
        0
 91
        1
280
     0
281
     0
  0
CLASS
  1
MATERIAL
  2
AcDbMaterial
  3
ObjectDBX Classes
 90
     1153
 91
        3
280
     0
281
     0
  0
CLASS
  1
VISUALSTYLE
  2
AcDbVisualStyle
  3
ObjectDBX Classes
 90
     4095
 91
       19
280
     0
281
     0
  0
CLASS
  1
SCALE
  2
AcDbScale
  3
ObjectDBX Classes
 90
     1153
 91
       17
280
     0
281
     0
  0
CLASS
  1
TABLESTYLE
  2
AcDbTableStyle
  3
ObjectDBX Classes
 90
     4095
 91
        1
280
     0
281
     0
  0
CLASS
  1
MLEADERSTYLE
  2
AcDbMLeaderStyle
  3
ACDB_MLEADERSTYLE_CLASS
 90
     4095
 91
        1
280
     0
281
     0
  0
CLASS
  1
SORTENTSTABLE
  2
AcDbSortentsTable
  3
ObjectDBX Classes
 90
        0
 91
       90
280
     0
281
     0
  0
CLASS
  1
AEC_REFEDIT_STATUS_TRACKER
  2
AecDbRefEditStatusTracker
  3
AecArchBase60|Product Desc: Autodesk Architectural Desktop 2007 |Company: Autodesk,Inc. |WEB Address: www.autodesk.com
 90
      129
 91
        1
280
     0
281
     0
  0
CLASS
  1
NPOCOLLECTION
  2
AcDbImpNonPersistentObjectsCollection
  3
ObjectDBX Classes
 90
     1153
 91
        1
280
     0
281
     0
  0
CLASS
  1
DICTIONARYVAR
  2
AcDbDictionaryVar
  3
ObjectDBX Classes
 90
        0
 91
       79
280
     0
281
     0
  0
CLASS
  1
CELLSTYLEMAP
  2
AcDbCellStyleMap
  3
ObjectDBX Classes
 90
     1152
 91
       10
280
     0
281
     0
  0
ENDSEC
  0
SECTION
  2
TABLES
  0
TABLE
  2
VPORT
  5
8
330
0
100
AcDbSymbolTable
 70
     1
  0
VPORT
  5
52
330
8
100
AcDbSymbolTableRecord
100
AcDbViewportTableRecord
  2
*Active
 70
     0
 10
0.0
 20
0.0
 11
1.0
 21
1.0
 12
476.3803331376152
 22
482.9858201193864
 13
0.0
 23
0.0
 14
10.0
 24
10.0
 15
10.0
 25
10.0
 16
0.0
 26
0.0
 36
1.0
 17
0.0
 27
0.0
 37
0.0
 40
756.8440495615891
 41
1.888286334056399
 42
50.0
 43
0.0
 44
0.0
 50
0.0
 51
0.0
 71
     0
 72
  1000
 73
     1
 74
     3
 75
     0
 76
     0
 77
     0
 78
     0
281
     0
 65
     1
110
0.0
120
0.0
130
0.0
111
1.0
121
0.0
131
0.0
112
0.0
122
1.0
132
0.0
 79
     0
146
0.0
  0
ENDTAB
  0
TABLE
  2
LTYPE
  5
5
330
0
100
AcDbSymbolTable
 70
     2
  0
LTYPE
  5
56
330
5
100
AcDbSymbolTableRecord
100
AcDbLinetypeTableRecord
  2
ByBlock
 70
     0
  3

 72
    65
 73
     0
 40
0.0
  0
LTYPE
  5
57
330
5
100
AcDbSymbolTableRecord
100
AcDbLinetypeTableRecord
  2
ByLayer
 70
     0
  3

 72
    65
 73
     0
 40
0.0
  0
LTYPE
  5
58
330
5
100
AcDbSymbolTableRecord
100
AcDbLinetypeTableRecord
  2
Continuous
 70
     0
  3
Solid line
 72
    65
 73
     0
 40
0.0
  0
LTYPE
  5
5922
330
5
100
AcDbSymbolTableRecord
100
AcDbLinetypeTableRecord
  2
JIS_02_0.7
 70
     0
  3
HIDDEN0.75 _ _ _ _ _ _ _ _ _ _ _ _ _ _ _ _ _
 72
    65
 73
     2
 40
1.35
 49
0.75
 74
     0
 49
-0.6
 74
     0
  0
ENDTAB
  0
TABLE
  2
LAYER
  5
2
102
{ACAD_XDICTIONARY
360
5939
102
}
330
0
100
AcDbSymbolTable
 70
    11
  0
LAYER
  5
4F
330
2
100
AcDbSymbolTableRecord
100
AcDbLayerTableRecord
  2
0
 70
     0
 62
     7
  6
Continuous
370
    -3
390
F
  0
LAYER
  5
5923
330
2
100
AcDbSymbolTableRecord
100
AcDbLayerTableRecord
  2
F_01 sichtbar
 70
     0
 62
     7
  6
Continuous
370
    -3
390
F
1001
AcAecLayerStandard
1000

1000

  0
LAYER
  5
5924
330
2
100
AcDbSymbolTableRecord
100
AcDbLayerTableRecord
  2
F_31 Ansichtsfenster
 70
     0
 62
    12
  6
Continuous
290
     0
370
    40
390
F
1001
AcAecLayerStandard
1000

1000

  0
LAYER
  5
5925
330
2
100
AcDbSymbolTableRecord
100
AcDbLayerTableRecord
  2
F_02 unsichtbar
 70
     0
 62
     8
  6
JIS_02_0.7
370
    -3
390
F
1001
AcAecLayerStandard
1000

1000

  0
LAYER
  5
5926
330
2
100
AcDbSymbolTableRecord
100
AcDbLayerTableRecord
  2
F_06 Wangen
 70
     0
 62
   190
  6
Continuous
370
    -3
390
F
1001
AcAecLayerStandard
1000

1000

  0
LAYER
  5
5927
330
2
100
AcDbSymbolTableRecord
100
AcDbLayerTableRecord
  2
F_15 Schr-Mauer hell
 70
     0
 62
   254
  6
Continuous
370
    -3
390
F
1001
AcAecLayerStandard
1000

1000

  0
LAYER
  5
5928
330
2
100
AcDbSymbolTableRecord
100
AcDbLayerTableRecord
  2
F_18 Schr-Holz hell
 70
     0
 62
    41
  6
Continuous
370
    -3
390
F
1001
AcAecLayerStandard
1000

1000

  0
LAYER
  5
5929
330
2
100
AcDbSymbolTableRecord
100
AcDbLayerTableRecord
  2
F_29 Bemassung M
 70
     0
 62
   160
  6
Continuous
370
    -3
390
F
1001
AcAecLayerStandard
1000

1000

  0
LAYER
  5
592A
330
2
100
AcDbSymbolTableRecord
100
AcDbLayerTableRecord
  2
F_30 Bemassung T
 70
     0
 62
    92
  6
Continuous
370
    -3
390
F
1001
AcAecLayerStandard
1000

1000

  0
LAYER
  5
592B
102
{ACAD_XDICTIONARY
360
592C
102
}
330
2
100
AcDbSymbolTableRecord
100
AcDbLayerTableRecord
  2
F_0 sichtbar
 70
     0
 62
     7
  6
Continuous
370
    -3
390
F
1001
AcAecLayerStandard
1000

1000

  0
LAYER
  5
592D
102
{ACAD_XDICTIONARY
360
592E
102
}
330
2
100
AcDbSymbolTableRecord
100
AcDbLayerTableRecord
  2
F_20 Schr-Metall hell
 70
     0
 62
     7
420
 13107199
  6
Continuous
370
    -3
390
F
1001
AcAecLayerStandard
1000

1000

  0
ENDTAB
  0
TABLE
  2
STYLE
  5
3
330
0
100
AcDbSymbolTable
 70
     3
  0
STYLE
  5
50
330
3
100
AcDbSymbolTableRecord
100
AcDbTextStyleTableRecord
  2
Standard
 70
     0
 40
0.0
 41
1.0
 50
0.0
 71
     0
 42
2.5
  3
txt
  4

  0
STYLE
  5
55
330
3
100
AcDbSymbolTableRecord
100
AcDbTextStyleTableRecord
  2
Annotative
 70
     0
 40
0.0
 41
1.0
 50
0.0
 71
     0
 42
0.2
  3
txt
  4

1001
AcadAnnotative
1000
AnnotativeData
1002
{
1070
     1
1070
     1
1002
}
  0
STYLE
  5
592F
330
3
100
AcDbSymbolTableRecord
100
AcDbTextStyleTableRecord
  2
Arial
 70
     0
 40
0.0
 41
1.0
 50
0.0
 71
     0
 42
3.0
  3
ARIALN.TTF
  4

1001
AcadAnnotative
1000
AnnotativeData
1002
{
1070
     1
1070
     1
1002
}
1001
ACAD
1000
Arial Narrow
1071
       34
  0
ENDTAB
  0
TABLE
  2
VIEW
  5
6
330
0
100
AcDbSymbolTable
 70
     0
  0
ENDTAB
  0
TABLE
  2
UCS
  5
7
330
0
100
AcDbSymbolTable
 70
     0
  0
ENDTAB
  0
TABLE
  2
APPID
  5
9
330
0
100
AcDbSymbolTable
 70
     8
  0
APPID
  5
51
330
9
100
AcDbSymbolTableRecord
100
AcDbRegAppTableRecord
  2
ACAD
 70
     0
  0
APPID
  5
59
330
9
100
AcDbSymbolTableRecord
100
AcDbRegAppTableRecord
  2
AcadAnnotative
 70
     0
  0
APPID
  5
5935
330
9
100
AcDbSymbolTableRecord
100
AcDbRegAppTableRecord
  2
AcAecLayerStandard
 70
     0
  0
APPID
  5
5936
330
9
100
AcDbSymbolTableRecord
100
AcDbRegAppTableRecord
  2
ACAD_PSEXT
 70
     0
  0
APPID
  5
5937
330
9
100
AcDbSymbolTableRecord
100
AcDbRegAppTableRecord
  2
ACAD_DSTYLE_DIMJAG
 70
     0
  0
APPID
  5
5938
330
9
100
AcDbSymbolTableRecord
100
AcDbRegAppTableRecord
  2
ACAD_DSTYLE_DIMTALN
 70
     0
  0
APPID
  5
5B41
330
9
100
AcDbSymbolTableRecord
100
AcDbRegAppTableRecord
  2
ACAD_DSTYLE_DIMJOGGED_JOGANGLE_SYMBOL
 70
     0
  0
APPID
  5
5B43
330
9
100
AcDbSymbolTableRecord
100
AcDbRegAppTableRecord
  2
ACAD_MLEADERVER
 70
     0
  0
ENDTAB
  0
TABLE
  2
DIMSTYLE
  5
A
330
0
100
AcDbSymbolTable
 70
     7
100
AcDbDimStyleTable
 71
     0
  0
DIMSTYLE
105
53
330
A
100
AcDbSymbolTableRecord
100
AcDbDimStyleTableRecord
  2
ISO-25
 70
     0
 41
2.5
 42
0.625
 43
3.75
 44
1.25
 73
     0
 74
     0
 77
     1
 78
     8
140
2.5
141
2.5
143
0.03937007874016
147
0.625
171
     3
172
     1
271
     2
272
     2
274
     3
278
    44
283
     0
284
     8
340
50
1001
ACAD_DSTYLE_DIMJOGGED_JOGANGLE_SYMBOL
1070
   384
1040
1.570796326794896
  0
DIMSTYLE
105
54
330
A
100
AcDbSymbolTableRecord
100
AcDbDimStyleTableRecord
  2
Annotative
 70
     0
340
50
1001
AcadAnnotative
1000
AnnotativeData
1002
{
1070
     1
1070
     1
1002
}
  0
DIMSTYLE
105
5930
330
A
100
AcDbSymbolTableRecord
100
AcDbDimStyleTableRecord
  2
MST 1-1
 70
     0
 41
2.0
 42
2.0
 43
2.0
 44
1.0
 46
2.0
 73
     0
 74
     0
 77
     3
 78
     8
 79
     2
140
3.0
141
2.5
143
0.03937007874016
147
1.0
171
     3
176
   256
177
   256
178
     3
179
     1
271
     1
272
     1
274
     3
279
     2
284
     8
340
592F
342
5908
1001
ACAD_DSTYLE_DIMJAG
1070
   388
1040
1.5
1001
ACAD_DSTYLE_DIMTALN
1070
   392
1070
     0
  0
DIMSTYLE
105
5931
330
A
100
AcDbSymbolTableRecord
100
AcDbDimStyleTableRecord
  2
MST 1-2
 70
     0
 40
2.0
 41
2.0
 42
2.0
 43
2.0
 44
1.0
 46
2.0
 73
     0
 74
     0
 77
     3
 78
     8
 79
     2
140
3.0
141
1.0
143
0.03937007874016
147
1.0
171
     3
176
   256
177
   256
178
     3
179
     1
271
     1
272
     1
274
     3
279
     2
284
     8
340
592F
342
5908
  0
DIMSTYLE
105
5932
330
A
100
AcDbSymbolTableRecord
100
AcDbDimStyleTableRecord
  2
MST 1-5
 70
     0
 40
5.0
 41
1.5
 42
2.0
 43
2.0
 44
1.0
 46
2.0
 73
     0
 74
     0
 77
     3
 78
     8
 79
     2
140
3.0
141
1.0
143
0.03937007874016
147
1.0
171
     3
176
   256
177
   256
178
     3
179
     1
271
     1
272
     1
274
     3
279
     2
284
     8
340
592F
342
5908
  0
DIMSTYLE
105
5933
330
A
100
AcDbSymbolTableRecord
100
AcDbDimStyleTableRecord
  2
MST 1-10
 70
     0
 40
10.0
 41
2.0
 42
2.0
 43
2.0
 44
2.0
 46
2.0
 73
     0
 74
     0
 77
     3
 78
     8
 79
     2
140
3.0
141
1.0
143
0.03937007874016
147
1.0
171
     3
176
   256
177
   256
178
     3
179
     1
271
     1
272
     1
274
     3
279
     2
284
     8
340
592F
342
5908
1001
ACAD_DSTYLE_DIMJAG
1070
   388
1040
1.5
1001
ACAD_DSTYLE_DIMTALN
1070
   392
1070
     0
  0
DIMSTYLE
105
5934
330
A
100
AcDbSymbolTableRecord
100
AcDbDimStyleTableRecord
  2
MST 1-20
 70
     0
 40
20.0
 41
2.0
 42
2.0
 43
2.0
 44
1.0
 46
2.0
 73
     0
 74
     0
 77
     3
 78
     8
 79
     2
140
3.0
141
1.0
143
0.03937007874016
147
1.0
171
     3
176
   256
177
   256
178
     3
179
     1
271
     1
272
     1
274
     3
279
     2
284
     8
340
592F
342
5908
  0
ENDTAB
  0
TABLE
  2
BLOCK_RECORD
  5
1
330
0
100
AcDbSymbolTable
 70
     4
  0
BLOCK_RECORD
  5
67
330
1
100
AcDbSymbolTableRecord
100
AcDbBlockTableRecord
  2
*Model_Space
340
6A
  0
BLOCK_RECORD
  5
63
330
1
100
AcDbSymbolTableRecord
100
AcDbBlockTableRecord
  2
*Paper_Space
340
66
  0
BLOCK_RECORD
  5
6B
330
1
100
AcDbSymbolTableRecord
100
AcDbBlockTableRecord
  2
*Paper_Space0
340
6E
  0
BLOCK_RECORD
  5
5908
102
{ACAD_XDICTIONARY
360
5909
102
}
330
1
100
AcDbSymbolTableRecord
100
AcDbBlockTableRecord
  2
_ArchTick
340
0
310
2800000020000000200000000100080000000000000400000000000000000000000000000000000000000000000080000080000000808000800000008000800080800000C0C0C000C0DCC000F0CAA6000020400000206000002080000020A0000020C0000020E00000400000004020000040400000406000004080000040A0
310
000040C0000040E00000600000006020000060400000606000006080000060A0000060C0000060E00000800000008020000080400000806000008080000080A0000080C0000080E00000A0000000A0200000A0400000A0600000A0800000A0A00000A0C00000A0E00000C0000000C0200000C0400000C0600000C0800000C0
310
A00000C0C00000C0E00000E0000000E0200000E0400000E0600000E0800000E0A00000E0C00000E0E00040000000400020004000400040006000400080004000A0004000C0004000E00040200000402020004020400040206000402080004020A0004020C0004020E000404000004040200040404000404060004040800040
310
40A0004040C0004040E00040600000406020004060400040606000406080004060A0004060C0004060E00040800000408020004080400040806000408080004080A0004080C0004080E00040A0000040A0200040A0400040A0600040A0800040A0A00040A0C00040A0E00040C0000040C0200040C0400040C0600040C08000
310
40C0A00040C0C00040C0E00040E0000040E0200040E0400040E0600040E0800040E0A00040E0C00040E0E00080000000800020008000400080006000800080008000A0008000C0008000E00080200000802020008020400080206000802080008020A0008020C0008020E00080400000804020008040400080406000804080
310
008040A0008040C0008040E00080600000806020008060400080606000806080008060A0008060C0008060E00080800000808020008080400080806000808080008080A0008080C0008080E00080A0000080A0200080A0400080A0600080A0800080A0A00080A0C00080A0E00080C0000080C0200080C0400080C0600080C0
310
800080C0A00080C0C00080C0E00080E0000080E0200080E0400080E0600080E0800080E0A00080E0C00080E0E000C0000000C0002000C0004000C0006000C0008000C000A000C000C000C000E000C0200000C0202000C0204000C0206000C0208000C020A000C020C000C020E000C0400000C0402000C0404000C0406000C0
310
408000C040A000C040C000C040E000C0600000C0602000C0604000C0606000C0608000C060A000C060C000C060E000C0800000C0802000C0804000C0806000C0808000C080A000C080C000C080E000C0A00000C0A02000C0A04000C0A06000C0A08000C0A0A000C0A0C000C0A0E000C0C00000C0C02000C0C04000C0C06000
310
C0C08000C0C0A000F0FBFF00A4A0A000808080000000FF0000FF000000FFFF00FF000000FF00FF00FFFF0000FFFFFF00FFFFFF00FFFFFFFFFFFFFFFFFFFFFFFFFFFFFFFFFFFFFFFFFFFFFFFFFFFFFFFFFFFF00FF00FFFFFFFFFFFFFFFFFFFFFFFFFFFFFFFFFFFFFFFFFFFFFFFFFFFFFFFF00FFFFFF00FFFFFFFFFFFFFFFFFF
310
FFFFFFFFFFFFFFFFFFFFFFFFFFFFFFFFFF00FFFFFFFFFF00FFFFFFFFFFFFFFFFFFFFFFFFFFFFFFFFFFFFFFFFFFFFFFFFFFFF00FFFFFFFFFF00FFFFFFFFFFFFFFFFFFFFFFFFFFFFFFFFFFFFFFFFFFFFFFFFFFFF00FFFFFFFFFF00FFFFFFFFFFFFFFFFFFFFFFFFFFFFFFFFFFFFFFFFFFFFFFFFFFFF00FFFFFFFFFF00FFFFFFFF
310
FFFFFFFFFFFFFFFFFFFFFFFFFFFFFFFFFFFFFFFFFFFF00FFFFFFFFFF00FFFFFFFFFFFFFFFFFFFFFFFFFFFFFFFFFFFFFFFFFFFFFFFFFFFF00FFFFFFFFFF00FFFFFFFFFFFFFFFFFFFFFFFFFFFFFFFFFFFFFFFFFFFFFFFFFFFF00FFFFFFFFFF00FFFFFFFFFFFFFFFFFFFFFFFFFFFFFFFFFFFFFFFFFFFFFFFFFFFF00FFFFFFFFFF
310
00FFFFFFFFFFFFFFFFFFFFFFFFFFFFFFFFFFFFFFFFFFFFFFFFFFFF00FFFFFFFFFF00FFFFFFFFFFFFFFFFFFFFFFFFFFFFFFFFFFFFFFFFFFFFFFFFFFFF00FFFFFFFFFF00FFFFFFFFFFFFFFFFFFFFFFFFFFFFFFFFFFFFFFFFFFFFFFFFFFFF00FFFFFFFFFF00FFFFFFFFFFFFFFFFFFFFFFFFFFFFFFFFFFFFFFFFFFFFFFFFFFFF00
310
FFFFFFFFFF00FFFFFFFFFFFFFFFFFFFFFFFFFFFFFFFFFFFFFFFFFFFFFFFFFFFF00FFFFFFFFFF00FFFFFFFFFFFFFFFFFFFFFFFFFFFFFFFFFFFFFFFFFFFFFFFFFFFF00FFFFFFFFFF00FFFFFFFFFFFFFFFFFFFFFFFFFFFFFFFFFFFFFFFFFFFFFFFFFFFF00FFFFFFFFFF00FFFFFFFFFFFFFFFFFFFFFFFFFFFFFFFFFFFFFFFFFFFF
310
FFFFFFFF00FFFFFFFFFF00FFFFFFFFFFFFFFFFFFFFFFFFFFFFFFFFFFFFFFFFFFFFFFFFFFFF00FFFFFFFFFF00FFFFFFFFFFFFFFFFFFFFFFFFFFFFFFFFFFFFFFFFFFFFFFFFFFFF00FFFFFFFFFF00FFFFFFFFFFFFFFFFFFFFFFFFFFFFFFFFFFFFFFFFFFFFFFFFFFFF00FFFFFFFFFF00FFFFFFFFFFFFFFFFFFFFFFFFFFFFFFFFFF
310
FFFFFFFFFFFFFFFFFF00FFFFFFFFFF00FFFFFFFFFFFFFFFFFFFFFFFFFFFFFFFFFFFFFFFFFFFFFFFFFFFF00FFFFFFFFFF00FFFFFFFFFFFFFFFFFFFFFFFFFFFFFFFFFFFFFFFFFFFFFFFFFFFF00FFFFFFFFFF00FFFFFFFFFFFFFFFFFFFFFFFFFFFFFFFFFFFFFFFFFFFFFFFFFFFF00FFFFFFFFFF00FFFFFFFFFFFFFFFFFFFFFFFF
310
FFFFFFFFFFFFFFFFFFFFFFFFFFFF00FFFFFFFFFF00FFFFFFFFFFFFFFFFFFFFFFFFFFFFFFFFFFFFFFFFFFFFFFFFFFFF00FFFFFFFFFF00FFFFFFFFFFFFFFFFFFFFFFFFFFFFFFFFFFFFFFFFFFFFFFFFFFFF00FFFFFFFFFF00FFFFFFFFFFFFFFFFFFFFFFFFFFFFFFFFFFFFFFFFFFFFFFFFFFFF00FFFFFF00FFFFFFFFFFFFFFFFFF
310
FFFFFFFFFFFFFFFFFFFFFFFFFFFFFFFFFFFFFF00FF00FFFFFFFFFFFFFFFFFFFFFFFFFFFFFFFFFFFFFFFFFFFFFFFFFFFFFFFFFFFF00FFFFFF
  0
BLOCK_RECORD
  5
590E
102
{ACAD_XDICTIONARY
360
590F
102
}
330
1
100
AcDbSymbolTableRecord
100
AcDbBlockTableRecord
  2
A$C512D72A2
340
0
102
{BLKREFS
331
596C
331
5A56
102
}
1001
ACAD
1000
DesignCenter Data
1002
{
1070
     1
1070
     4
1002
}
  0
ENDTAB
  0
ENDSEC
  0
SECTION
  2
BLOCKS
  0
BLOCK
  5
68
330
67
100
AcDbEntity
  8
0
100
AcDbBlockBegin
  2
*Model_Space
 70
     0
 10
0.0
 20
0.0
 30
0.0
  3
*Model_Space
  1

  0
ENDBLK
  5
69
330
67
100
AcDbEntity
  8
0
100
AcDbBlockEnd
  0
BLOCK
  5
64
330
63
100
AcDbEntity
 67
     1
  8
0
100
AcDbBlockBegin
  2
*Paper_Space
 70
     0
 10
0.0
 20
0.0
 30
0.0
  3
*Paper_Space
  1

  0
ENDBLK
  5
65
330
63
100
AcDbEntity
 67
     1
  8
0
100
AcDbBlockEnd
  0
BLOCK
  5
6C
330
6B
100
AcDbEntity
 67
     1
  8
0
100
AcDbBlockBegin
  2
*Paper_Space0
 70
     0
 10
0.0
 20
0.0
 30
0.0
  3
*Paper_Space0
  1

  0
ENDBLK
  5
6D
330
6B
100
AcDbEntity
 67
     1
  8
0
100
AcDbBlockEnd
  0
BLOCK
  5
590B
330
5908
100
AcDbEntity
  8
0
100
AcDbBlockBegin
  2
_ArchTick
 70
     0
 10
0.0
 20
0.0
 30
0.0
  3
_ArchTick
  1

  0
LWPOLYLINE
  5
590C
330
5908
100
AcDbEntity
  8
0
  6
ByBlock
 62
     7
100
AcDbPolyline
 90
        2
 70
     0
 43
0.15
 10
-0.5
 20
-0.5
 10
0.5
 20
0.5
  0
ENDBLK
  5
590D
330
5908
100
AcDbEntity
  8
0
100
AcDbBlockEnd
  0
BLOCK
  5
5911
330
590E
100
AcDbEntity
  8
0
100
AcDbBlockBegin
  2
A$C512D72A2
 70
     0
 10
0.0
 20
0.0
 30
0.0
  3
A$C512D72A2
  1

  0
CIRCLE
  5
5912
330
590E
100
AcDbEntity
  8
F_01 sichtbar
100
AcDbCircle
 10
62.84019272666774
 20
26.08899811659649
 30
0.0
 40
1.5
  0
LINE
  5
5913
330
590E
100
AcDbEntity
  8
F_01 sichtbar
100
AcDbLine
 10
43.87580794467067
 20
25.08900033478858
 30
0.0
 11
58.79580794468347
 21
25.08900033478858
 31
0.0
  0
LINE
  5
5914
330
590E
100
AcDbEntity
  8
F_01 sichtbar
100
AcDbLine
 10
58.79580794468347
 20
26.62900033478218
 30
0.0
 11
43.87580794467067
 21
26.62900033478218
 31
0.0
  0
ARC
  5
5915
330
590E
100
AcDbEntity
  8
F_01 sichtbar
100
AcDbCircle
 10
43.87580794467067
 20
27.62900033478218
 30
0.0
 40
2.540000000000208
100
AcDbArc
 50
348.6471612439746
 51
270.0
  0
ARC
  5
5916
330
590E
100
AcDbEntity
  8
F_01 sichtbar
100
AcDbCircle
 10
43.87580794467067
 20
27.62900033478218
 30
0.0
 40
1.000000000000333
100
AcDbArc
 50
329.9999999999376
 51
270.0
  0
LINE
  5
5917
330
590E
100
AcDbEntity
  8
F_01 sichtbar
100
AcDbLine
 10
44.74183334845292
 20
27.12900033478218
 30
0.0
 11
46.36610913128243
 21
27.12900033478218
 31
0.0
  0
ARC
  5
5918
330
590E
100
AcDbEntity
  8
F_01 sichtbar
100
AcDbCircle
 10
58.79580794468347
 20
27.62900033478218
 30
0.0
 40
2.540000000000208
100
AcDbArc
 50
270.0
 51
191.3528387560254
  0
ARC
  5
5919
330
590E
100
AcDbEntity
  8
F_01 sichtbar
100
AcDbCircle
 10
58.79580794468347
 20
27.62900033478218
 30
0.0
 40
1.000000000000333
100
AcDbArc
 50
270.0
 51
210.0000000000624
  0
LINE
  5
591A
330
590E
100
AcDbEntity
  8
F_01 sichtbar
100
AcDbLine
 10
57.92978254090122
 20
27.12900033478218
 30
0.0
 11
56.30550675808627
 21
27.12900033478218
 31
0.0
  0
LINE
  5
591B
330
590E
100
AcDbEntity
  8
F_02 unsichtbar
100
AcDbLine
 10
51.33881687288521
 20
26.62900033478218
 30
0.0
 11
51.33881687288521
 21
-137.3560237869387
 31
0.0
  0
LINE
  5
591C
330
590E
100
AcDbEntity
  8
F_01 sichtbar
100
AcDbLine
 10
48.33881687288521
 20
26.62900033478218
 30
0.0
 11
48.33881687288521
 21
29.12900033478218
 31
0.0
  0
LINE
  5
591D
330
590E
100
AcDbEntity
  8
F_01 sichtbar
100
AcDbLine
 10
48.33881687288521
 20
29.12900033478218
 30
0.0
 11
54.33881687288522
 21
29.12900033478218
 31
0.0
  0
LINE
  5
591E
330
590E
100
AcDbEntity
  8
F_01 sichtbar
100
AcDbLine
 10
54.33881687288522
 20
29.12900033478218
 30
0.0
 11
54.33881687288522
 21
26.62900033478218
 31
0.0
  0
LINE
  5
591F
330
590E
100
AcDbEntity
  8
F_01 sichtbar
100
AcDbLine
 10
53.33881687288521
 20
26.62900033478218
 30
0.0
 11
53.33881687288521
 21
29.12900033478218
 31
0.0
  0
LINE
  5
5920
330
590E
100
AcDbEntity
  8
F_01 sichtbar
100
AcDbLine
 10
49.33881687289977
 20
26.62900033478218
 30
0.0
 11
49.33881687289977
 21
29.12900033478218
 31
0.0
  0
ENDBLK
  5
5921
330
590E
100
AcDbEntity
  8
0
100
AcDbBlockEnd
  0
ENDSEC
  0
SECTION
  2
ENTITIES
  0
HATCH
  5
5A26
330
67
100
AcDbEntity
  8
F_20 Schr-Metall hell
370
    13
100
AcDbHatch
 10
0.0
 20
0.0
 30
0.0
210
0.0
220
0.0
230
1.0
  2
SOLID
 70
     1
 71
     0
 91
        8
 92
       23
 72
     0
 73
     1
 93
        4
 10
669.7237408386645
 20
313.124165658789
 10
474.3813641119886
 20
313.1241656587927
 10
474.3813641119886
 20
310.1241656587927
 10
669.7237408386645
 20
310.1241656587927
 97
        0
 92
       23
 72
     1
 73
     1
 93
        2
 10
474.3813641119849
 20
308.6241656587926
 42
1.0
 10
477.381364111985
 20
308.6241656587926
 42
1.0
 97
        0
 92
       23
 72
     1
 73
     1
 93
        2
 10
509.381364111985
 20
308.6241656587926
 42
1.0
 10
512.381364111985
 20
308.6241656587926
 42
1.0
 97
        0
 92
       23
 72
     1
 73
     1
 93
        2
 10
547.381364111985
 20
308.6241656587926
 42
1.0
 10
544.381364111985
 20
308.6241656587926
 42
1.0
 97
        0
 92
       23
 72
     1
 73
     1
 93
        2
 10
579.381364111985
 20
308.6241656587926
 42
1.0
 10
582.381364111985
 20
308.6241656587926
 42
1.0
 97
        0
 92
       23
 72
     1
 73
     1
 93
        2
 10
614.381364111985
 20
308.6241656587926
 42
1.0
 10
617.381364111985
 20
308.6241656587926
 42
1.0
 97
        0
 92
       23
 72
     1
 73
     1
 93
        2
 10
649.3813641119849
 20
308.6241656587926
 42
1.0
 10
652.381364111985
 20
308.6241656587926
 42
1.0
 97
        0
 92
        1
 93
        6
 72
     1
 10
473.3813641119922
 20
342.1241309695952
 11
453.3813641119922
 21
342.1241309695952
 72
     1
 10
453.3813641119922
 20
342.1241309695952
 11
453.3813641119922
 21
302.1241656587922
 72
     1
 10
453.3813641119922
 20
302.1241656587922
 11
669.7237408386645
 21
302.1241656587926
 72
     1
 10
669.7237408386645
 20
302.1241656587926
 11
669.7237408386645
 21
307.1241656587927
 72
     1
 10
669.7237408386645
 20
307.1241656587927
 11
473.3813641119922
 21
307.1241656587927
 72
     1
 10
473.3813641119922
 20
307.1241656587927
 11
473.3813641119922
 21
342.1241309695952
 97
        0
 75
     0
 76
     1
 47
0.0862750395953369
 98
        9
 10
486.5825684171504
 20
311.0829608754329
 10
476.5692214041701
 20
308.667290003451
 10
511.5288239596047
 20
308.667290003451
 10
546.3159649163353
 20
308.2358590610429
 10
581.4885638403575
 20
308.5859028476598
 10
616.1029914295868
 20
309.1035936396556
 10
650.8347432596711
 20
308.5930143467022
 10
454.9954734930979
 20
337.0273611974417
 10
454.8657034348907
 20
330.1531099486756
450
        0
451
        0
460
0.0
461
0.0
452
        1
462
1.0
453
        2
463
0.0
 63
     5
421
      255
463
1.0
 63
     7
421
 16777215
470
LINEAR
1001
ACAD
1010
0.0
1020
0.0
1030
0.0
  0
HATCH
  5
5A27
330
67
100
AcDbEntity
  8
F_15 Schr-Mauer hell
370
    13
100
AcDbHatch
 10
0.0
 20
0.0
 30
0.0
210
0.0
220
0.0
230
1.0
  2
SOLID
 70
     1
 71
     0
 91
        1
 92
        1
 93
        4
 72
     1
 10
273.9377386828583
 20
496.1241680878056
 11
273.9377386828619
 21
316.1241680878057
 72
     1
 10
273.9377386828619
 20
316.1241680878057
 11
435.8813912467012
 21
316.1241680878057
 72
     1
 10
435.8813912467012
 20
316.1241680878057
 11
435.8813912467012
 21
496.1241680878056
 72
     1
 10
435.8813912467012
 20
496.1241680878056
 11
273.9377386828583
 21
496.1241680878056
 97
        0
 75
     0
 76
     1
 98
        1
 10
222.2923968079485
 20
457.7126692478896
450
        0
451
        0
460
0.0
461
0.0
452
        1
462
1.0
453
        2
463
0.0
 63
     5
421
      255
463
1.0
 63
     7
421
 16777215
470
LINEAR
1001
ACAD
1010
0.0
1020
0.0
1030
0.0
  0
POLYLINE
  5
5A28
330
67
100
AcDbEntity
  8
F_01 sichtbar
370
    13
100
AcDb2dPolyline
 66
     1
 10
0.0
 20
0.0
 30
0.0
  0
VERTEX
  5
5A29
330
5A28
100
AcDbEntity
  8
F_01 sichtbar
370
    13
100
AcDbVertex
100
AcDb2dVertex
 10
273.9377386828601
 20
316.1241680878065
 30
0.0
  0
VERTEX
  5
5A2A
330
5A28
100
AcDbEntity
  8
F_01 sichtbar
370
    13
100
AcDbVertex
100
AcDb2dVertex
 10
435.8813912467012
 20
316.1241680878057
 30
0.0
  0
SEQEND
  5
5A2B
330
5A28
100
AcDbEntity
  8
F_01 sichtbar
370
    13
  0
POLYLINE
  5
5A2C
330
67
100
AcDbEntity
  8
F_01 sichtbar
370
    13
100
AcDb2dPolyline
 66
     1
 10
0.0
 20
0.0
 30
0.0
  0
VERTEX
  5
5A2D
330
5A2C
100
AcDbEntity
  8
F_01 sichtbar
370
    13
100
AcDbVertex
100
AcDb2dVertex
 10
273.9377386828601
 20
496.1241680878056
 30
0.0
  0
VERTEX
  5
5A2E
330
5A2C
100
AcDbEntity
  8
F_01 sichtbar
370
    13
100
AcDbVertex
100
AcDb2dVertex
 10
435.8813912467012
 20
496.1241680878056
 30
0.0
  0
SEQEND
  5
5A2F
330
5A2C
100
AcDbEntity
  8
F_01 sichtbar
370
    13
  0
POLYLINE
  5
5A30
330
67
100
AcDbEntity
  8
F_01 sichtbar
370
    13
100
AcDb2dPolyline
 66
     1
 10
0.0
 20
0.0
 30
0.0
  0
VERTEX
  5
5A31
330
5A30
100
AcDbEntity
  8
F_01 sichtbar
370
    13
100
AcDbVertex
100
AcDb2dVertex
 10
273.9377386828637
 20
533.1241680878056
 30
0.0
  0
VERTEX
  5
5A32
330
5A30
100
AcDbEntity
  8
F_01 sichtbar
370
    13
100
AcDbVertex
100
AcDb2dVertex
 10
438.3813912466867
 20
533.1241680878056
 30
0.0
  0
SEQEND
  5
5A33
330
5A30
100
AcDbEntity
  8
F_01 sichtbar
370
    13
  0
POLYLINE
  5
5A34
330
67
100
AcDbEntity
  8
F_01 sichtbar
370
    13
100
AcDb2dPolyline
 66
     1
 10
0.0
 20
0.0
 30
0.0
  0
VERTEX
  5
5A35
330
5A34
100
AcDbEntity
  8
F_01 sichtbar
370
    13
100
AcDbVertex
100
AcDb2dVertex
 10
273.9377386828637
 20
538.1241680878056
 30
0.0
  0
VERTEX
  5
5A36
330
5A34
100
AcDbEntity
  8
F_01 sichtbar
370
    13
100
AcDbVertex
100
AcDb2dVertex
 10
440.0038902459018
 20
538.1241680878056
 30
0.0
  0
SEQEND
  5
5A37
330
5A34
100
AcDbEntity
  8
F_01 sichtbar
370
    13
  0
POLYLINE
  5
5A38
330
67
100
AcDbEntity
  8
F_01 sichtbar
370
    13
100
AcDb2dPolyline
 66
     1
 10
0.0
 20
0.0
 30
0.0
  0
VERTEX
  5
5A39
330
5A38
100
AcDbEntity
  8
F_01 sichtbar
370
    13
100
AcDbVertex
100
AcDb2dVertex
 10
273.9377386828637
 20
658.1241680878056
 30
0.0
  0
VERTEX
  5
5A3A
330
5A38
100
AcDbEntity
  8
F_01 sichtbar
370
    13
100
AcDbVertex
100
AcDb2dVertex
 10
440.8813912467012
 20
658.1241680878056
 30
0.0
  0
SEQEND
  5
5A3B
330
5A38
100
AcDbEntity
  8
F_01 sichtbar
370
    13
  0
POLYLINE
  5
5A3C
330
67
100
AcDbEntity
  8
F_01 sichtbar
370
    13
100
AcDb2dPolyline
 66
     1
 10
0.0
 20
0.0
 30
0.0
  0
VERTEX
  5
5A3D
330
5A3C
100
AcDbEntity
  8
F_01 sichtbar
370
    13
100
AcDbVertex
100
AcDb2dVertex
 10
273.9377386828637
 20
660.1241680878056
 30
0.0
  0
VERTEX
  5
5A3E
330
5A3C
100
AcDbEntity
  8
F_01 sichtbar
370
    13
100
AcDbVertex
100
AcDb2dVertex
 10
387.3813912467012
 20
660.1241680878056
 30
0.0
  0
SEQEND
  5
5A3F
330
5A3C
100
AcDbEntity
  8
F_01 sichtbar
370
    13
  0
POLYLINE
  5
5A40
330
67
100
AcDbEntity
  8
F_01 sichtbar
370
    13
100
AcDb2dPolyline
 66
     1
 10
0.0
 20
0.0
 30
0.0
  0
VERTEX
  5
5A41
330
5A40
100
AcDbEntity
  8
F_01 sichtbar
370
    13
100
AcDbVertex
100
AcDb2dVertex
 10
435.8813912467012
 20
533.1241680878056
 30
0.0
  0
VERTEX
  5
5A42
330
5A40
100
AcDbEntity
  8
F_01 sichtbar
370
    13
100
AcDbVertex
100
AcDb2dVertex
 10
435.8813912467012
 20
316.1241680878057
 30
0.0
  0
SEQEND
  5
5A43
330
5A40
100
AcDbEntity
  8
F_01 sichtbar
370
    13
  0
HATCH
  5
5A44
330
67
100
AcDbEntity
  8
F_0 sichtbar
370
    13
100
AcDbHatch
 10
0.0
 20
0.0
 30
0.0
210
0.0
220
0.0
230
1.0
  2
SOLID
 70
     1
 71
     0
 91
        1
 92
        1
 93
        4
 72
     1
 10
443.3813912467012
 20
800.8787666766902
 11
440.8813912467012
 21
800.1380006172794
 72
     1
 10
440.8813912467012
 20
800.1380006172794
 11
440.8813912467012
 21
764.8524095460024
 72
     1
 10
440.8813912467012
 20
764.8524095460024
 11
443.3813912467012
 21
764.8524095460024
 72
     1
 10
443.3813912467012
 20
764.8524095460024
 11
443.3813912467012
 21
800.8787666766902
 97
        0
 75
     0
 76
     1
 98
        1
 10
442.1341263923241
 20
807.5234788113165
450
        0
451
        0
460
0.0
461
0.0
452
        1
462
1.0
453
        2
463
0.0
 63
     5
421
      255
463
1.0
 63
     7
421
 16777215
470
LINEAR
1001
ACAD
1010
0.0
1020
0.0
1030
0.0
  0
HATCH
  5
5A45
330
67
100
AcDbEntity
  8
F_0 sichtbar
370
    13
100
AcDbHatch
 10
0.0
 20
0.0
 30
0.0
210
0.0
220
0.0
230
1.0
  2
SOLID
 70
     1
 71
     0
 91
        1
 92
        7
 72
     0
 73
     1
 93
        4
 10
421.3209319265443
 20
536.6241680878056
 10
371.3209319265443
 20
536.6241680878056
 10
371.3209319265443
 20
534.1241680878056
 10
421.3209319265443
 20
534.1241680878056
 97
        0
 75
     0
 76
     1
 47
0.0847078829277023
 98
        1
 10
399.1507836102682
 20
535.3237593850544
450
        0
451
        0
460
0.0
461
0.0
452
        1
462
1.0
453
        2
463
0.0
 63
     5
421
      255
463
1.0
 63
     7
421
 16777215
470
LINEAR
1001
ACAD
1010
0.0
1020
0.0
1030
0.0
  0
HATCH
  5
5A46
330
67
100
AcDbEntity
  8
F_0 sichtbar
370
    13
100
AcDbHatch
 10
0.0
 20
0.0
 30
0.0
210
0.0
220
0.0
230
1.0
  2
SOLID
 70
     1
 71
     0
 91
        3
 92
        7
 72
     0
 73
     1
 93
        4
 10
443.3813912467012
 20
605.8524095458023
 10
440.8813912467012
 20
605.8524095458023
 10
440.8813912467012
 20
555.8524095458023
 10
443.3813912467012
 20
555.8524095458023
 97
        0
 92
        7
 72
     0
 73
     1
 93
        4
 10
443.3813912467012
 20
705.8524095458023
 10
440.8813912467012
 20
705.8524095458023
 10
440.8813912467012
 20
655.8524095458023
 10
443.3813912467012
 20
655.8524095458023
 97
        0
 92
        1
 93
        4
 72
     1
 10
273.9377386828601
 20
536.6241680878056
 11
273.9377386828601
 21
534.1241680878056
 72
     1
 10
273.9377386828601
 20
534.1241680878056
 11
321.3209319265443
 21
534.1241680878056
 72
     1
 10
321.3209319265443
 20
534.1241680878056
 11
321.3209319265443
 21
536.6241680878056
 72
     1
 10
321.3209319265443
 20
536.6241680878056
 11
273.9377386828601
 21
536.6241680878056
 97
        0
 75
     0
 76
     1
 47
0.0973900822863746
 98
        6
 10
110.6248327032845
 20
534.9905537925851
 10
301.472094634184
 20
535.5644227918137
 10
210.6861985802388
 20
534.806379753737
 10
442.2681379469577
 20
565.5893547266796
 10
442.4449220141395
 20
661.7491058790374
 10
442.2761230477626
 20
762.4802543394225
450
        0
451
        0
460
0.0
461
0.0
452
        1
462
1.0
453
        2
463
0.0
 63
     5
421
      255
463
1.0
 63
     7
421
 16777215
470
LINEAR
1001
ACAD
1010
0.0
1020
0.0
1030
0.0
  0
POLYLINE
  5
5A47
330
67
100
AcDbEntity
  8
F_01 sichtbar
370
    13
100
AcDb2dPolyline
 66
     1
 10
0.0
 20
0.0
 30
0.0
  0
VERTEX
  5
5A48
330
5A47
100
AcDbEntity
  8
F_01 sichtbar
370
    13
100
AcDbVertex
100
AcDb2dVertex
 10
393.3813912467158
 20
786.0634454884903
 30
0.0
  0
VERTEX
  5
5A49
330
5A47
100
AcDbEntity
  8
F_01 sichtbar
370
    13
100
AcDbVertex
100
AcDb2dVertex
 10
393.3813912467158
 20
658.1241680878056
 30
0.0
  0
SEQEND
  5
5A4A
330
5A47
100
AcDbEntity
  8
F_01 sichtbar
370
    13
  0
POLYLINE
  5
5A4B
330
67
100
AcDbEntity
  8
F_01 sichtbar
370
    13
100
AcDb2dPolyline
 66
     1
 10
0.0
 20
0.0
 30
0.0
  0
VERTEX
  5
5A4C
330
5A4B
100
AcDbEntity
  8
F_01 sichtbar
370
    13
100
AcDbVertex
100
AcDb2dVertex
 10
344.2709310192877
 20
660.1241680878056
 30
0.0
  0
VERTEX
  5
5A4D
330
5A4B
100
AcDbEntity
  8
F_01 sichtbar
370
    13
100
AcDbVertex
100
AcDb2dVertex
 10
376.2709310192877
 20
660.1241680878056
 30
0.0
  0
SEQEND
  5
5A4E
330
5A4B
100
AcDbEntity
  8
F_01 sichtbar
370
    13
  0
POLYLINE
  5
5A4F
330
67
100
AcDbEntity
  8
F_01 sichtbar
370
    13
100
AcDb2dPolyline
 66
     1
 10
0.0
 20
0.0
 30
0.0
  0
VERTEX
  5
5A50
330
5A4F
100
AcDbEntity
  8
F_01 sichtbar
370
    13
100
AcDbVertex
100
AcDb2dVertex
 10
387.3813912467012
 20
660.1241680878056
 30
0.0
  0
VERTEX
  5
5A51
330
5A4F
100
AcDbEntity
  8
F_01 sichtbar
370
    13
100
AcDbVertex
100
AcDb2dVertex
 10
387.3813912467158
 20
658.1241680878056
 30
0.0
  0
SEQEND
  5
5A52
330
5A4F
100
AcDbEntity
  8
F_01 sichtbar
370
    13
  0
LINE
  5
5A53
330
67
100
AcDbEntity
  8
F_01 sichtbar
370
    13
100
AcDbLine
 10
273.9377386828637
 20
680.1241680878056
 30
0.0
 11
366.3813912467158
 21
680.1241680878056
 31
0.0
  0
LINE
  5
5A54
330
67
100
AcDbEntity
  8
F_01 sichtbar
370
    13
100
AcDbLine
 10
273.9377386828637
 20
725.1241680878065
 30
0.0
 11
366.3813912467158
 21
725.1241680878056
 31
0.0
  0
LINE
  5
5A55
330
67
100
AcDbEntity
  8
F_01 sichtbar
370
    13
100
AcDbLine
 10
366.3813912467158
 20
680.1241680878056
 30
0.0
 11
366.3813912467012
 21
725.124168087791
 31
0.0
  0
INSERT
  5
5A56
330
67
100
AcDbEntity
  8
F_30 Bemassung T
370
    13
100
AcDbBlockReference
  2
A$C512D72A2
 10
319.5412003068632
 20
635.5379735631186
 30
0.0
  0
POLYLINE
  5
5A57
330
67
100
AcDbEntity
  8
F_01 sichtbar
370
    13
100
AcDb2dPolyline
 66
     1
 10
0.0
 20
0.0
 30
0.0
  0
VERTEX
  5
5A58
330
5A57
100
AcDbEntity
  8
F_01 sichtbar
370
    13
100
AcDbVertex
100
AcDb2dVertex
 10
386.381391246643
 20
783.9893005221211
 30
0.0
  0
VERTEX
  5
5A59
330
5A57
100
AcDbEntity
  8
F_01 sichtbar
370
    13
100
AcDbVertex
100
AcDb2dVertex
 10
386.3813912465848
 20
670.7040993552263
 30
0.0
  0
SEQEND
  5
5A5A
330
5A57
100
AcDbEntity
  8
F_01 sichtbar
370
    13
  0
POLYLINE
  5
5A5B
330
67
100
AcDbEntity
  8
F_01 sichtbar
370
    13
100
AcDb2dPolyline
 66
     1
 10
0.0
 20
0.0
 30
0.0
  0
VERTEX
  5
5A5C
330
5A5B
100
AcDbEntity
  8
F_01 sichtbar
370
    13
100
AcDbVertex
100
AcDb2dVertex
 10
386.3813912467158
 20
670.7041220943401
 30
0.0
 42
-0.4142135623730951
  0
VERTEX
  5
5A5D
330
5A5B
100
AcDbEntity
  8
F_01 sichtbar
370
    13
100
AcDbVertex
100
AcDb2dVertex
 10
384.3813912467158
 20
668.7041220943402
 30
0.0
  0
VERTEX
  5
5A5E
330
5A5B
100
AcDbEntity
  8
F_01 sichtbar
370
    13
100
AcDbVertex
100
AcDb2dVertex
 10
363.5948494872282
 20
668.7041220943402
 30
0.0
 42
0.1539147210588876
  0
VERTEX
  5
5A5F
330
5A5B
100
AcDbEntity
  8
F_01 sichtbar
370
    13
100
AcDbVertex
100
AcDb2dVertex
 10
356.7119322510553
 20
666.5339466258346
 30
0.0
  0
VERTEX
  5
5A60
330
5A5B
100
AcDbEntity
  8
F_01 sichtbar
370
    13
100
AcDbVertex
100
AcDb2dVertex
 10
353.71096629987
 20
664.4326476449105
 30
0.0
 42
-0.1539147210588876
  0
VERTEX
  5
5A61
330
5A5B
100
AcDbEntity
  8
F_01 sichtbar
370
    13
100
AcDbVertex
100
AcDb2dVertex
 10
347.9752019363659
 20
662.6241680878056
 30
0.0
  0
VERTEX
  5
5A62
330
5A5B
100
AcDbEntity
  8
F_01 sichtbar
370
    13
100
AcDbVertex
100
AcDb2dVertex
 10
305.1870981434622
 20
662.6241680878056
 30
0.0
  0
VERTEX
  5
5A63
330
5A5B
100
AcDbEntity
  8
F_01 sichtbar
370
    13
100
AcDbVertex
100
AcDb2dVertex
 10
305.1870981434622
 20
660.6241680878056
 30
0.0
  0
VERTEX
  5
5A64
330
5A5B
100
AcDbEntity
  8
F_01 sichtbar
370
    13
100
AcDbVertex
100
AcDb2dVertex
 10
347.9752019363659
 20
660.6241680878056
 30
0.0
 42
0.1539147210588876
  0
VERTEX
  5
5A65
330
5A5B
100
AcDbEntity
  8
F_01 sichtbar
370
    13
100
AcDbVertex
100
AcDb2dVertex
 10
354.8581191725825
 20
662.7943435563402
 30
0.0
  0
VERTEX
  5
5A66
330
5A5B
100
AcDbEntity
  8
F_01 sichtbar
370
    13
100
AcDbVertex
100
AcDb2dVertex
 10
357.8590851237532
 20
664.8956425372498
 30
0.0
 42
-0.1539147210588876
  0
VERTEX
  5
5A67
330
5A5B
100
AcDbEntity
  8
F_01 sichtbar
370
    13
100
AcDbVertex
100
AcDb2dVertex
 10
363.5948494872282
 20
666.7041220943401
 30
0.0
  0
VERTEX
  5
5A68
330
5A5B
100
AcDbEntity
  8
F_01 sichtbar
370
    13
100
AcDbVertex
100
AcDb2dVertex
 10
384.3813912467158
 20
666.7041220943401
 30
0.0
 42
0.4142135623730951
  0
VERTEX
  5
5A69
330
5A5B
100
AcDbEntity
  8
F_01 sichtbar
370
    13
100
AcDbVertex
100
AcDb2dVertex
 10
388.3813912467158
 20
670.7041220943401
 30
0.0
  0
VERTEX
  5
5A6A
330
5A5B
100
AcDbEntity
  8
F_01 sichtbar
370
    13
100
AcDbVertex
100
AcDb2dVertex
 10
388.3813912467085
 20
784.5819133696687
 30
0.0
  0
SEQEND
  5
5A6B
330
5A5B
100
AcDbEntity
  8
F_01 sichtbar
370
    13
  0
POLYLINE
  5
5A6C
330
67
100
AcDbEntity
  8
F_0 sichtbar
370
    13
100
AcDb2dPolyline
 66
     1
 10
0.0
 20
0.0
 30
0.0
  0
VERTEX
  5
5A6D
330
5A6C
100
AcDbEntity
  8
F_0 sichtbar
370
    13
100
AcDbVertex
100
AcDb2dVertex
 10
321.3209319265443
 20
536.6241680878056
 30
0.0
  0
VERTEX
  5
5A6E
330
5A6C
100
AcDbEntity
  8
F_0 sichtbar
370
    13
100
AcDbVertex
100
AcDb2dVertex
 10
321.3209319265443
 20
534.1241680878056
 30
0.0
  0
SEQEND
  5
5A6F
330
5A6C
100
AcDbEntity
  8
F_0 sichtbar
370
    13
  0
POLYLINE
  5
5A70
330
67
100
AcDbEntity
  8
F_0 sichtbar
370
    13
100
AcDb2dPolyline
 66
     1
 10
0.0
 20
0.0
 30
0.0
  0
VERTEX
  5
5A71
330
5A70
100
AcDbEntity
  8
F_0 sichtbar
370
    13
100
AcDbVertex
100
AcDb2dVertex
 10
371.3209319265443
 20
536.6241680878056
 30
0.0
  0
VERTEX
  5
5A72
330
5A70
100
AcDbEntity
  8
F_0 sichtbar
370
    13
100
AcDbVertex
100
AcDb2dVertex
 10
371.3209319265443
 20
534.1241680878056
 30
0.0
  0
SEQEND
  5
5A73
330
5A70
100
AcDbEntity
  8
F_0 sichtbar
370
    13
  0
POLYLINE
  5
5A74
330
67
100
AcDbEntity
  8
F_0 sichtbar
370
    13
100
AcDb2dPolyline
 66
     1
 10
0.0
 20
0.0
 30
0.0
  0
VERTEX
  5
5A75
330
5A74
100
AcDbEntity
  8
F_0 sichtbar
370
    13
100
AcDbVertex
100
AcDb2dVertex
 10
421.3209319265443
 20
536.6241680878056
 30
0.0
  0
VERTEX
  5
5A76
330
5A74
100
AcDbEntity
  8
F_0 sichtbar
370
    13
100
AcDbVertex
100
AcDb2dVertex
 10
421.3209319265443
 20
534.1241680878056
 30
0.0
  0
SEQEND
  5
5A77
330
5A74
100
AcDbEntity
  8
F_0 sichtbar
370
    13
  0
POLYLINE
  5
5A78
330
67
100
AcDbEntity
  8
F_0 sichtbar
370
    13
100
AcDb2dPolyline
 66
     1
 10
0.0
 20
0.0
 30
0.0
  0
VERTEX
  5
5A79
330
5A78
100
AcDbEntity
  8
F_0 sichtbar
370
    13
100
AcDbVertex
100
AcDb2dVertex
 10
443.3813912467012
 20
555.8524095458023
 30
0.0
  0
VERTEX
  5
5A7A
330
5A78
100
AcDbEntity
  8
F_0 sichtbar
370
    13
100
AcDbVertex
100
AcDb2dVertex
 10
440.8813912467012
 20
555.8524095458023
 30
0.0
  0
SEQEND
  5
5A7B
330
5A78
100
AcDbEntity
  8
F_0 sichtbar
370
    13
  0
POLYLINE
  5
5A7C
330
67
100
AcDbEntity
  8
F_0 sichtbar
370
    13
100
AcDb2dPolyline
 66
     1
 10
0.0
 20
0.0
 30
0.0
  0
VERTEX
  5
5A7D
330
5A7C
100
AcDbEntity
  8
F_0 sichtbar
370
    13
100
AcDbVertex
100
AcDb2dVertex
 10
443.3813912467012
 20
605.8524095458023
 30
0.0
  0
VERTEX
  5
5A7E
330
5A7C
100
AcDbEntity
  8
F_0 sichtbar
370
    13
100
AcDbVertex
100
AcDb2dVertex
 10
440.8813912467012
 20
605.8524095458023
 30
0.0
  0
SEQEND
  5
5A7F
330
5A7C
100
AcDbEntity
  8
F_0 sichtbar
370
    13
  0
POLYLINE
  5
5A80
330
67
100
AcDbEntity
  8
F_0 sichtbar
370
    13
100
AcDb2dPolyline
 66
     1
 10
0.0
 20
0.0
 30
0.0
  0
VERTEX
  5
5A81
330
5A80
100
AcDbEntity
  8
F_0 sichtbar
370
    13
100
AcDbVertex
100
AcDb2dVertex
 10
443.3813912467012
 20
655.8524095458023
 30
0.0
  0
VERTEX
  5
5A82
330
5A80
100
AcDbEntity
  8
F_0 sichtbar
370
    13
100
AcDbVertex
100
AcDb2dVertex
 10
440.8813912467012
 20
655.8524095458023
 30
0.0
  0
SEQEND
  5
5A83
330
5A80
100
AcDbEntity
  8
F_0 sichtbar
370
    13
  0
POLYLINE
  5
5A84
330
67
100
AcDbEntity
  8
F_0 sichtbar
370
    13
100
AcDb2dPolyline
 66
     1
 10
0.0
 20
0.0
 30
0.0
  0
VERTEX
  5
5A85
330
5A84
100
AcDbEntity
  8
F_0 sichtbar
370
    13
100
AcDbVertex
100
AcDb2dVertex
 10
443.3813912467012
 20
705.8524095458023
 30
0.0
  0
VERTEX
  5
5A86
330
5A84
100
AcDbEntity
  8
F_0 sichtbar
370
    13
100
AcDbVertex
100
AcDb2dVertex
 10
440.8813912467012
 20
705.8524095458023
 30
0.0
  0
SEQEND
  5
5A87
330
5A84
100
AcDbEntity
  8
F_0 sichtbar
370
    13
  0
POLYLINE
  5
5A88
330
67
100
AcDbEntity
  8
F_0 sichtbar
370
    13
100
AcDb2dPolyline
 66
     1
 10
0.0
 20
0.0
 30
0.0
  0
VERTEX
  5
5A89
330
5A88
100
AcDbEntity
  8
F_0 sichtbar
370
    13
100
AcDbVertex
100
AcDb2dVertex
 10
443.3813912467012
 20
755.8524095458023
 30
0.0
  0
VERTEX
  5
5A8A
330
5A88
100
AcDbEntity
  8
F_0 sichtbar
370
    13
100
AcDbVertex
100
AcDb2dVertex
 10
440.8813912467012
 20
755.8524095458023
 30
0.0
  0
SEQEND
  5
5A8B
330
5A88
100
AcDbEntity
  8
F_0 sichtbar
370
    13
  0
POLYLINE
  5
5A8C
330
67
100
AcDbEntity
  8
F_06 Wangen
370
    13
100
AcDb2dPolyline
 66
     1
 10
0.0
 20
0.0
 30
0.0
  0
VERTEX
  5
5A8D
330
5A8C
100
AcDbEntity
  8
F_06 Wangen
370
    13
100
AcDbVertex
100
AcDb2dVertex
 10
372.3816532747514
 20
779.8410882300359
 30
0.0
  0
VERTEX
  5
5A8E
330
5A8C
100
AcDbEntity
  8
F_06 Wangen
370
    13
100
AcDbVertex
100
AcDb2dVertex
 10
372.3816532747587
 20
693.1241680878056
 30
0.0
  0
VERTEX
  5
5A8F
330
5A8C
100
AcDbEntity
  8
F_06 Wangen
370
    13
100
AcDbVertex
100
AcDb2dVertex
 10
373.3816532747587
 20
693.1241680878056
 30
0.0
  0
VERTEX
  5
5A90
330
5A8C
100
AcDbEntity
  8
F_06 Wangen
370
    13
100
AcDbVertex
100
AcDb2dVertex
 10
373.3816532747587
 20
780.1373946538023
 30
0.0
  0
SEQEND
  5
5A91
330
5A8C
100
AcDbEntity
  8
F_06 Wangen
370
    13
  0
POLYLINE
  5
5A92
330
67
100
AcDbEntity
  8
F_01 sichtbar
370
    13
100
AcDb2dPolyline
 66
     1
 10
0.0
 20
0.0
 30
0.0
  0
VERTEX
  5
5A93
330
5A92
100
AcDbEntity
  8
F_01 sichtbar
370
    13
100
AcDbVertex
100
AcDb2dVertex
 10
443.3813912467012
 20
800.8787666766885
 30
0.0
  0
VERTEX
  5
5A94
330
5A92
100
AcDbEntity
  8
F_01 sichtbar
370
    13
100
AcDbVertex
100
AcDb2dVertex
 10
443.3813912467012
 20
542.1241680878056
 30
0.0
 42
-0.487470807496992
  0
VERTEX
  5
5A95
330
5A92
100
AcDbEntity
  8
F_01 sichtbar
370
    13
100
AcDbVertex
100
AcDb2dVertex
 10
435.3813912467012
 20
534.1241680878056
 30
0.0
  0
VERTEX
  5
5A96
330
5A92
100
AcDbEntity
  8
F_01 sichtbar
370
    13
100
AcDbVertex
100
AcDb2dVertex
 10
273.9377386828637
 20
534.1241680878056
 30
0.0
  0
SEQEND
  5
5A97
330
5A92
100
AcDbEntity
  8
F_01 sichtbar
370
    13
  0
POLYLINE
  5
5A98
330
67
100
AcDbEntity
  8
F_01 sichtbar
370
    13
100
AcDb2dPolyline
 66
     1
 10
0.0
 20
0.0
 30
0.0
  0
VERTEX
  5
5A99
330
5A98
100
AcDbEntity
  8
F_01 sichtbar
370
    13
100
AcDbVertex
100
AcDb2dVertex
 10
273.9377386828637
 20
536.6241680878056
 30
0.0
  0
VERTEX
  5
5A9A
330
5A98
100
AcDbEntity
  8
F_01 sichtbar
370
    13
100
AcDbVertex
100
AcDb2dVertex
 10
436.8813912467012
 20
536.6241680878056
 30
0.0
 42
0.4142135623730951
  0
VERTEX
  5
5A9B
330
5A98
100
AcDbEntity
  8
F_01 sichtbar
370
    13
100
AcDbVertex
100
AcDb2dVertex
 10
440.8813912467012
 20
540.6241680878056
 30
0.0
  0
VERTEX
  5
5A9C
330
5A98
100
AcDbEntity
  8
F_01 sichtbar
370
    13
100
AcDbVertex
100
AcDb2dVertex
 10
440.8813912467012
 20
800.1380006172785
 30
0.0
  0
SEQEND
  5
5A9D
330
5A98
100
AcDbEntity
  8
F_01 sichtbar
370
    13
  0
HATCH
  5
5A9E
330
67
100
AcDbEntity
  8
F_01 sichtbar
370
    13
100
AcDbHatch
 10
0.0
 20
0.0
 30
0.0
210
0.0
220
0.0
230
1.0
  2
BATT_INSULATION
 70
     0
 71
     0
 91
        1
 92
        1
 93
        4
 72
     1
 10
273.9377386828637
 20
658.1241680878056
 11
273.9377386828637
 21
538.1241680878047
 72
     1
 10
273.9377386828637
 20
538.1241680878047
 11
440.0038902458982
 21
538.1241680878056
 72
     1
 10
440.0038902458982
 20
538.1241680878056
 11
440.8813912467012
 21
658.1241680878056
 72
     1
 10
440.8813912467012
 20
658.1241680878056
 11
273.9377386828637
 21
658.1241680878056
 97
        0
 75
     0
 76
     2
 52
180.0
 41
118.9901048226843
 77
     0
 78
   528
 53
0.000000000000007
 43
42967.39679016408
 44
5224.199638534781
 45
39.75590291241188
 46
-133.8638679255199
 79
     2
 49
0.0
 49
-39.75590291241187
 53
345.9236
 43
42947.51877921281
 44
5209.32587543194
 45
39.75585659359874
 46
0.000014687406605
 79
     2
 49
9.670087838729861
 49
-3843.073153322027
 53
345.9236
 43
42947.51877921281
 44
5075.462007506406
 45
39.75585659359874
 46
0.000014687406605
 79
     2
 49
9.670087838729861
 49
-3843.073153322027
 53
345.9236
 43
42947.51877921281
 44
4941.5981395809
 45
39.75585659359874
 46
0.000014687406605
 79
     2
 49
9.670087838729861
 49
-3843.073153322027
 53
345.9236
 43
42947.51877921281
 44
4807.734271655366
 45
39.75585659359874
 46
0.000014687406605
 79
     2
 49
9.670087838729861
 49
-3843.073153322027
 53
345.9236
 43
42947.51877921281
 44
4673.870403729856
 45
39.75585659359874
 46
0.000014687406605
 79
     2
 49
9.670087838729861
 49
-3843.073153322027
 53
345.9236
 43
42947.51877921281
 44
4540.006535804351
 45
39.75585659359874
 46
0.000014687406605
 79
     2
 49
9.670087838729861
 49
-3843.073153322027
 53
345.9236
 43
42947.51877921281
 44
4406.142667878817
 45
39.75585659359874
 46
0.000014687406605
 79
     2
 49
9.670087838729861
 49
-3843.073153322027
 53
334.9544
 43
42952.14951712218
 44
5097.459708184998
 45
39.75589259645271
 46
-0.0000425502174256
 79
     2
 49
16.82972244591056
 49
-10734.28048182553
 53
334.9544
 43
42952.14951712218
 44
4963.595840259463
 45
39.75589259645271
 46
-0.0000425502174256
 79
     2
 49
16.82972244591056
 49
-10734.28048182553
 53
334.9544
 43
42952.14951712218
 44
4829.731972333954
 45
39.75589259645271
 46
-0.0000425502174256
 79
     2
 49
16.82972244591056
 49
-10734.28048182553
 53
334.9544
 43
42952.14951712218
 44
4695.868104408419
 45
39.75589259645271
 46
-0.0000425502174256
 79
     2
 49
16.82972244591056
 49
-10734.28048182553
 53
334.9544
 43
42952.14951712218
 44
4562.004236482914
 45
39.75589259645271
 46
-0.0000425502174256
 79
     2
 49
16.82972244591056
 49
-10734.28048182553
 53
334.9544
 43
42952.14951712218
 44
4428.14036855738
 45
39.75589259645271
 46
-0.0000425502174256
 79
     2
 49
16.82972244591056
 49
-10734.28048182553
 53
334.9544
 43
42952.14951712218
 44
4294.276500631874
 45
39.75589259645271
 46
-0.0000425502174256
 79
     2
 49
16.82972244591056
 49
-10734.28048182553
 53
334.9544
 43
42952.14951712218
 44
4160.412632706339
 45
39.75589259645271
 46
-0.0000425502174256
 79
     2
 49
16.82972244591056
 49
-10734.28048182553
 53
334.9544
 43
42952.14951712218
 44
4026.552334483983
 45
39.75589259645271
 46
-0.0000425502174256
 79
     2
 49
16.82972244591056
 49
-10734.28048182553
 53
334.9544
 43
42952.14951712218
 44
3892.688466558449
 45
39.75589259645271
 46
-0.0000425502174256
 79
     2
 49
16.82972244591056
 49
-10734.28048182553
 53
334.9544
 43
42952.14951712218
 44
3758.824598632918
 45
39.75589259645271
 46
-0.0000425502174256
 79
     2
 49
16.82972244591056
 49
-10734.28048182553
 53
334.9544
 43
42952.14951712218
 44
3624.960730707409
 45
39.75589259645271
 46
-0.0000425502174256
 79
     2
 49
16.82972244591056
 49
-10734.28048182553
 53
334.9544
 43
42952.14951712218
 44
3491.0968627819
 45
39.75589259645271
 46
-0.0000425502174256
 79
     2
 49
16.82972244591056
 49
-10734.28048182553
 53
334.9544
 43
42952.14951712218
 44
3357.232994856394
 45
39.75589259645271
 46
-0.0000425502174256
 79
     2
 49
16.82972244591056
 49
-10734.28048182553
 53
334.9544
 43
42952.14951712218
 44
3223.369126930859
 45
39.75589259645271
 46
-0.0000425502174256
 79
     2
 49
16.82972244591056
 49
-10734.28048182553
 53
334.9544
 43
42952.14951712218
 44
3089.505259005325
 45
39.75589259645271
 46
-0.0000425502174256
 79
     2
 49
16.82972244591056
 49
-10734.28048182553
 53
334.9544
 43
42952.14951712218
 44
2955.641391079819
 45
39.75589259645271
 46
-0.0000425502174256
 79
     2
 49
16.82972244591056
 49
-10734.28048182553
 53
334.9544
 43
42952.14951712218
 44
2821.777523154313
 45
39.75589259645271
 46
-0.0000425502174256
 79
     2
 49
16.82972244591056
 49
-10734.28048182553
 53
334.9544
 43
42952.14951712218
 44
2687.91365522878
 45
39.75589259645271
 46
-0.0000425502174256
 79
     2
 49
16.82972244591056
 49
-10734.28048182553
 53
334.9544
 43
42952.14951712218
 44
2554.049787303245
 45
39.75589259645271
 46
-0.0000425502174256
 79
     2
 49
16.82972244591056
 49
-10734.28048182553
 53
334.9544
 43
42952.14951712218
 44
2420.185919377736
 45
39.75589259645271
 46
-0.0000425502174256
 79
     2
 49
16.82972244591056
 49
-10734.28048182553
 53
334.9544
 43
42952.14951712218
 44
2286.32205145223
 45
39.75589259645271
 46
-0.0000425502174256
 79
     2
 49
16.82972244591056
 49
-10734.28048182553
 53
334.9544
 43
42952.14951712218
 44
2152.458183526695
 45
39.75589259645271
 46
-0.0000425502174256
 79
     2
 49
16.82972244591056
 49
-10734.28048182553
 53
334.9544
 43
42952.14951712218
 44
2018.594315601161
 45
39.75589259645271
 46
-0.0000425502174256
 79
     2
 49
16.82972244591056
 49
-10734.28048182553
 53
334.9544
 43
42952.14951712218
 44
1884.730447675655
 45
39.75589259645271
 46
-0.0000425502174256
 79
     2
 49
16.82972244591056
 49
-10734.28048182553
 53
334.9544
 43
42952.14951712218
 44
1750.866579750146
 45
39.75589259645271
 46
-0.0000425502174256
 79
     2
 49
16.82972244591056
 49
-10734.28048182553
 53
334.9544
 43
42952.14951712218
 44
1617.002711824612
 45
39.75589259645271
 46
-0.0000425502174256
 79
     2
 49
16.82972244591056
 49
-10734.28048182553
 53
334.9544
 43
42952.14951712218
 44
1483.138843899106
 45
39.75589259645271
 46
-0.0000425502174256
 79
     2
 49
16.82972244591056
 49
-10734.28048182553
 53
334.9544
 43
42952.14951712218
 44
1349.274975973571
 45
39.75589259645271
 46
-0.0000425502174256
 79
     2
 49
16.82972244591056
 49
-10734.28048182553
 53
334.9544
 43
42952.14951712218
 44
1215.411108048037
 45
39.75589259645271
 46
-0.0000425502174256
 79
     2
 49
16.82972244591056
 49
-10734.28048182553
 53
334.9544
 43
42952.14951712218
 44
1081.547240122531
 45
39.75589259645271
 46
-0.0000425502174256
 79
     2
 49
16.82972244591056
 49
-10734.28048182553
 53
334.9544
 43
42952.14951712218
 44
947.6833721970224
 45
39.75589259645271
 46
-0.0000425502174256
 79
     2
 49
16.82972244591056
 49
-10734.28048182553
 53
334.9544
 43
42952.14951712218
 44
813.8195042714878
 45
39.75589259645271
 46
-0.0000425502174256
 79
     2
 49
16.82972244591056
 49
-10734.28048182553
 53
334.9544
 43
42952.14951712218
 44
679.9556363459823
 45
39.75589259645271
 46
-0.0000425502174256
 79
     2
 49
16.82972244591056
 49
-10734.28048182553
 53
307.5647
 43
42956.89853119573
 44
5206.97367903981
 45
39.75587516415277
 46
-0.0000089774092899
 79
     2
 49
16.34697959064513
 49
-6569.897158549863
 53
307.5647
 43
42956.89853119573
 44
5073.109573134058
 45
39.75587516415277
 46
-0.0000089774092899
 79
     2
 49
16.34697959064513
 49
-6569.897158549863
 53
307.5647
 43
42956.89853119573
 44
4939.245705208548
 45
39.75587516415277
 46
-0.0000089774092899
 79
     2
 49
16.34697959064513
 49
-6569.897158549863
 53
307.5647
 43
42956.89853119573
 44
4805.381837283044
 45
39.75587516415277
 46
-0.0000089774092899
 79
     2
 49
16.34697959064513
 49
-6569.897158549863
 53
307.5647
 43
42956.89853119573
 44
4671.517969357509
 45
39.75587516415277
 46
-0.0000089774092899
 79
     2
 49
16.34697959064513
 49
-6569.897158549863
 53
307.5647
 43
42956.89853119573
 44
4537.654101431978
 45
39.75587516415277
 46
-0.0000089774092899
 79
     2
 49
16.34697959064513
 49
-6569.897158549863
 53
307.5647
 43
42956.89853119573
 44
4403.790233506469
 45
39.75587516415277
 46
-0.0000089774092899
 79
     2
 49
16.34697959064513
 49
-6569.897158549863
 53
307.5647
 43
42956.89853119573
 44
4269.92636558096
 45
39.75587516415277
 46
-0.0000089774092899
 79
     2
 49
16.34697959064513
 49
-6569.897158549863
 53
307.5647
 43
42956.89853119573
 44
4136.062497655426
 45
39.75587516415277
 46
-0.0000089774092899
 79
     2
 49
16.34697959064513
 49
-6569.897158549863
 53
307.5647
 43
42956.89853119573
 44
4002.195060026767
 45
39.75587516415277
 46
-0.0000089774092899
 79
     2
 49
16.34697959064513
 49
-6569.897158549863
 53
307.5647
 43
42956.89853119573
 44
3868.331192101258
 45
39.75587516415277
 46
-0.0000089774092899
 79
     2
 49
16.34697959064513
 49
-6569.897158549863
 53
307.5647
 43
42956.89853119573
 44
3734.467324175727
 45
39.75587516415277
 46
-0.0000089774092899
 79
     2
 49
16.34697959064513
 49
-6569.897158549863
 53
307.5647
 43
42956.89853119573
 44
3600.603456250193
 45
39.75587516415277
 46
-0.0000089774092899
 79
     2
 49
16.34697959064513
 49
-6569.897158549863
 53
307.5647
 43
42956.89853119573
 44
3466.739588324684
 45
39.75587516415277
 46
-0.0000089774092899
 79
     2
 49
16.34697959064513
 49
-6569.897158549863
 53
307.5647
 43
42956.89853119573
 44
3332.875720399179
 45
39.75587516415277
 46
-0.0000089774092899
 79
     2
 49
16.34697959064513
 49
-6569.897158549863
 53
307.5647
 43
42956.89853119573
 44
3199.011852473644
 45
39.75587516415277
 46
-0.0000089774092899
 79
     2
 49
16.34697959064513
 49
-6569.897158549863
 53
307.5647
 43
42956.89853119573
 44
3065.147984548135
 45
39.75587516415277
 46
-0.0000089774092899
 79
     2
 49
16.34697959064513
 49
-6569.897158549863
 53
307.5647
 43
42956.89853119573
 44
2931.284116622604
 45
39.75587516415277
 46
-0.0000089774092899
 79
     2
 49
16.34697959064513
 49
-6569.897158549863
 53
307.5647
 43
42956.89853119573
 44
2797.420248697095
 45
39.75587516415277
 46
-0.0000089774092899
 79
     2
 49
16.34697959064513
 49
-6569.897158549863
 53
307.5647
 43
42956.89853119573
 44
2663.556380771563
 45
39.75587516415277
 46
-0.0000089774092899
 79
     2
 49
16.34697959064513
 49
-6569.897158549863
 53
307.5647
 43
42956.89853119573
 44
2529.692512846054
 45
39.75587516415277
 46
-0.0000089774092899
 79
     2
 49
16.34697959064513
 49
-6569.897158549863
 53
307.5647
 43
42956.89853119573
 44
2395.82864492052
 45
39.75587516415277
 46
-0.0000089774092899
 79
     2
 49
16.34697959064513
 49
-6569.897158549863
 53
307.5647
 43
42956.89853119573
 44
2261.964776995011
 45
39.75587516415277
 46
-0.0000089774092899
 79
     2
 49
16.34697959064513
 49
-6569.897158549863
 53
307.5647
 43
42956.89853119573
 44
2128.10090906948
 45
39.75587516415277
 46
-0.0000089774092899
 79
     2
 49
16.34697959064513
 49
-6569.897158549863
 53
307.5647
 43
42956.89853119573
 44
1994.237041143971
 45
39.75587516415277
 46
-0.0000089774092899
 79
     2
 49
16.34697959064513
 49
-6569.897158549863
 53
307.5647
 43
42956.89853119573
 44
1860.373173218439
 45
39.75587516415277
 46
-0.0000089774092899
 79
     2
 49
16.34697959064513
 49
-6569.897158549863
 53
307.5647
 43
42956.89853119573
 44
1726.50930529293
 45
39.75587516415277
 46
-0.0000089774092899
 79
     2
 49
16.34697959064513
 49
-6569.897158549863
 53
307.5647
 43
42956.89853119573
 44
1592.645437367421
 45
39.75587516415277
 46
-0.0000089774092899
 79
     2
 49
16.34697959064513
 49
-6569.897158549863
 53
307.5647
 43
42956.89853119573
 44
1458.781569441887
 45
39.75587516415277
 46
-0.0000089774092899
 79
     2
 49
16.34697959064513
 49
-6569.897158549863
 53
307.5647
 43
42956.89853119573
 44
1324.917701516381
 45
39.75587516415277
 46
-0.0000089774092899
 79
     2
 49
16.34697959064513
 49
-6569.897158549863
 53
307.5647
 43
42956.89853119573
 44
1191.053833590847
 45
39.75587516415277
 46
-0.0000089774092899
 79
     2
 49
16.34697959064513
 49
-6569.897158549863
 53
307.5647
 43
42956.89853119573
 44
1057.189965665312
 45
39.75587516415277
 46
-0.0000089774092899
 79
     2
 49
16.34697959064513
 49
-6569.897158549863
 53
307.5647
 43
42956.89853119573
 44
923.3260977398067
 45
39.75587516415277
 46
-0.0000089774092899
 79
     2
 49
16.34697959064513
 49
-6569.897158549863
 53
307.5647
 43
42956.89853119573
 44
789.4622298143013
 45
39.75587516415277
 46
-0.0000089774092899
 79
     2
 49
16.34697959064513
 49
-6569.897158549863
 53
307.5647
 43
42956.89853119573
 44
655.5983618887666
 45
39.75587516415277
 46
-0.0000089774092899
 79
     2
 49
16.34697959064513
 49
-6569.897158549863
 53
307.5647
 43
42956.89853119573
 44
521.7344939632575
 45
39.75587516415277
 46
-0.0000089774092899
 79
     2
 49
16.34697959064513
 49
-6569.897158549863
 53
307.5647
 43
42956.89853119573
 44
387.870626037723
 45
39.75587516415277
 46
-0.0000089774092899
 79
     2
 49
16.34697959064513
 49
-6569.897158549863
 53
307.5647
 43
42956.89853119573
 44
254.0067581122175
 45
39.75587516415277
 46
-0.0000089774092899
 79
     2
 49
16.34697959064513
 49
-6569.897158549863
 53
307.5647
 43
42956.89853119573
 44
120.1428901867084
 45
39.75587516415277
 46
-0.0000089774092899
 79
     2
 49
16.34697959064513
 49
-6569.897158549863
 53
292.9384
 43
42931.30370015335
 44
5164.92436084704
 45
39.75591328479023
 46
-0.0000165670965689
 79
     2
 49
30.44290437825485
 49
-5783.884461102885
 53
292.9384
 43
42931.30370015335
 44
5031.060849891831
 45
39.75591328479023
 46
-0.0000165670965689
 79
     2
 49
30.44290437825485
 49
-5783.884461102885
 53
292.9384
 43
42931.30370015335
 44
4897.196981966296
 45
39.75591328479023
 46
-0.0000165670965689
 79
     2
 49
30.44290437825485
 49
-5783.884461102885
 53
292.9384
 43
42931.30370015335
 44
4763.333114040787
 45
39.75591328479023
 46
-0.0000165670965689
 79
     2
 49
30.44290437825485
 49
-5783.884461102885
 53
292.9384
 43
42931.30370015335
 44
4629.469246115282
 45
39.75591328479023
 46
-0.0000165670965689
 79
     2
 49
30.44290437825485
 49
-5783.884461102885
 53
292.9384
 43
42931.30370015335
 44
4495.605378189747
 45
39.75591328479023
 46
-0.0000165670965689
 79
     2
 49
30.44290437825485
 49
-5783.884461102885
 53
292.9384
 43
42931.30370015335
 44
4361.741510264241
 45
39.75591328479023
 46
-0.0000165670965689
 79
     2
 49
30.44290437825485
 49
-5783.884461102885
 53
292.9384
 43
42931.30370015335
 44
4227.877642338706
 45
39.75591328479023
 46
-0.0000165670965689
 79
     2
 49
30.44290437825485
 49
-5783.884461102885
 53
292.9384
 43
42931.30370015335
 44
4094.013774413197
 45
39.75591328479023
 46
-0.0000165670965689
 79
     2
 49
30.44290437825485
 49
-5783.884461102885
 53
292.9384
 43
42931.30370015335
 44
3960.143956982448
 45
39.75591328479023
 46
-0.0000165670965689
 79
     2
 49
30.44290437825485
 49
-5783.884461102885
 53
292.9384
 43
42931.30370015335
 44
3826.280089056913
 45
39.75591328479023
 46
-0.0000165670965689
 79
     2
 49
30.44290437825485
 49
-5783.884461102885
 53
292.9384
 43
42931.30370015335
 44
3692.416221131379
 45
39.75591328479023
 46
-0.0000165670965689
 79
     2
 49
30.44290437825485
 49
-5783.884461102885
 53
292.9384
 43
42931.30370015335
 44
3558.55235320587
 45
39.75591328479023
 46
-0.0000165670965689
 79
     2
 49
30.44290437825485
 49
-5783.884461102885
 53
292.9384
 43
42931.30370015335
 44
3424.688485280364
 45
39.75591328479023
 46
-0.0000165670965689
 79
     2
 49
30.44290437825485
 49
-5783.884461102885
 53
292.9384
 43
42931.30370015335
 44
3290.82461735483
 45
39.75591328479023
 46
-0.0000165670965689
 79
     2
 49
30.44290437825485
 49
-5783.884461102885
 53
292.9384
 43
42931.30370015335
 44
3156.960749429299
 45
39.75591328479023
 46
-0.0000165670965689
 79
     2
 49
30.44290437825485
 49
-5783.884461102885
 53
292.9384
 43
42931.30370015335
 44
3023.09688150379
 45
39.75591328479023
 46
-0.0000165670965689
 79
     2
 49
30.44290437825485
 49
-5783.884461102885
 53
292.9384
 43
42931.30370015335
 44
2889.233013578281
 45
39.75591328479023
 46
-0.0000165670965689
 79
     2
 49
30.44290437825485
 49
-5783.884461102885
 53
292.9384
 43
42931.30370015335
 44
2755.369145652775
 45
39.75591328479023
 46
-0.0000165670965689
 79
     2
 49
30.44290437825485
 49
-5783.884461102885
 53
292.9384
 43
42931.30370015335
 44
2621.505277727241
 45
39.75591328479023
 46
-0.0000165670965689
 79
     2
 49
30.44290437825485
 49
-5783.884461102885
 53
292.9384
 43
42931.30370015335
 44
2487.641409801706
 45
39.75591328479023
 46
-0.0000165670965689
 79
     2
 49
30.44290437825485
 49
-5783.884461102885
 53
292.9384
 43
42931.30370015335
 44
2353.7775418762
 45
39.75591328479023
 46
-0.0000165670965689
 79
     2
 49
30.44290437825485
 49
-5783.884461102885
 53
292.9384
 43
42931.30370015335
 44
2219.913673950691
 45
39.75591328479023
 46
-0.0000165670965689
 79
     2
 49
30.44290437825485
 49
-5783.884461102885
 53
292.9384
 43
42931.30370015335
 44
2086.049806025156
 45
39.75591328479023
 46
-0.0000165670965689
 79
     2
 49
30.44290437825485
 49
-5783.884461102885
 53
292.9384
 43
42931.30370015335
 44
1952.185938099622
 45
39.75591328479023
 46
-0.0000165670965689
 79
     2
 49
30.44290437825485
 49
-5783.884461102885
 53
292.9384
 43
42931.30370015335
 44
1818.322070174117
 45
39.75591328479023
 46
-0.0000165670965689
 79
     2
 49
30.44290437825485
 49
-5783.884461102885
 53
292.9384
 43
42931.30370015335
 44
1684.458202248582
 45
39.75591328479023
 46
-0.0000165670965689
 79
     2
 49
30.44290437825485
 49
-5783.884461102885
 53
292.9384
 43
42931.30370015335
 44
1550.594334323076
 45
39.75591328479023
 46
-0.0000165670965689
 79
     2
 49
30.44290437825485
 49
-5783.884461102885
 53
292.9384
 43
42931.30370015335
 44
1416.730466397542
 45
39.75591328479023
 46
-0.0000165670965689
 79
     2
 49
30.44290437825485
 49
-5783.884461102885
 53
292.9384
 43
42931.30370015335
 44
1282.866598472036
 45
39.75591328479023
 46
-0.0000165670965689
 79
     2
 49
30.44290437825485
 49
-5783.884461102885
 53
292.9384
 43
42931.30370015335
 44
1149.002730546527
 45
39.75591328479023
 46
-0.0000165670965689
 79
     2
 49
30.44290437825485
 49
-5783.884461102885
 53
292.9384
 43
42931.30370015335
 44
1015.138862620992
 45
39.75591328479023
 46
-0.0000165670965689
 79
     2
 49
30.44290437825485
 49
-5783.884461102885
 53
292.9384
 43
42931.30370015335
 44
881.2749946954582
 45
39.75591328479023
 46
-0.0000165670965689
 79
     2
 49
30.44290437825485
 49
-5783.884461102885
 53
292.9384
 43
42931.30370015335
 44
747.4111267699527
 45
39.75591328479023
 46
-0.0000165670965689
 79
     2
 49
30.44290437825485
 49
-5783.884461102885
 53
292.9384
 43
42931.30370015335
 44
613.5472588444436
 45
39.75591328479023
 46
-0.0000165670965689
 79
     2
 49
30.44290437825485
 49
-5783.884461102885
 53
292.9384
 43
42931.30370015335
 44
479.6833909189126
 45
39.75591328479023
 46
-0.0000165670965689
 79
     2
 49
30.44290437825485
 49
-5783.884461102885
 53
292.9384
 43
42931.30370015335
 44
345.8195229934036
 45
39.75591328479023
 46
-0.0000165670965689
 79
     2
 49
30.44290437825485
 49
-5783.884461102885
 53
292.9384
 43
42931.30370015335
 44
211.955655067869
 45
39.75591328479023
 46
-0.0000165670965689
 79
     2
 49
30.44290437825485
 49
-5783.884461102885
 53
292.9384
 43
42931.30370015335
 44
78.09178714235986
 45
39.75591328479023
 46
-0.0000165670965689
 79
     2
 49
30.44290437825485
 49
-5783.884461102885
 53
292.9384
 43
42931.30370015335
 44
-55.77208078314561
 45
39.75591328479023
 46
-0.0000165670965689
 79
     2
 49
30.44290437825485
 49
-5783.884461102885
 53
285.109
 43
42948.70868026104
 44
5110.213662570416
 45
0.0000003601119824
 46
-133.8637863111869
 79
     2
 49
13.20944850668066
 49
-1512.01737614076
 53
285.109
 43
42988.46458317346
 44
5110.213662570416
 45
0.0000003601119824
 46
-133.8637863111869
 79
     2
 49
13.20944850668066
 49
-1512.01737614076
 53
285.109
 43
43028.22048608586
 44
5110.213662570416
 45
0.0000003601119824
 46
-133.8637863111869
 79
     2
 49
13.20944850668066
 49
-1512.01737614076
 53
285.109
 43
43067.97662697847
 44
5110.213662570416
 45
0.0000003601119824
 46
-133.8637863111869
 79
     2
 49
13.20944850668066
 49
-1512.01737614076
 53
285.109
 43
43107.73241090078
 44
5110.213662570416
 45
0.0000003601119824
 46
-133.8637863111869
 79
     2
 49
13.20944850668066
 49
-1512.01737614076
 53
285.109
 43
43147.48819482309
 44
5110.213662570416
 45
0.0000003601119824
 46
-133.8637863111869
 79
     2
 49
13.20944850668066
 49
-1512.01737614076
 53
285.109
 43
43187.2439787454
 44
5110.213662570416
 45
0.0000003601119824
 46
-133.8637863111869
 79
     2
 49
13.20944850668066
 49
-1512.01737614076
 53
285.109
 43
43226.99976266769
 44
5110.213662570416
 45
0.0000003601119824
 46
-133.8637863111869
 79
     2
 49
13.20944850668066
 49
-1512.01737614076
 53
285.109
 43
43266.75554659002
 44
5110.213662570416
 45
0.0000003601119824
 46
-133.8637863111869
 79
     2
 49
13.20944850668066
 49
-1512.01737614076
 53
285.109
 43
43306.5113305123
 44
5110.213662570416
 45
0.0000003601119824
 46
-133.8637863111869
 79
     2
 49
13.20944850668066
 49
-1512.01737614076
 53
276.7473999999999
 43
42943.16707309924
 44
5136.888150328913
 45
0.0000130021948056
 46
-133.8641044322109
 79
     2
 49
26.86118323298723
 49
-16553.23227874065
 53
276.7473999999999
 43
42982.92297601164
 44
5136.888150328913
 45
0.0000130021948056
 46
-133.8641044322109
 79
     2
 49
26.86118323298723
 49
-16553.23227874065
 53
276.7473999999999
 43
43022.67887892403
 44
5136.888150328913
 45
0.0000130021948056
 46
-133.8641044322109
 79
     2
 49
26.86118323298723
 49
-16553.23227874065
 53
276.7473999999999
 43
43062.4352577969
 44
5136.888150328913
 45
0.0000130021948056
 46
-133.8641044322109
 79
     2
 49
26.86118323298723
 49
-16553.23227874065
 53
276.7473999999999
 43
43102.1910417192
 44
5136.888150328913
 45
0.0000130021948056
 46
-133.8641044322109
 79
     2
 49
26.86118323298723
 49
-16553.23227874065
 53
276.7473999999999
 43
43141.94682564151
 44
5136.888150328913
 45
0.0000130021948056
 46
-133.8641044322109
 79
     2
 49
26.86118323298723
 49
-16553.23227874065
 53
276.7473999999999
 43
43181.70260956381
 44
5136.888150328913
 45
0.0000130021948056
 46
-133.8641044322109
 79
     2
 49
26.86118323298723
 49
-16553.23227874065
 53
276.7473999999999
 43
43221.45839348612
 44
5136.888150328913
 45
0.0000130021948056
 46
-133.8641044322109
 79
     2
 49
26.86118323298723
 49
-16553.23227874065
 53
276.7473999999999
 43
43261.21417740843
 44
5136.888150328913
 45
0.0000130021948056
 46
-133.8641044322109
 79
     2
 49
26.86118323298723
 49
-16553.23227874065
 53
276.7473999999999
 43
43300.96996133073
 44
5136.888150328913
 45
0.0000130021948056
 46
-133.8641044322109
 79
     2
 49
26.86118323298723
 49
-16553.23227874065
 53
276.7473999999999
 43
43340.72574525303
 44
5136.888150328913
 45
0.0000130021948056
 46
-133.8641044322109
 79
     2
 49
26.86118323298723
 49
-16553.23227874065
 53
276.7473999999999
 43
43380.48152917535
 44
5136.888150328913
 45
0.0000130021948056
 46
-133.8641044322109
 79
     2
 49
26.86118323298723
 49
-16553.23227874065
 53
276.7473999999999
 43
43420.23731309764
 44
5136.888150328913
 45
0.0000130021948056
 46
-133.8641044322109
 79
     2
 49
26.86118323298723
 49
-16553.23227874065
 53
276.7473999999999
 43
43459.99309701996
 44
5136.888150328913
 45
0.0000130021948056
 46
-133.8641044322109
 79
     2
 49
26.86118323298723
 49
-16553.23227874065
 53
276.7473999999999
 43
43499.75007084332
 44
5136.888150328913
 45
0.0000130021948056
 46
-133.8641044322109
 79
     2
 49
26.86118323298723
 49
-16553.23227874065
 53
276.7473999999999
 43
43539.50585476562
 44
5136.888150328913
 45
0.0000130021948056
 46
-133.8641044322109
 79
     2
 49
26.86118323298723
 49
-16553.23227874065
 53
276.7473999999999
 43
43579.26163868791
 44
5136.888150328913
 45
0.0000130021948056
 46
-133.8641044322109
 79
     2
 49
26.86118323298723
 49
-16553.23227874065
 53
276.7473999999999
 43
43619.01742261023
 44
5136.888150328913
 45
0.0000130021948056
 46
-133.8641044322109
 79
     2
 49
26.86118323298723
 49
-16553.23227874065
 53
276.7473999999999
 43
43658.7732065325
 44
5136.888150328913
 45
0.0000130021948056
 46
-133.8641044322109
 79
     2
 49
26.86118323298723
 49
-16553.23227874065
 53
276.7473999999999
 43
43698.52899045485
 44
5136.888150328913
 45
0.0000130021948056
 46
-133.8641044322109
 79
     2
 49
26.86118323298723
 49
-16553.23227874065
 53
276.7473999999999
 43
43738.28477437715
 44
5136.888150328913
 45
0.0000130021948056
 46
-133.8641044322109
 79
     2
 49
26.86118323298723
 49
-16553.23227874065
 53
276.7473999999999
 43
43778.04055829946
 44
5136.888150328913
 45
0.0000130021948056
 46
-133.8641044322109
 79
     2
 49
26.86118323298723
 49
-16553.23227874065
 53
276.7473999999999
 43
43817.79634222177
 44
5136.888150328913
 45
0.0000130021948056
 46
-133.8641044322109
 79
     2
 49
26.86118323298723
 49
-16553.23227874065
 53
276.7473999999999
 43
43857.55212614407
 44
5136.888150328913
 45
0.0000130021948056
 46
-133.8641044322109
 79
     2
 49
26.86118323298723
 49
-16553.23227874065
 53
276.7473999999999
 43
43897.30909996744
 44
5136.888150328913
 45
0.0000130021948056
 46
-133.8641044322109
 79
     2
 49
26.86118323298723
 49
-16553.23227874065
 53
276.7473999999999
 43
43937.06488388971
 44
5136.888150328913
 45
0.0000130021948056
 46
-133.8641044322109
 79
     2
 49
26.86118323298723
 49
-16553.23227874065
 53
276.7473999999999
 43
43976.82066781206
 44
5136.888150328913
 45
0.0000130021948056
 46
-133.8641044322109
 79
     2
 49
26.86118323298723
 49
-16553.23227874065
 53
276.7473999999999
 43
44016.57645173436
 44
5136.888150328913
 45
0.0000130021948056
 46
-133.8641044322109
 79
     2
 49
26.86118323298723
 49
-16553.23227874065
 53
276.7473999999999
 43
44056.33223565666
 44
5136.888150328913
 45
0.0000130021948056
 46
-133.8641044322109
 79
     2
 49
26.86118323298723
 49
-16553.23227874065
 53
276.7473999999999
 43
44096.08801957897
 44
5136.888150328913
 45
0.0000130021948056
 46
-133.8641044322109
 79
     2
 49
26.86118323298723
 49
-16553.23227874065
 53
276.7473999999999
 43
44135.84261360022
 44
5136.888150328913
 45
0.0000130021948056
 46
-133.8641044322109
 79
     2
 49
26.86118323298723
 49
-16553.23227874065
 53
276.7473999999999
 43
44175.5972076215
 44
5136.888150328913
 45
0.0000130021948056
 46
-133.8641044322109
 79
     2
 49
26.86118323298723
 49
-16553.23227874065
 53
276.7473999999999
 43
44215.35180164274
 44
5136.888150328913
 45
0.0000130021948056
 46
-133.8641044322109
 79
     2
 49
26.86118323298723
 49
-16553.23227874065
 53
276.7473999999999
 43
44255.10639566399
 44
5136.888150328913
 45
0.0000130021948056
 46
-133.8641044322109
 79
     2
 49
26.86118323298723
 49
-16553.23227874065
 53
276.7473999999999
 43
44294.87288869575
 44
5136.888150328913
 45
0.0000130021948056
 46
-133.8641044322109
 79
     2
 49
26.86118323298723
 49
-16553.23227874065
 53
276.7473999999999
 43
44334.62748271701
 44
5136.888150328913
 45
0.0000130021948056
 46
-133.8641044322109
 79
     2
 49
26.86118323298723
 49
-16553.23227874065
 53
276.7473999999999
 43
44374.38207673824
 44
5136.888150328913
 45
0.0000130021948056
 46
-133.8641044322109
 79
     2
 49
26.86118323298723
 49
-16553.23227874065
 53
276.7473999999999
 43
44414.13667075951
 44
5136.888150328913
 45
0.0000130021948056
 46
-133.8641044322109
 79
     2
 49
26.86118323298723
 49
-16553.23227874065
 53
276.7473999999999
 43
44453.89126478076
 44
5136.888150328913
 45
0.0000130021948056
 46
-133.8641044322109
 79
     2
 49
26.86118323298723
 49
-16553.23227874065
 53
276.7473999999999
 43
44493.64585880204
 44
5136.888150328913
 45
0.0000130021948056
 46
-133.8641044322109
 79
     2
 49
26.86118323298723
 49
-16553.23227874065
 53
276.7473999999999
 43
44533.40045282329
 44
5136.888150328913
 45
0.0000130021948056
 46
-133.8641044322109
 79
     2
 49
26.86118323298723
 49
-16553.23227874065
 53
276.7473999999999
 43
44573.15504684455
 44
5136.888150328913
 45
0.0000130021948056
 46
-133.8641044322109
 79
     2
 49
26.86118323298723
 49
-16553.23227874065
 53
276.7473999999999
 43
44612.90964086581
 44
5136.888150328913
 45
0.0000130021948056
 46
-133.8641044322109
 79
     2
 49
26.86118323298723
 49
-16553.23227874065
 53
276.7473999999999
 43
44652.67613389753
 44
5136.888150328913
 45
0.0000130021948056
 46
-133.8641044322109
 79
     2
 49
26.86118323298723
 49
-16553.23227874065
 53
276.7473999999999
 43
44692.43072791882
 44
5136.888150328913
 45
0.0000130021948056
 46
-133.8641044322109
 79
     2
 49
26.86118323298723
 49
-16553.23227874065
 53
276.7473999999999
 43
44732.18532194006
 44
5136.888150328913
 45
0.0000130021948056
 46
-133.8641044322109
 79
     2
 49
26.86118323298723
 49
-16553.23227874065
 53
276.7473999999999
 43
44771.93991596132
 44
5136.888150328913
 45
0.0000130021948056
 46
-133.8641044322109
 79
     2
 49
26.86118323298723
 49
-16553.23227874065
 53
276.7473999999999
 43
44811.69450998258
 44
5136.888150328913
 45
0.0000130021948056
 46
-133.8641044322109
 79
     2
 49
26.86118323298723
 49
-16553.23227874065
 53
276.7473999999999
 43
44851.44910400386
 44
5136.888150328913
 45
0.0000130021948056
 46
-133.8641044322109
 79
     2
 49
26.86118323298723
 49
-16553.23227874065
 53
276.1416
 43
42928.17293365684
 44
5194.016132585043
 45
-0.0001295516809004
 46
-133.8635115469746
 79
     2
 49
29.25978576600293
 49
-9260.667043026341
 53
276.1416
 43
42967.92879492274
 44
5194.016132585043
 45
-0.0001295516809004
 46
-133.8635115469746
 79
     2
 49
29.25978576600293
 49
-9260.667043026341
 53
276.1416
 43
43007.68469783515
 44
5194.016132585043
 45
-0.0001295516809004
 46
-133.8635115469746
 79
     2
 49
29.25978576600293
 49
-9260.667043026341
 53
276.1416
 43
43047.44012478714
 44
5194.016132585043
 45
-0.0001295516809004
 46
-133.8635115469746
 79
     2
 49
29.25978576600293
 49
-9260.667043026341
 53
276.1416
 43
43087.19709861049
 44
5194.016132585043
 45
-0.0001295516809004
 46
-133.8635115469746
 79
     2
 49
29.25978576600293
 49
-9260.667043026341
 53
276.1416
 43
43126.95288253278
 44
5194.016132585043
 45
-0.0001295516809004
 46
-133.8635115469746
 79
     2
 49
29.25978576600293
 49
-9260.667043026341
 53
276.1416
 43
43166.70866645509
 44
5194.016132585043
 45
-0.0001295516809004
 46
-133.8635115469746
 79
     2
 49
29.25978576600293
 49
-9260.667043026341
 53
276.1416
 43
43206.46445037741
 44
5194.016132585043
 45
-0.0001295516809004
 46
-133.8635115469746
 79
     2
 49
29.25978576600293
 49
-9260.667043026341
 53
276.1416
 43
43246.22023429968
 44
5194.016132585043
 45
-0.0001295516809004
 46
-133.8635115469746
 79
     2
 49
29.25978576600293
 49
-9260.667043026341
 53
276.1416
 43
43285.97601822203
 44
5194.016132585043
 45
-0.0001295516809004
 46
-133.8635115469746
 79
     2
 49
29.25978576600293
 49
-9260.667043026341
 53
276.1416
 43
43325.73180214433
 44
5194.016132585043
 45
-0.0001295516809004
 46
-133.8635115469746
 79
     2
 49
29.25978576600293
 49
-9260.667043026341
 53
276.1416
 43
43365.48758606664
 44
5194.016132585043
 45
-0.0001295516809004
 46
-133.8635115469746
 79
     2
 49
29.25978576600293
 49
-9260.667043026341
 53
276.1416
 43
43405.24336998895
 44
5194.016132585043
 45
-0.0001295516809004
 46
-133.8635115469746
 79
     2
 49
29.25978576600293
 49
-9260.667043026341
 53
276.1416
 43
43444.99915391123
 44
5194.016132585043
 45
-0.0001295516809004
 46
-133.8635115469746
 79
     2
 49
29.25978576600293
 49
-9260.667043026341
 53
276.1416
 43
43484.75493783356
 44
5194.016132585043
 45
-0.0001295516809004
 46
-133.8635115469746
 79
     2
 49
29.25978576600293
 49
-9260.667043026341
 53
276.1416
 43
43524.51191165689
 44
5194.016132585043
 45
-0.0001295516809004
 46
-133.8635115469746
 79
     2
 49
29.25978576600293
 49
-9260.667043026341
 53
276.1416
 43
43564.26769557923
 44
5194.016132585043
 45
-0.0001295516809004
 46
-133.8635115469746
 79
     2
 49
29.25978576600293
 49
-9260.667043026341
 53
276.1416
 43
43604.02347950151
 44
5194.016132585043
 45
-0.0001295516809004
 46
-133.8635115469746
 79
     2
 49
29.25978576600293
 49
-9260.667043026341
 53
276.1416
 43
43643.77926342383
 44
5194.016132585043
 45
-0.0001295516809004
 46
-133.8635115469746
 79
     2
 49
29.25978576600293
 49
-9260.667043026341
 53
276.1416
 43
43683.53504734615
 44
5194.016132585043
 45
-0.0001295516809004
 46
-133.8635115469746
 79
     2
 49
29.25978576600293
 49
-9260.667043026341
 53
276.1416
 43
43723.29083126844
 44
5194.016132585043
 45
-0.0001295516809004
 46
-133.8635115469746
 79
     2
 49
29.25978576600293
 49
-9260.667043026341
 53
276.1416
 43
43763.04661519073
 44
5194.016132585043
 45
-0.0001295516809004
 46
-133.8635115469746
 79
     2
 49
29.25978576600293
 49
-9260.667043026341
 53
276.1416
 43
43802.80239911304
 44
5194.016132585043
 45
-0.0001295516809004
 46
-133.8635115469746
 79
     2
 49
29.25978576600293
 49
-9260.667043026341
 53
276.1416
 43
43842.55818303539
 44
5194.016132585043
 45
-0.0001295516809004
 46
-133.8635115469746
 79
     2
 49
29.25978576600293
 49
-9260.667043026341
 53
276.1416
 43
43882.31396695768
 44
5194.016132585043
 45
-0.0001295516809004
 46
-133.8635115469746
 79
     2
 49
29.25978576600293
 49
-9260.667043026341
 53
83.85800000000008
 43
42963.73391776731
 44
5164.92436084704
 45
39.7558606288076
 46
-0.0002485672396058
 79
     2
 49
29.25978576600241
 49
-9260.66704302619
 53
83.85800000000008
 43
42963.73391776731
 44
5031.060849891831
 45
39.7558606288076
 46
-0.0002485672396058
 79
     2
 49
29.25978576600241
 49
-9260.66704302619
 53
83.85800000000008
 43
42963.73391776731
 44
4897.196981966296
 45
39.7558606288076
 46
-0.0002485672396058
 79
     2
 49
29.25978576600241
 49
-9260.66704302619
 53
83.85800000000008
 43
42963.73391776731
 44
4763.333114040787
 45
39.7558606288076
 46
-0.0002485672396058
 79
     2
 49
29.25978576600241
 49
-9260.66704302619
 53
83.85800000000008
 43
42963.73391776731
 44
4629.469246115282
 45
39.7558606288076
 46
-0.0002485672396058
 79
     2
 49
29.25978576600241
 49
-9260.66704302619
 53
83.85800000000008
 43
42963.73391776731
 44
4495.605378189747
 45
39.7558606288076
 46
-0.0002485672396058
 79
     2
 49
29.25978576600241
 49
-9260.66704302619
 53
83.85800000000008
 43
42963.73391776731
 44
4361.741510264241
 45
39.7558606288076
 46
-0.0002485672396058
 79
     2
 49
29.25978576600241
 49
-9260.66704302619
 53
83.85800000000008
 43
42963.73391776731
 44
4227.877642338706
 45
39.7558606288076
 46
-0.0002485672396058
 79
     2
 49
29.25978576600241
 49
-9260.66704302619
 53
83.85800000000008
 43
42963.73391776731
 44
4094.013774413197
 45
39.7558606288076
 46
-0.0002485672396058
 79
     2
 49
29.25978576600241
 49
-9260.66704302619
 53
83.85800000000008
 43
42963.73391776731
 44
3960.143956982448
 45
39.7558606288076
 46
-0.0002485672396058
 79
     2
 49
29.25978576600241
 49
-9260.66704302619
 53
83.85800000000008
 43
42963.73391776731
 44
3826.280089056913
 45
39.7558606288076
 46
-0.0002485672396058
 79
     2
 49
29.25978576600241
 49
-9260.66704302619
 53
83.85800000000008
 43
42963.73391776731
 44
3692.416221131379
 45
39.7558606288076
 46
-0.0002485672396058
 79
     2
 49
29.25978576600241
 49
-9260.66704302619
 53
83.85800000000008
 43
42963.73391776731
 44
3558.55235320587
 45
39.7558606288076
 46
-0.0002485672396058
 79
     2
 49
29.25978576600241
 49
-9260.66704302619
 53
83.85800000000008
 43
42963.73391776731
 44
3424.688485280364
 45
39.7558606288076
 46
-0.0002485672396058
 79
     2
 49
29.25978576600241
 49
-9260.66704302619
 53
83.85800000000008
 43
42963.73391776731
 44
3290.82461735483
 45
39.7558606288076
 46
-0.0002485672396058
 79
     2
 49
29.25978576600241
 49
-9260.66704302619
 53
83.85800000000008
 43
42963.73391776731
 44
3156.960749429299
 45
39.7558606288076
 46
-0.0002485672396058
 79
     2
 49
29.25978576600241
 49
-9260.66704302619
 53
83.85800000000008
 43
42963.73391776731
 44
3023.09688150379
 45
39.7558606288076
 46
-0.0002485672396058
 79
     2
 49
29.25978576600241
 49
-9260.66704302619
 53
83.85800000000008
 43
42963.73391776731
 44
2889.233013578281
 45
39.7558606288076
 46
-0.0002485672396058
 79
     2
 49
29.25978576600241
 49
-9260.66704302619
 53
83.85800000000008
 43
42963.73391776731
 44
2755.369145652775
 45
39.7558606288076
 46
-0.0002485672396058
 79
     2
 49
29.25978576600241
 49
-9260.66704302619
 53
83.85800000000008
 43
42963.73391776731
 44
2621.505277727241
 45
39.7558606288076
 46
-0.0002485672396058
 79
     2
 49
29.25978576600241
 49
-9260.66704302619
 53
83.85800000000008
 43
42963.73391776731
 44
2487.641409801706
 45
39.7558606288076
 46
-0.0002485672396058
 79
     2
 49
29.25978576600241
 49
-9260.66704302619
 53
83.85800000000008
 43
42963.73391776731
 44
2353.7775418762
 45
39.7558606288076
 46
-0.0002485672396058
 79
     2
 49
29.25978576600241
 49
-9260.66704302619
 53
83.85800000000008
 43
42963.73391776731
 44
2219.913673950691
 45
39.7558606288076
 46
-0.0002485672396058
 79
     2
 49
29.25978576600241
 49
-9260.66704302619
 53
83.85800000000008
 43
42963.73391776731
 44
2086.049806025156
 45
39.7558606288076
 46
-0.0002485672396058
 79
     2
 49
29.25978576600241
 49
-9260.66704302619
 53
83.85800000000008
 43
42963.73391776731
 44
1952.185938099622
 45
39.7558606288076
 46
-0.0002485672396058
 79
     2
 49
29.25978576600241
 49
-9260.66704302619
 53
83.85800000000008
 43
42963.73391776731
 44
1818.322070174117
 45
39.7558606288076
 46
-0.0002485672396058
 79
     2
 49
29.25978576600241
 49
-9260.66704302619
 53
83.85800000000008
 43
42963.73391776731
 44
1684.458202248582
 45
39.7558606288076
 46
-0.0002485672396058
 79
     2
 49
29.25978576600241
 49
-9260.66704302619
 53
83.85800000000008
 43
42963.73391776731
 44
1550.594334323076
 45
39.7558606288076
 46
-0.0002485672396058
 79
     2
 49
29.25978576600241
 49
-9260.66704302619
 53
83.85800000000008
 43
42963.73391776731
 44
1416.730466397542
 45
39.7558606288076
 46
-0.0002485672396058
 79
     2
 49
29.25978576600241
 49
-9260.66704302619
 53
83.85800000000008
 43
42963.73391776731
 44
1282.866598472036
 45
39.7558606288076
 46
-0.0002485672396058
 79
     2
 49
29.25978576600241
 49
-9260.66704302619
 53
83.85800000000008
 43
42963.73391776731
 44
1149.002730546527
 45
39.7558606288076
 46
-0.0002485672396058
 79
     2
 49
29.25978576600241
 49
-9260.66704302619
 53
83.85800000000008
 43
42963.73391776731
 44
1015.138862620992
 45
39.7558606288076
 46
-0.0002485672396058
 79
     2
 49
29.25978576600241
 49
-9260.66704302619
 53
83.85800000000008
 43
42963.73391776731
 44
881.2749946954582
 45
39.7558606288076
 46
-0.0002485672396058
 79
     2
 49
29.25978576600241
 49
-9260.66704302619
 53
83.85800000000008
 43
42963.73391776731
 44
747.4111267699527
 45
39.7558606288076
 46
-0.0002485672396058
 79
     2
 49
29.25978576600241
 49
-9260.66704302619
 53
83.85800000000008
 43
42963.73391776731
 44
613.5472588444436
 45
39.7558606288076
 46
-0.0002485672396058
 79
     2
 49
29.25978576600241
 49
-9260.66704302619
 53
83.85800000000008
 43
42963.73391776731
 44
479.6833909189126
 45
39.7558606288076
 46
-0.0002485672396058
 79
     2
 49
29.25978576600241
 49
-9260.66704302619
 53
83.85800000000008
 43
42963.73391776731
 44
345.8195229934036
 45
39.7558606288076
 46
-0.0002485672396058
 79
     2
 49
29.25978576600241
 49
-9260.66704302619
 53
83.85800000000008
 43
42963.73391776731
 44
211.955655067869
 45
39.7558606288076
 46
-0.0002485672396058
 79
     2
 49
29.25978576600241
 49
-9260.66704302619
 53
83.85800000000008
 43
42963.73391776731
 44
78.09178714235986
 45
39.7558606288076
 46
-0.0002485672396058
 79
     2
 49
29.25978576600241
 49
-9260.66704302619
 53
83.85800000000008
 43
42963.73391776731
 44
-55.77208078314561
 45
39.7558606288076
 46
-0.0002485672396058
 79
     2
 49
29.25978576600241
 49
-9260.66704302619
 53
83.85800000000008
 43
42963.73391776731
 44
-189.6359487086802
 45
39.7558606288076
 46
-0.0002485672396058
 79
     2
 49
29.25978576600241
 49
-9260.66704302619
 53
83.85800000000008
 43
42963.73391776731
 44
-323.4998166342111
 45
39.7558606288076
 46
-0.0002485672396058
 79
     2
 49
29.25978576600241
 49
-9260.66704302619
 53
83.85800000000008
 43
42963.73391776731
 44
-457.3636845597202
 45
39.7558606288076
 46
-0.0002485672396058
 79
     2
 49
29.25978576600241
 49
-9260.66704302619
 53
83.85800000000008
 43
42963.73391776731
 44
-591.2275524852256
 45
39.7558606288076
 46
-0.0002485672396058
 79
     2
 49
29.25978576600241
 49
-9260.66704302619
 53
83.85800000000008
 43
42963.73391776731
 44
-725.0914204107602
 45
39.7558606288076
 46
-0.0002485672396058
 79
     2
 49
29.25978576600241
 49
-9260.66704302619
 53
83.85800000000008
 43
42963.73391776731
 44
-858.9552883362948
 45
39.7558606288076
 46
-0.0002485672396058
 79
     2
 49
29.25978576600241
 49
-9260.66704302619
 53
83.85800000000008
 43
42963.73391776731
 44
-992.8191562618039
 45
39.7558606288076
 46
-0.0002485672396058
 79
     2
 49
29.25978576600241
 49
-9260.66704302619
 53
83.85800000000008
 43
42963.73391776731
 44
-1126.683024187335
 45
39.7558606288076
 46
-0.0002485672396058
 79
     2
 49
29.25978576600241
 49
-9260.66704302619
 53
83.85800000000008
 43
42963.73391776731
 44
-1260.546892112818
 45
39.7558606288076
 46
-0.0002485672396058
 79
     2
 49
29.25978576600241
 49
-9260.66704302619
 53
83.85800000000008
 43
42963.73391776731
 44
-1394.410760038349
 45
39.7558606288076
 46
-0.0002485672396058
 79
     2
 49
29.25978576600241
 49
-9260.66704302619
 53
83.85800000000008
 43
42963.73391776731
 44
-1528.274627963884
 45
39.7558606288076
 46
-0.0002485672396058
 79
     2
 49
29.25978576600241
 49
-9260.66704302619
 53
83.85800000000008
 43
42963.73391776731
 44
-1662.138495889393
 45
39.7558606288076
 46
-0.0002485672396058
 79
     2
 49
29.25978576600241
 49
-9260.66704302619
 53
83.85800000000008
 43
42963.73391776731
 44
-1796.002363814928
 45
39.7558606288076
 46
-0.0002485672396058
 79
     2
 49
29.25978576600241
 49
-9260.66704302619
 53
83.85800000000008
 43
42963.73391776731
 44
-1929.866231740459
 45
39.7558606288076
 46
-0.0002485672396058
 79
     2
 49
29.25978576600241
 49
-9260.66704302619
 53
83.85800000000008
 43
42963.73391776731
 44
-2063.730099665968
 45
39.7558606288076
 46
-0.0002485672396058
 79
     2
 49
29.25978576600241
 49
-9260.66704302619
 53
83.85800000000008
 43
42963.73391776731
 44
-2197.593967591473
 45
39.7558606288076
 46
-0.0002485672396058
 79
     2
 49
29.25978576600241
 49
-9260.66704302619
 53
83.85800000000008
 43
42963.73391776731
 44
-2331.457835517008
 45
39.7558606288076
 46
-0.0002485672396058
 79
     2
 49
29.25978576600241
 49
-9260.66704302619
 53
83.85800000000008
 43
42963.73391776731
 44
-2465.321703442517
 45
39.7558606288076
 46
-0.0002485672396058
 79
     2
 49
29.25978576600241
 49
-9260.66704302619
 53
83.85800000000008
 43
42963.73391776731
 44
-2599.185571368052
 45
39.7558606288076
 46
-0.0002485672396058
 79
     2
 49
29.25978576600241
 49
-9260.66704302619
 53
83.85800000000008
 43
42963.73391776731
 44
-2733.049439293557
 45
39.7558606288076
 46
-0.0002485672396058
 79
     2
 49
29.25978576600241
 49
-9260.66704302619
 53
83.85800000000008
 43
42963.73391776731
 44
-2866.913307219066
 45
39.7558606288076
 46
-0.0002485672396058
 79
     2
 49
29.25978576600241
 49
-9260.66704302619
 53
83.85800000000008
 43
42963.73391776731
 44
-3000.777175144597
 45
39.7558606288076
 46
-0.0002485672396058
 79
     2
 49
29.25978576600241
 49
-9260.66704302619
 53
83.85800000000008
 43
42963.73391776731
 44
-3134.641043070132
 45
39.7558606288076
 46
-0.0002485672396058
 79
     2
 49
29.25978576600241
 49
-9260.66704302619
 53
83.85800000000008
 43
42963.73391776731
 44
-3268.504910995641
 45
39.7558606288076
 46
-0.0002485672396058
 79
     2
 49
29.25978576600241
 49
-9260.66704302619
 53
83.85800000000008
 43
42963.73391776731
 44
-3402.368778921147
 45
39.7558606288076
 46
-0.0002485672396058
 79
     2
 49
29.25978576600241
 49
-9260.66704302619
 53
83.85800000000008
 43
42963.73391776731
 44
-3536.23264684671
 45
39.7558606288076
 46
-0.0002485672396058
 79
     2
 49
29.25978576600241
 49
-9260.66704302619
 53
83.85800000000008
 43
42963.73391776731
 44
-3670.096514772216
 45
39.7558606288076
 46
-0.0002485672396058
 79
     2
 49
29.25978576600241
 49
-9260.66704302619
 53
83.85800000000008
 43
42963.73391776731
 44
-3803.96038269772
 45
39.7558606288076
 46
-0.0002485672396058
 79
     2
 49
29.25978576600241
 49
-9260.66704302619
 53
83.85800000000008
 43
42963.73391776731
 44
-3937.824250623231
 45
39.7558606288076
 46
-0.0002485672396058
 79
     2
 49
29.25978576600241
 49
-9260.66704302619
 53
83.25300000000003
 43
42948.70868026104
 44
5110.213662570416
 45
39.75591911914366
 46
0.0002898923439309
 79
     2
 49
26.86118323298722
 49
-16553.23227874064
 53
83.25300000000003
 43
42948.70868026104
 44
4976.350389595395
 45
39.75591911914366
 46
0.0002898923439309
 79
     2
 49
26.86118323298722
 49
-16553.23227874064
 53
83.25300000000003
 43
42948.70868026104
 44
4842.48652166989
 45
39.75591911914366
 46
0.0002898923439309
 79
     2
 49
26.86118323298722
 49
-16553.23227874064
 53
83.25300000000003
 43
42948.70868026104
 44
4708.62265374438
 45
39.75591911914366
 46
0.0002898923439309
 79
     2
 49
26.86118323298722
 49
-16553.23227874064
 53
83.25300000000003
 43
42948.70868026104
 44
4574.758785818874
 45
39.75591911914366
 46
0.0002898923439309
 79
     2
 49
26.86118323298722
 49
-16553.23227874064
 53
83.25300000000003
 43
42948.70868026104
 44
4440.894917893341
 45
39.75591911914366
 46
0.0002898923439309
 79
     2
 49
26.86118323298722
 49
-16553.23227874064
 53
83.25300000000003
 43
42948.70868026104
 44
4307.031049967807
 45
39.75591911914366
 46
0.0002898923439309
 79
     2
 49
26.86118323298722
 49
-16553.23227874064
 53
83.25300000000003
 43
42948.70868026104
 44
4173.167182042297
 45
39.75591911914366
 46
0.0002898923439309
 79
     2
 49
26.86118323298722
 49
-16553.23227874064
 53
83.25300000000003
 43
42948.70868026104
 44
4039.303314116766
 45
39.75591911914366
 46
0.0002898923439309
 79
     2
 49
26.86118323298722
 49
-16553.23227874064
 53
83.25300000000003
 43
42948.70868026104
 44
3905.444205795441
 45
39.75591911914366
 46
0.0002898923439309
 79
     2
 49
26.86118323298722
 49
-16553.23227874064
 53
83.25300000000003
 43
42948.70868026104
 44
3771.580337869936
 45
39.75591911914366
 46
0.0002898923439309
 79
     2
 49
26.86118323298722
 49
-16553.23227874064
 53
83.25300000000003
 43
42948.70868026104
 44
3637.716469944401
 45
39.75591911914366
 46
0.0002898923439309
 79
     2
 49
26.86118323298722
 49
-16553.23227874064
 53
83.25300000000003
 43
42948.70868026104
 44
3503.852602018895
 45
39.75591911914366
 46
0.0002898923439309
 79
     2
 49
26.86118323298722
 49
-16553.23227874064
 53
83.25300000000003
 43
42948.70868026104
 44
3369.988734093361
 45
39.75591911914366
 46
0.0002898923439309
 79
     2
 49
26.86118323298722
 49
-16553.23227874064
 53
83.25300000000003
 43
42948.70868026104
 44
3236.124866167827
 45
39.75591911914366
 46
0.0002898923439309
 79
     2
 49
26.86118323298722
 49
-16553.23227874064
 53
83.25300000000003
 43
42948.70868026104
 44
3102.260998242317
 45
39.75591911914366
 46
0.0002898923439309
 79
     2
 49
26.86118323298722
 49
-16553.23227874064
 53
83.25300000000003
 43
42948.70868026104
 44
2968.397130316812
 45
39.75591911914366
 46
0.0002898923439309
 79
     2
 49
26.86118323298722
 49
-16553.23227874064
 53
83.25300000000003
 43
42948.70868026104
 44
2834.533262391278
 45
39.75591911914366
 46
0.0002898923439309
 79
     2
 49
26.86118323298722
 49
-16553.23227874064
 53
83.25300000000003
 43
42948.70868026104
 44
2700.669394465747
 45
39.75591911914366
 46
0.0002898923439309
 79
     2
 49
26.86118323298722
 49
-16553.23227874064
 53
83.25300000000003
 43
42948.70868026104
 44
2566.805526540238
 45
39.75591911914366
 46
0.0002898923439309
 79
     2
 49
26.86118323298722
 49
-16553.23227874064
 53
83.25300000000003
 43
42948.70868026104
 44
2432.941658614728
 45
39.75591911914366
 46
0.0002898923439309
 79
     2
 49
26.86118323298722
 49
-16553.23227874064
 53
83.25300000000003
 43
42948.70868026104
 44
2299.077790689223
 45
39.75591911914366
 46
0.0002898923439309
 79
     2
 49
26.86118323298722
 49
-16553.23227874064
 53
83.25300000000003
 43
42948.70868026104
 44
2165.213922763688
 45
39.75591911914366
 46
0.0002898923439309
 79
     2
 49
26.86118323298722
 49
-16553.23227874064
 53
83.25300000000003
 43
42948.70868026104
 44
2031.350054838154
 45
39.75591911914366
 46
0.0002898923439309
 79
     2
 49
26.86118323298722
 49
-16553.23227874064
 53
83.25300000000003
 43
42948.70868026104
 44
1897.486186912648
 45
39.75591911914366
 46
0.0002898923439309
 79
     2
 49
26.86118323298722
 49
-16553.23227874064
 53
83.25300000000003
 43
42948.70868026104
 44
1763.622318987139
 45
39.75591911914366
 46
0.0002898923439309
 79
     2
 49
26.86118323298722
 49
-16553.23227874064
 53
83.25300000000003
 43
42948.70868026104
 44
1629.758451061604
 45
39.75591911914366
 46
0.0002898923439309
 79
     2
 49
26.86118323298722
 49
-16553.23227874064
 53
83.25300000000003
 43
42948.70868026104
 44
1495.89458313607
 45
39.75591911914366
 46
0.0002898923439309
 79
     2
 49
26.86118323298722
 49
-16553.23227874064
 53
83.25300000000003
 43
42948.70868026104
 44
1362.030715210564
 45
39.75591911914366
 46
0.0002898923439309
 79
     2
 49
26.86118323298722
 49
-16553.23227874064
 53
83.25300000000003
 43
42948.70868026104
 44
1228.166847285055
 45
39.75591911914366
 46
0.0002898923439309
 79
     2
 49
26.86118323298722
 49
-16553.23227874064
 53
83.25300000000003
 43
42948.70868026104
 44
1094.302979359524
 45
39.75591911914366
 46
0.0002898923439309
 79
     2
 49
26.86118323298722
 49
-16553.23227874064
 53
83.25300000000003
 43
42948.70868026104
 44
960.4391114339897
 45
39.75591911914366
 46
0.0002898923439309
 79
     2
 49
26.86118323298722
 49
-16553.23227874064
 53
83.25300000000003
 43
42948.70868026104
 44
826.5752435084841
 45
39.75591911914366
 46
0.0002898923439309
 79
     2
 49
26.86118323298722
 49
-16553.23227874064
 53
83.25300000000003
 43
42948.70868026104
 44
692.7113755829751
 45
39.75591911914366
 46
0.0002898923439309
 79
     2
 49
26.86118323298722
 49
-16553.23227874064
 53
83.25300000000003
 43
42948.70868026104
 44
558.8475076574659
 45
39.75591911914366
 46
0.0002898923439309
 79
     2
 49
26.86118323298722
 49
-16553.23227874064
 53
83.25300000000003
 43
42948.70868026104
 44
424.9836397319313
 45
39.75591911914366
 46
0.0002898923439309
 79
     2
 49
26.86118323298722
 49
-16553.23227874064
 53
83.25300000000003
 43
42948.70868026104
 44
291.1197718064004
 45
39.75591911914366
 46
0.0002898923439309
 79
     2
 49
26.86118323298722
 49
-16553.23227874064
 53
83.25300000000003
 43
42948.70868026104
 44
157.2559038808913
 45
39.75591911914366
 46
0.0002898923439309
 79
     2
 49
26.86118323298722
 49
-16553.23227874064
 53
83.25300000000003
 43
42948.70868026104
 44
23.39203595536037
 45
39.75591911914366
 46
0.0002898923439309
 79
     2
 49
26.86118323298722
 49
-16553.23227874064
 53
83.25300000000003
 43
42948.70868026104
 44
-110.4718319701487
 45
39.75591911914366
 46
0.0002898923439309
 79
     2
 49
26.86118323298722
 49
-16553.23227874064
 53
83.25300000000003
 43
42948.70868026104
 44
-244.3356998956833
 45
39.75591911914366
 46
0.0002898923439309
 79
     2
 49
26.86118323298722
 49
-16553.23227874064
 53
83.25300000000003
 43
42948.70868026104
 44
-378.1995678211924
 45
39.75591911914366
 46
0.0002898923439309
 79
     2
 49
26.86118323298722
 49
-16553.23227874064
 53
83.25300000000003
 43
42948.70868026104
 44
-512.0634357466979
 45
39.75591911914366
 46
0.0002898923439309
 79
     2
 49
26.86118323298722
 49
-16553.23227874064
 53
83.25300000000003
 43
42948.70868026104
 44
-645.9273036722325
 45
39.75591911914366
 46
0.0002898923439309
 79
     2
 49
26.86118323298722
 49
-16553.23227874064
 53
83.25300000000003
 43
42948.70868026104
 44
-779.7911715977634
 45
39.75591911914366
 46
0.0002898923439309
 79
     2
 49
26.86118323298722
 49
-16553.23227874064
 53
83.25300000000003
 43
42948.70868026104
 44
-913.6550395232726
 45
39.75591911914366
 46
0.0002898923439309
 79
     2
 49
26.86118323298722
 49
-16553.23227874064
 53
83.25300000000003
 43
42948.70868026104
 44
-1047.518907448778
 45
39.75591911914366
 46
0.0002898923439309
 79
     2
 49
26.86118323298722
 49
-16553.23227874064
 53
83.25300000000003
 43
42948.70868026104
 44
-1181.382775374312
 45
39.75591911914366
 46
0.0002898923439309
 79
     2
 49
26.86118323298722
 49
-16553.23227874064
 53
83.25300000000003
 43
42948.70868026104
 44
-1315.246643299847
 45
39.75591911914366
 46
0.0002898923439309
 79
     2
 49
26.86118323298722
 49
-16553.23227874064
 53
83.25300000000003
 43
42948.70868026104
 44
-1449.110511225356
 45
39.75591911914366
 46
0.0002898923439309
 79
     2
 49
26.86118323298722
 49
-16553.23227874064
 53
83.25300000000003
 43
42948.70868026104
 44
-1582.974379150862
 45
39.75591911914366
 46
0.0002898923439309
 79
     2
 49
26.86118323298722
 49
-16553.23227874064
 53
83.25300000000003
 43
42948.70868026104
 44
-1716.838247076371
 45
39.75591911914366
 46
0.0002898923439309
 79
     2
 49
26.86118323298722
 49
-16553.23227874064
 53
83.25300000000003
 43
42948.70868026104
 44
-1850.702115001902
 45
39.75591911914366
 46
0.0002898923439309
 79
     2
 49
26.86118323298722
 49
-16553.23227874064
 53
83.25300000000003
 43
42948.70868026104
 44
-1984.565982927436
 45
39.75591911914366
 46
0.0002898923439309
 79
     2
 49
26.86118323298722
 49
-16553.23227874064
 53
83.25300000000003
 43
42948.70868026104
 44
-2118.429850852946
 45
39.75591911914366
 46
0.0002898923439309
 79
     2
 49
26.86118323298722
 49
-16553.23227874064
 53
83.25300000000003
 43
42948.70868026104
 44
-2252.293718778455
 45
39.75591911914366
 46
0.0002898923439309
 79
     2
 49
26.86118323298722
 49
-16553.23227874064
 53
83.25300000000003
 43
42948.70868026104
 44
-2386.157586704011
 45
39.75591911914366
 46
0.0002898923439309
 79
     2
 49
26.86118323298722
 49
-16553.23227874064
 53
83.25300000000003
 43
42948.70868026104
 44
-2520.02145462952
 45
39.75591911914366
 46
0.0002898923439309
 79
     2
 49
26.86118323298722
 49
-16553.23227874064
 53
83.25300000000003
 43
42948.70868026104
 44
-2653.885322555026
 45
39.75591911914366
 46
0.0002898923439309
 79
     2
 49
26.86118323298722
 49
-16553.23227874064
 53
83.25300000000003
 43
42948.70868026104
 44
-2787.749190480535
 45
39.75591911914366
 46
0.0002898923439309
 79
     2
 49
26.86118323298722
 49
-16553.23227874064
 53
83.25300000000003
 43
42948.70868026104
 44
-2921.613058406069
 45
39.75591911914366
 46
0.0002898923439309
 79
     2
 49
26.86118323298722
 49
-16553.23227874064
 53
83.25300000000003
 43
42948.70868026104
 44
-3055.476926331604
 45
39.75591911914366
 46
0.0002898923439309
 79
     2
 49
26.86118323298722
 49
-16553.23227874064
 53
83.25300000000003
 43
42948.70868026104
 44
-3189.340794257109
 45
39.75591911914366
 46
0.0002898923439309
 79
     2
 49
26.86118323298722
 49
-16553.23227874064
 53
83.25300000000003
 43
42948.70868026104
 44
-3323.204662182619
 45
39.75591911914366
 46
0.0002898923439309
 79
     2
 49
26.86118323298722
 49
-16553.23227874064
 53
83.25300000000003
 43
42948.70868026104
 44
-3457.06853010815
 45
39.75591911914366
 46
0.0002898923439309
 79
     2
 49
26.86118323298722
 49
-16553.23227874064
 53
83.25300000000003
 43
42948.70868026104
 44
-3590.932398033659
 45
39.75591911914366
 46
0.0002898923439309
 79
     2
 49
26.86118323298722
 49
-16553.23227874064
 53
83.25300000000003
 43
42948.70868026104
 44
-3724.796265959194
 45
39.75591911914366
 46
0.0002898923439309
 79
     2
 49
26.86118323298722
 49
-16553.23227874064
 53
83.25300000000003
 43
42948.70868026104
 44
-3858.660133884699
 45
39.75591911914366
 46
0.0002898923439309
 79
     2
 49
26.86118323298722
 49
-16553.23227874064
 53
83.25300000000003
 43
42948.70868026104
 44
-3992.524001810233
 45
39.75591911914366
 46
0.0002898923439309
 79
     2
 49
26.86118323298722
 49
-16553.23227874064
 53
83.25300000000003
 43
42948.70868026104
 44
-4126.387869735742
 45
39.75591911914366
 46
0.0002898923439309
 79
     2
 49
26.86118323298722
 49
-16553.23227874064
 53
83.25300000000003
 43
42948.70868026104
 44
-4260.251737661273
 45
39.75591911914366
 46
0.0002898923439309
 79
     2
 49
26.86118323298722
 49
-16553.23227874064
 53
83.25300000000003
 43
42948.70868026104
 44
-4394.115605586782
 45
39.75591911914366
 46
0.0002898923439309
 79
     2
 49
26.86118323298722
 49
-16553.23227874064
 53
83.25300000000003
 43
42948.70868026104
 44
-4527.979473512316
 45
39.75591911914366
 46
0.0002898923439309
 79
     2
 49
26.86118323298722
 49
-16553.23227874064
 53
83.25300000000003
 43
42948.70868026104
 44
-4661.843341437822
 45
39.75591911914366
 46
0.0002898923439309
 79
     2
 49
26.86118323298722
 49
-16553.23227874064
 53
83.25300000000003
 43
42948.70868026104
 44
-4795.70720936333
 45
39.75591911914366
 46
0.0002898923439309
 79
     2
 49
26.86118323298722
 49
-16553.23227874064
 53
83.25300000000003
 43
42948.70868026104
 44
-4929.571077288864
 45
39.75591911914366
 46
0.0002898923439309
 79
     2
 49
26.86118323298722
 49
-16553.23227874064
 53
83.25300000000003
 43
42948.70868026104
 44
-5063.434945214371
 45
39.75591911914366
 46
0.0002898923439309
 79
     2
 49
26.86118323298722
 49
-16553.23227874064
 53
83.25300000000003
 43
42948.70868026104
 44
-5197.298813139906
 45
39.75591911914366
 46
0.0002898923439309
 79
     2
 49
26.86118323298722
 49
-16553.23227874064
 53
83.25300000000003
 43
42948.70868026104
 44
-5331.162681065439
 45
39.75591911914366
 46
0.0002898923439309
 79
     2
 49
26.86118323298722
 49
-16553.23227874064
 53
83.25300000000003
 43
42948.70868026104
 44
-5465.026548990946
 45
39.75591911914366
 46
0.0002898923439309
 79
     2
 49
26.86118323298722
 49
-16553.23227874064
 53
83.25300000000003
 43
42948.70868026104
 44
-5598.890416916454
 45
39.75591911914366
 46
0.0002898923439309
 79
     2
 49
26.86118323298722
 49
-16553.23227874064
 53
83.25300000000003
 43
42948.70868026104
 44
-5732.754284841988
 45
39.75591911914366
 46
0.0002898923439309
 79
     2
 49
26.86118323298722
 49
-16553.23227874064
 53
83.25300000000003
 43
42948.70868026104
 44
-5866.618152767521
 45
39.75591911914366
 46
0.0002898923439309
 79
     2
 49
26.86118323298722
 49
-16553.23227874064
 53
83.25300000000003
 43
42948.70868026104
 44
-6000.48202069303
 45
39.75591911914366
 46
0.0002898923439309
 79
     2
 49
26.86118323298722
 49
-16553.23227874064
 53
83.25300000000003
 43
42948.70868026104
 44
-6134.345888618535
 45
39.75591911914366
 46
0.0002898923439309
 79
     2
 49
26.86118323298722
 49
-16553.23227874064
 53
83.25300000000003
 43
42948.70868026104
 44
-6268.20975654407
 45
39.75591911914366
 46
0.0002898923439309
 79
     2
 49
26.86118323298722
 49
-16553.23227874064
 53
83.25300000000003
 43
42948.70868026104
 44
-6402.073624469577
 45
39.75591911914366
 46
0.0002898923439309
 79
     2
 49
26.86118323298722
 49
-16553.23227874064
 53
83.25300000000003
 43
42948.70868026104
 44
-6535.937492395112
 45
39.75591911914366
 46
0.0002898923439309
 79
     2
 49
26.86118323298722
 49
-16553.23227874064
 53
83.25300000000003
 43
42948.70868026104
 44
-6669.801360320619
 45
39.75591911914366
 46
0.0002898923439309
 79
     2
 49
26.86118323298722
 49
-16553.23227874064
 53
83.25300000000003
 43
42948.70868026104
 44
-6803.677127256617
 45
39.75591911914366
 46
0.0002898923439309
 79
     2
 49
26.86118323298722
 49
-16553.23227874064
 53
83.25300000000003
 43
42948.70868026104
 44
-6937.540995182151
 45
39.75591911914366
 46
0.0002898923439309
 79
     2
 49
26.86118323298722
 49
-16553.23227874064
 53
83.25300000000003
 43
42948.70868026104
 44
-7071.404863107684
 45
39.75591911914366
 46
0.0002898923439309
 79
     2
 49
26.86118323298722
 49
-16553.23227874064
 53
83.25300000000003
 43
42948.70868026104
 44
-7205.268731033192
 45
39.75591911914366
 46
0.0002898923439309
 79
     2
 49
26.86118323298722
 49
-16553.23227874064
 53
83.25300000000003
 43
42948.70868026104
 44
-7339.1325989587
 45
39.75591911914366
 46
0.0002898923439309
 79
     2
 49
26.86118323298722
 49
-16553.23227874064
 53
83.25300000000003
 43
42948.70868026104
 44
-7472.996466884232
 45
39.75591911914366
 46
0.0002898923439309
 79
     2
 49
26.86118323298722
 49
-16553.23227874064
 53
83.25300000000003
 43
42948.70868026104
 44
-7606.860334809766
 45
39.75591911914366
 46
0.0002898923439309
 79
     2
 49
26.86118323298722
 49
-16553.23227874064
 53
83.25300000000003
 43
42948.70868026104
 44
-7740.724202735274
 45
39.75591911914366
 46
0.0002898923439309
 79
     2
 49
26.86118323298722
 49
-16553.23227874064
 53
83.25300000000003
 43
42948.70868026104
 44
-7874.588070660782
 45
39.75591911914366
 46
0.0002898923439309
 79
     2
 49
26.86118323298722
 49
-16553.23227874064
 53
83.25300000000003
 43
42948.70868026104
 44
-8008.45193858629
 45
39.75591911914366
 46
0.0002898923439309
 79
     2
 49
26.86118323298722
 49
-16553.23227874064
 53
83.25300000000003
 43
42948.70868026104
 44
-8142.315806511822
 45
39.75591911914366
 46
0.0002898923439309
 79
     2
 49
26.86118323298722
 49
-16553.23227874064
 53
83.25300000000003
 43
42948.70868026104
 44
-8276.179674437356
 45
39.75591911914366
 46
0.0002898923439309
 79
     2
 49
26.86118323298722
 49
-16553.23227874064
 53
83.25300000000003
 43
42948.70868026104
 44
-8410.043542362862
 45
39.75591911914366
 46
0.0002898923439309
 79
     2
 49
26.86118323298722
 49
-16553.23227874064
 53
83.25300000000003
 43
42948.70868026104
 44
-8543.907410288372
 45
39.75591911914366
 46
0.0002898923439309
 79
     2
 49
26.86118323298722
 49
-16553.23227874064
 53
83.25300000000003
 43
42948.70868026104
 44
-8677.771278213906
 45
39.75591911914366
 46
0.0002898923439309
 79
     2
 49
26.86118323298722
 49
-16553.23227874064
 53
83.25300000000003
 43
42948.70868026104
 44
-8811.63514613944
 45
39.75591911914366
 46
0.0002898923439309
 79
     2
 49
26.86118323298722
 49
-16553.23227874064
 53
83.25300000000003
 43
42948.70868026104
 44
-8945.499014064946
 45
39.75591911914366
 46
0.0002898923439309
 79
     2
 49
26.86118323298722
 49
-16553.23227874064
 53
83.25300000000003
 43
42948.70868026104
 44
-9079.362881990455
 45
39.75591911914366
 46
0.0002898923439309
 79
     2
 49
26.86118323298722
 49
-16553.23227874064
 53
83.25300000000003
 43
42948.70868026104
 44
-9213.226749915987
 45
39.75591911914366
 46
0.0002898923439309
 79
     2
 49
26.86118323298722
 49
-16553.23227874064
 53
83.25300000000003
 43
42948.70868026104
 44
-9347.090617841521
 45
39.75591911914366
 46
0.0002898923439309
 79
     2
 49
26.86118323298722
 49
-16553.23227874064
 53
83.25300000000003
 43
42948.70868026104
 44
-9480.95448576703
 45
39.75591911914366
 46
0.0002898923439309
 79
     2
 49
26.86118323298722
 49
-16553.23227874064
 53
83.25300000000003
 43
42948.70868026104
 44
-9614.818353692536
 45
39.75591911914366
 46
0.0002898923439309
 79
     2
 49
26.86118323298722
 49
-16553.23227874064
 53
83.25300000000003
 43
42948.70868026104
 44
-9748.68222161807
 45
39.75591911914366
 46
0.0002898923439309
 79
     2
 49
26.86118323298722
 49
-16553.23227874064
 53
83.25300000000003
 43
42948.70868026104
 44
-9882.546089543605
 45
39.75591911914366
 46
0.0002898923439309
 79
     2
 49
26.86118323298722
 49
-16553.23227874064
 53
83.25300000000003
 43
42948.70868026104
 44
-10016.40995746911
 45
39.75591911914366
 46
0.0002898923439309
 79
     2
 49
26.86118323298722
 49
-16553.23227874064
 53
83.25300000000003
 43
42948.70868026104
 44
-10150.27382539462
 45
39.75591911914366
 46
0.0002898923439309
 79
     2
 49
26.86118323298722
 49
-16553.23227874064
 53
83.25300000000003
 43
42948.70868026104
 44
-10284.13769332015
 45
39.75591911914366
 46
0.0002898923439309
 79
     2
 49
26.86118323298722
 49
-16553.23227874064
 53
83.25300000000003
 43
42948.70868026104
 44
-10418.00156124566
 45
39.75591911914366
 46
0.0002898923439309
 79
     2
 49
26.86118323298722
 49
-16553.23227874064
 53
83.25300000000003
 43
42948.70868026104
 44
-10551.86542917119
 45
39.75591911914366
 46
0.0002898923439309
 79
     2
 49
26.86118323298722
 49
-16553.23227874064
 53
83.25300000000003
 43
42948.70868026104
 44
-10685.7292970967
 45
39.75591911914366
 46
0.0002898923439309
 79
     2
 49
26.86118323298722
 49
-16553.23227874064
 53
83.25300000000003
 43
42948.70868026104
 44
-10819.59316502221
 45
39.75591911914366
 46
0.0002898923439309
 79
     2
 49
26.86118323298722
 49
-16553.23227874064
 53
83.25300000000003
 43
42948.70868026104
 44
-10953.45703294774
 45
39.75591911914366
 46
0.0002898923439309
 79
     2
 49
26.86118323298722
 49
-16553.23227874064
 53
83.25300000000003
 43
42948.70868026104
 44
-11087.32090087328
 45
39.75591911914366
 46
0.0002898923439309
 79
     2
 49
26.86118323298722
 49
-16553.23227874064
 53
83.25300000000003
 43
42948.70868026104
 44
-11221.18476879878
 45
39.75591911914366
 46
0.0002898923439309
 79
     2
 49
26.86118323298722
 49
-16553.23227874064
 53
74.89100000000004
 43
42942.88816029351
 44
5097.459708184998
 45
39.75585674360782
 46
-0.0000110486508308
 79
     2
 49
13.20944850668065
 49
-1512.017376140759
 53
74.89100000000004
 43
42942.88816029351
 44
4963.595840259463
 45
39.75585674360782
 46
-0.0000110486508308
 79
     2
 49
13.20944850668065
 49
-1512.017376140759
 53
74.89100000000004
 43
42942.88816029351
 44
4829.731972333954
 45
39.75585674360782
 46
-0.0000110486508308
 79
     2
 49
13.20944850668065
 49
-1512.017376140759
 53
74.89100000000004
 43
42942.88816029351
 44
4695.868104408419
 45
39.75585674360782
 46
-0.0000110486508308
 79
     2
 49
13.20944850668065
 49
-1512.017376140759
 53
74.89100000000004
 43
42942.88816029351
 44
4562.004236482914
 45
39.75585674360782
 46
-0.0000110486508308
 79
     2
 49
13.20944850668065
 49
-1512.017376140759
 53
74.89100000000004
 43
42942.88816029351
 44
4428.14036855738
 45
39.75585674360782
 46
-0.0000110486508308
 79
     2
 49
13.20944850668065
 49
-1512.017376140759
 53
74.89100000000004
 43
42942.88816029351
 44
4294.276500631874
 45
39.75585674360782
 46
-0.0000110486508308
 79
     2
 49
13.20944850668065
 49
-1512.017376140759
 53
74.89100000000004
 43
42942.88816029351
 44
4160.412632706339
 45
39.75585674360782
 46
-0.0000110486508308
 79
     2
 49
13.20944850668065
 49
-1512.017376140759
 53
74.89100000000004
 43
42942.88816029351
 44
4026.552334483983
 45
39.75585674360782
 46
-0.0000110486508308
 79
     2
 49
13.20944850668065
 49
-1512.017376140759
 53
74.89100000000004
 43
42942.88816029351
 44
3892.688466558449
 45
39.75585674360782
 46
-0.0000110486508308
 79
     2
 49
13.20944850668065
 49
-1512.017376140759
 53
74.89100000000004
 43
42942.88816029351
 44
3758.824598632918
 45
39.75585674360782
 46
-0.0000110486508308
 79
     2
 49
13.20944850668065
 49
-1512.017376140759
 53
67.06200000000002
 43
42951.87060431648
 44
5136.888150328913
 45
39.75591328370574
 46
0.0002941157301779
 79
     2
 49
30.44290437825485
 49
-5783.884461102885
 53
67.06200000000002
 43
42951.87060431648
 44
5003.024401393516
 45
39.75591328370574
 46
0.0002941157301779
 79
     2
 49
30.44290437825485
 49
-5783.884461102885
 53
67.06200000000002
 43
42951.87060431648
 44
4869.160533468007
 45
39.75591328370574
 46
0.0002941157301779
 79
     2
 49
30.44290437825485
 49
-5783.884461102885
 53
67.06200000000002
 43
42951.87060431648
 44
4735.296665542472
 45
39.75591328370574
 46
0.0002941157301779
 79
     2
 49
30.44290437825485
 49
-5783.884461102885
 53
67.06200000000002
 43
42951.87060431648
 44
4601.432797616938
 45
39.75591328370574
 46
0.0002941157301779
 79
     2
 49
30.44290437825485
 49
-5783.884461102885
 53
67.06200000000002
 43
42951.87060431648
 44
4467.568929691433
 45
39.75591328370574
 46
0.0002941157301779
 79
     2
 49
30.44290437825485
 49
-5783.884461102885
 53
67.06200000000002
 43
42951.87060431648
 44
4333.705061765927
 45
39.75591328370574
 46
0.0002941157301779
 79
     2
 49
30.44290437825485
 49
-5783.884461102885
 53
67.06200000000002
 43
42951.87060431648
 44
4199.841193840389
 45
39.75591328370574
 46
0.0002941157301779
 79
     2
 49
30.44290437825485
 49
-5783.884461102885
 53
67.06200000000002
 43
42951.87060431648
 44
4065.977325914883
 45
39.75591328370574
 46
0.0002941157301779
 79
     2
 49
30.44290437825485
 49
-5783.884461102885
 53
67.06200000000002
 43
42951.87060431648
 44
3932.109888286196
 45
39.75591328370574
 46
0.0002941157301779
 79
     2
 49
30.44290437825485
 49
-5783.884461102885
 53
67.06200000000002
 43
42951.87060431648
 44
3798.246020360691
 45
39.75591328370574
 46
0.0002941157301779
 79
     2
 49
30.44290437825485
 49
-5783.884461102885
 53
67.06200000000002
 43
42951.87060431648
 44
3664.382152435156
 45
39.75591328370574
 46
0.0002941157301779
 79
     2
 49
30.44290437825485
 49
-5783.884461102885
 53
67.06200000000002
 43
42951.87060431648
 44
3530.51828450965
 45
39.75591328370574
 46
0.0002941157301779
 79
     2
 49
30.44290437825485
 49
-5783.884461102885
 53
67.06200000000002
 43
42951.87060431648
 44
3396.654416584141
 45
39.75591328370574
 46
0.0002941157301779
 79
     2
 49
30.44290437825485
 49
-5783.884461102885
 53
67.06200000000002
 43
42951.87060431648
 44
3262.790548658607
 45
39.75591328370574
 46
0.0002941157301779
 79
     2
 49
30.44290437825485
 49
-5783.884461102885
 53
67.06200000000002
 43
42951.87060431648
 44
3128.926680733098
 45
39.75591328370574
 46
0.0002941157301779
 79
     2
 49
30.44290437825485
 49
-5783.884461102885
 53
67.06200000000002
 43
42951.87060431648
 44
2995.062812807567
 45
39.75591328370574
 46
0.0002941157301779
 79
     2
 49
30.44290437825485
 49
-5783.884461102885
 53
67.06200000000002
 43
42951.87060431648
 44
2861.198944882032
 45
39.75591328370574
 46
0.0002941157301779
 79
     2
 49
30.44290437825485
 49
-5783.884461102885
 53
67.06200000000002
 43
42951.87060431648
 44
2727.335076956527
 45
39.75591328370574
 46
0.0002941157301779
 79
     2
 49
30.44290437825485
 49
-5783.884461102885
 53
67.06200000000002
 43
42951.87060431648
 44
2593.471209031018
 45
39.75591328370574
 46
0.0002941157301779
 79
     2
 49
30.44290437825485
 49
-5783.884461102885
 53
67.06200000000002
 43
42951.87060431648
 44
2459.607341105483
 45
39.75591328370574
 46
0.0002941157301779
 79
     2
 49
30.44290437825485
 49
-5783.884461102885
 53
67.06200000000002
 43
42951.87060431648
 44
2325.743473179949
 45
39.75591328370574
 46
0.0002941157301779
 79
     2
 49
30.44290437825485
 49
-5783.884461102885
 53
67.06200000000002
 43
42951.87060431648
 44
2191.879605254443
 45
39.75591328370574
 46
0.0002941157301779
 79
     2
 49
30.44290437825485
 49
-5783.884461102885
 53
67.06200000000002
 43
42951.87060431648
 44
2058.015737328934
 45
39.75591328370574
 46
0.0002941157301779
 79
     2
 49
30.44290437825485
 49
-5783.884461102885
 53
67.06200000000002
 43
42951.87060431648
 44
1924.151869403428
 45
39.75591328370574
 46
0.0002941157301779
 79
     2
 49
30.44290437825485
 49
-5783.884461102885
 53
67.06200000000002
 43
42951.87060431648
 44
1790.288001477894
 45
39.75591328370574
 46
0.0002941157301779
 79
     2
 49
30.44290437825485
 49
-5783.884461102885
 53
67.06200000000002
 43
42951.87060431648
 44
1656.424133552363
 45
39.75591328370574
 46
0.0002941157301779
 79
     2
 49
30.44290437825485
 49
-5783.884461102885
 53
67.06200000000002
 43
42951.87060431648
 44
1522.560265626854
 45
39.75591328370574
 46
0.0002941157301779
 79
     2
 49
30.44290437825485
 49
-5783.884461102885
 53
67.06200000000002
 43
42951.87060431648
 44
1388.696397701345
 45
39.75591328370574
 46
0.0002941157301779
 79
     2
 49
30.44290437825485
 49
-5783.884461102885
 53
67.06200000000002
 43
42951.87060431648
 44
1254.83252977581
 45
39.75591328370574
 46
0.0002941157301779
 79
     2
 49
30.44290437825485
 49
-5783.884461102885
 53
67.06200000000002
 43
42951.87060431648
 44
1120.968661850275
 45
39.75591328370574
 46
0.0002941157301779
 79
     2
 49
30.44290437825485
 49
-5783.884461102885
 53
67.06200000000002
 43
42951.87060431648
 44
987.10479392477
 45
39.75591328370574
 46
0.0002941157301779
 79
     2
 49
30.44290437825485
 49
-5783.884461102885
 53
67.06200000000002
 43
42951.87060431648
 44
853.2409259992645
 45
39.75591328370574
 46
0.0002941157301779
 79
     2
 49
30.44290437825485
 49
-5783.884461102885
 53
67.06200000000002
 43
42951.87060431648
 44
719.37705807373
 45
39.75591328370574
 46
0.0002941157301779
 79
     2
 49
30.44290437825485
 49
-5783.884461102885
 53
67.06200000000002
 43
42951.87060431648
 44
585.5131901481954
 45
39.75591328370574
 46
0.0002941157301779
 79
     2
 49
30.44290437825485
 49
-5783.884461102885
 53
67.06200000000002
 43
42951.87060431648
 44
451.6493222226863
 45
39.75591328370574
 46
0.0002941157301779
 79
     2
 49
30.44290437825485
 49
-5783.884461102885
 53
67.06200000000002
 43
42951.87060431648
 44
317.7854542971809
 45
39.75591328370574
 46
0.0002941157301779
 79
     2
 49
30.44290437825485
 49
-5783.884461102885
 53
67.06200000000002
 43
42951.87060431648
 44
183.9215863716717
 45
39.75591328370574
 46
0.0002941157301779
 79
     2
 49
30.44290437825485
 49
-5783.884461102885
 53
67.06200000000002
 43
42951.87060431648
 44
50.05771844614082
 45
39.75591328370574
 46
0.0002941157301779
 79
     2
 49
30.44290437825485
 49
-5783.884461102885
 53
67.06200000000002
 43
42951.87060431648
 44
-83.80614947939376
 45
39.75591328370574
 46
0.0002941157301779
 79
     2
 49
30.44290437825485
 49
-5783.884461102885
 53
52.43499999999998
 43
42928.17293365684
 44
5194.016132585043
 45
39.75587516365481
 46
-0.0001991838662986
 79
     2
 49
16.34697959064519
 49
-6569.897158549879
 53
52.43499999999998
 43
42928.17293365684
 44
5060.152740619943
 45
39.75587516365481
 46
-0.0001991838662986
 79
     2
 49
16.34697959064519
 49
-6569.897158549879
 53
52.43499999999998
 43
42928.17293365684
 44
4926.288872694408
 45
39.75587516365481
 46
-0.0001991838662986
 79
     2
 49
16.34697959064519
 49
-6569.897158549879
 53
52.43499999999998
 43
42928.17293365684
 44
4792.425004768873
 45
39.75587516365481
 46
-0.0001991838662986
 79
     2
 49
16.34697959064519
 49
-6569.897158549879
 53
52.43499999999998
 43
42928.17293365684
 44
4658.561136843368
 45
39.75587516365481
 46
-0.0001991838662986
 79
     2
 49
16.34697959064519
 49
-6569.897158549879
 53
52.43499999999998
 43
42928.17293365684
 44
4524.697268917859
 45
39.75587516365481
 46
-0.0001991838662986
 79
     2
 49
16.34697959064519
 49
-6569.897158549879
 53
52.43499999999998
 43
42928.17293365684
 44
4390.833400992328
 45
39.75587516365481
 46
-0.0001991838662986
 79
     2
 49
16.34697959064519
 49
-6569.897158549879
 53
52.43499999999998
 43
42928.17293365684
 44
4256.969533066818
 45
39.75587516365481
 46
-0.0001991838662986
 79
     2
 49
16.34697959064519
 49
-6569.897158549879
 53
52.43499999999998
 43
42928.17293365684
 44
4123.105665141284
 45
39.75587516365481
 46
-0.0001991838662986
 79
     2
 49
16.34697959064519
 49
-6569.897158549879
 53
52.43499999999998
 43
42928.17293365684
 44
3989.237037611566
 45
39.75587516365481
 46
-0.0001991838662986
 79
     2
 49
16.34697959064519
 49
-6569.897158549879
 53
52.43499999999998
 43
42928.17293365684
 44
3855.373169686057
 45
39.75587516365481
 46
-0.0001991838662986
 79
     2
 49
16.34697959064519
 49
-6569.897158549879
 53
52.43499999999998
 43
42928.17293365684
 44
3721.509301760551
 45
39.75587516365481
 46
-0.0001991838662986
 79
     2
 49
16.34697959064519
 49
-6569.897158549879
 53
52.43499999999998
 43
42928.17293365684
 44
3587.645433835017
 45
39.75587516365481
 46
-0.0001991838662986
 79
     2
 49
16.34697959064519
 49
-6569.897158549879
 53
52.43499999999998
 43
42928.17293365684
 44
3453.781565909483
 45
39.75587516365481
 46
-0.0001991838662986
 79
     2
 49
16.34697959064519
 49
-6569.897158549879
 53
52.43499999999998
 43
42928.17293365684
 44
3319.917697983977
 45
39.75587516365481
 46
-0.0001991838662986
 79
     2
 49
16.34697959064519
 49
-6569.897158549879
 53
52.43499999999998
 43
42928.17293365684
 44
3186.053830058471
 45
39.75587516365481
 46
-0.0001991838662986
 79
     2
 49
16.34697959064519
 49
-6569.897158549879
 53
52.43499999999998
 43
42928.17293365684
 44
3052.189962132937
 45
39.75587516365481
 46
-0.0001991838662986
 79
     2
 49
16.34697959064519
 49
-6569.897158549879
 53
52.43499999999998
 43
42928.17293365684
 44
2918.326094207428
 45
39.75587516365481
 46
-0.0001991838662986
 79
     2
 49
16.34697959064519
 49
-6569.897158549879
 53
52.43499999999998
 43
42928.17293365684
 44
2784.462226281893
 45
39.75587516365481
 46
-0.0001991838662986
 79
     2
 49
16.34697959064519
 49
-6569.897158549879
 53
52.43499999999998
 43
42928.17293365684
 44
2650.598358356388
 45
39.75587516365481
 46
-0.0001991838662986
 79
     2
 49
16.34697959064519
 49
-6569.897158549879
 53
52.43499999999998
 43
42928.17293365684
 44
2516.734490430879
 45
39.75587516365481
 46
-0.0001991838662986
 79
     2
 49
16.34697959064519
 49
-6569.897158549879
 53
52.43499999999998
 43
42928.17293365684
 44
2382.870622505348
 45
39.75587516365481
 46
-0.0001991838662986
 79
     2
 49
16.34697959064519
 49
-6569.897158549879
 53
52.43499999999998
 43
42928.17293365684
 44
2249.006754579813
 45
39.75587516365481
 46
-0.0001991838662986
 79
     2
 49
16.34697959064519
 49
-6569.897158549879
 53
52.43499999999998
 43
42928.17293365684
 44
2115.142886654304
 45
39.75587516365481
 46
-0.0001991838662986
 79
     2
 49
16.34697959064519
 49
-6569.897158549879
 53
52.43499999999998
 43
42928.17293365684
 44
1981.279018728769
 45
39.75587516365481
 46
-0.0001991838662986
 79
     2
 49
16.34697959064519
 49
-6569.897158549879
 53
52.43499999999998
 43
42928.17293365684
 44
1847.415150803264
 45
39.75587516365481
 46
-0.0001991838662986
 79
     2
 49
16.34697959064519
 49
-6569.897158549879
 53
52.43499999999998
 43
42928.17293365684
 44
1713.551282877729
 45
39.75587516365481
 46
-0.0001991838662986
 79
     2
 49
16.34697959064519
 49
-6569.897158549879
 53
52.43499999999998
 43
42928.17293365684
 44
1579.687414952223
 45
39.75587516365481
 46
-0.0001991838662986
 79
     2
 49
16.34697959064519
 49
-6569.897158549879
 53
52.43499999999998
 43
42928.17293365684
 44
1445.823547026714
 45
39.75587516365481
 46
-0.0001991838662986
 79
     2
 49
16.34697959064519
 49
-6569.897158549879
 53
52.43499999999998
 43
42928.17293365684
 44
1311.95967910118
 45
39.75587516365481
 46
-0.0001991838662986
 79
     2
 49
16.34697959064519
 49
-6569.897158549879
 53
52.43499999999998
 43
42928.17293365684
 44
1178.095811175645
 45
39.75587516365481
 46
-0.0001991838662986
 79
     2
 49
16.34697959064519
 49
-6569.897158549879
 53
52.43499999999998
 43
42928.17293365684
 44
1044.23194325014
 45
39.75587516365481
 46
-0.0001991838662986
 79
     2
 49
16.34697959064519
 49
-6569.897158549879
 53
52.43499999999998
 43
42928.17293365684
 44
910.3680753246308
 45
39.75587516365481
 46
-0.0001991838662986
 79
     2
 49
16.34697959064519
 49
-6569.897158549879
 53
52.43499999999998
 43
42928.17293365684
 44
776.5042073990962
 45
39.75587516365481
 46
-0.0001991838662986
 79
     2
 49
16.34697959064519
 49
-6569.897158549879
 53
52.43499999999998
 43
42928.17293365684
 44
642.6403394735907
 45
39.75587516365481
 46
-0.0001991838662986
 79
     2
 49
16.34697959064519
 49
-6569.897158549879
 53
52.43499999999998
 43
42928.17293365684
 44
508.7764715480561
 45
39.75587516365481
 46
-0.0001991838662986
 79
     2
 49
16.34697959064519
 49
-6569.897158549879
 53
52.43499999999998
 43
42928.17293365684
 44
374.9126036225507
 45
39.75587516365481
 46
-0.0001991838662986
 79
     2
 49
16.34697959064519
 49
-6569.897158549879
 53
52.43499999999998
 43
42928.17293365684
 44
241.0487356970161
 45
39.75587516365481
 46
-0.0001991838662986
 79
     2
 49
16.34697959064519
 49
-6569.897158549879
 53
52.43499999999998
 43
42928.17293365684
 44
107.184867771507
 45
39.75587516365481
 46
-0.0001991838662986
 79
     2
 49
16.34697959064519
 49
-6569.897158549879
 53
25.04599999999999
 43
42927.64088725165
 44
5090.335770609248
 45
39.75589259518684
 46
0.0003200987065788
 79
     2
 49
16.82972244591059
 49
-10734.28048182555
 53
25.04599999999999
 43
42927.64088725165
 44
4956.471902683742
 45
39.75589259518684
 46
0.0003200987065788
 79
     2
 49
16.82972244591059
 49
-10734.28048182555
 53
25.04599999999999
 43
42927.64088725165
 44
4822.608034758207
 45
39.75589259518684
 46
0.0003200987065788
 79
     2
 49
16.82972244591059
 49
-10734.28048182555
 53
25.04599999999999
 43
42927.64088725165
 44
4688.744166832698
 45
39.75589259518684
 46
0.0003200987065788
 79
     2
 49
16.82972244591059
 49
-10734.28048182555
 53
25.04599999999999
 43
42927.64088725165
 44
4554.880298907163
 45
39.75589259518684
 46
0.0003200987065788
 79
     2
 49
16.82972244591059
 49
-10734.28048182555
 53
25.04599999999999
 43
42927.64088725165
 44
4421.016430981654
 45
39.75589259518684
 46
0.0003200987065788
 79
     2
 49
16.82972244591059
 49
-10734.28048182555
 53
25.04599999999999
 43
42927.64088725165
 44
4287.152563056149
 45
39.75589259518684
 46
0.0003200987065788
 79
     2
 49
16.82972244591059
 49
-10734.28048182555
 53
25.04599999999999
 43
42927.64088725165
 44
4153.288695130615
 45
39.75589259518684
 46
0.0003200987065788
 79
     2
 49
16.82972244591059
 49
-10734.28048182555
 53
25.04599999999999
 43
42927.64088725165
 44
4019.42482720508
 45
39.75589259518684
 46
0.0003200987065788
 79
     2
 49
16.82972244591059
 49
-10734.28048182555
 53
25.04599999999999
 43
42927.64088725165
 44
3885.560959279575
 45
39.75589259518684
 46
0.0003200987065788
 79
     2
 49
16.82972244591059
 49
-10734.28048182555
 53
25.04599999999999
 43
42927.64088725165
 44
3751.69709135404
 45
39.75589259518684
 46
0.0003200987065788
 79
     2
 49
16.82972244591059
 49
-10734.28048182555
 53
25.04599999999999
 43
42927.64088725165
 44
3617.833223428531
 45
39.75589259518684
 46
0.0003200987065788
 79
     2
 49
16.82972244591059
 49
-10734.28048182555
 53
25.04599999999999
 43
42927.64088725165
 44
3483.969355503025
 45
39.75589259518684
 46
0.0003200987065788
 79
     2
 49
16.82972244591059
 49
-10734.28048182555
 53
25.04599999999999
 43
42927.64088725165
 44
3350.10548757749
 45
39.75589259518684
 46
0.0003200987065788
 79
     2
 49
16.82972244591059
 49
-10734.28048182555
 53
25.04599999999999
 43
42927.64088725165
 44
3216.241619651986
 45
39.75589259518684
 46
0.0003200987065788
 79
     2
 49
16.82972244591059
 49
-10734.28048182555
 53
25.04599999999999
 43
42927.64088725165
 44
3082.377751726451
 45
39.75589259518684
 46
0.0003200987065788
 79
     2
 49
16.82972244591059
 49
-10734.28048182555
 53
25.04599999999999
 43
42927.64088725165
 44
2948.513883800917
 45
39.75589259518684
 46
0.0003200987065788
 79
     2
 49
16.82972244591059
 49
-10734.28048182555
 53
25.04599999999999
 43
42927.64088725165
 44
2814.650015875407
 45
39.75589259518684
 46
0.0003200987065788
 79
     2
 49
16.82972244591059
 49
-10734.28048182555
 53
25.04599999999999
 43
42927.64088725165
 44
2680.786147949902
 45
39.75589259518684
 46
0.0003200987065788
 79
     2
 49
16.82972244591059
 49
-10734.28048182555
 53
25.04599999999999
 43
42927.64088725165
 44
2546.922280024367
 45
39.75589259518684
 46
0.0003200987065788
 79
     2
 49
16.82972244591059
 49
-10734.28048182555
 53
25.04599999999999
 43
42927.64088725165
 44
2413.058412098862
 45
39.75589259518684
 46
0.0003200987065788
 79
     2
 49
16.82972244591059
 49
-10734.28048182555
 53
25.04599999999999
 43
42927.64088725165
 44
2279.194544173327
 45
39.75589259518684
 46
0.0003200987065788
 79
     2
 49
16.82972244591059
 49
-10734.28048182555
 53
25.04599999999999
 43
42927.64088725165
 44
2145.330676247818
 45
39.75589259518684
 46
0.0003200987065788
 79
     2
 49
16.82972244591059
 49
-10734.28048182555
 53
25.04599999999999
 43
42927.64088725165
 44
2011.466808322312
 45
39.75589259518684
 46
0.0003200987065788
 79
     2
 49
16.82972244591059
 49
-10734.28048182555
 53
25.04599999999999
 43
42927.64088725165
 44
1877.602940396778
 45
39.75589259518684
 46
0.0003200987065788
 79
     2
 49
16.82972244591059
 49
-10734.28048182555
 53
25.04599999999999
 43
42927.64088725165
 44
1743.739072471243
 45
39.75589259518684
 46
0.0003200987065788
 79
     2
 49
16.82972244591059
 49
-10734.28048182555
 53
25.04599999999999
 43
42927.64088725165
 44
1609.875204545738
 45
39.75589259518684
 46
0.0003200987065788
 79
     2
 49
16.82972244591059
 49
-10734.28048182555
 53
25.04599999999999
 43
42927.64088725165
 44
1476.011336620232
 45
39.75589259518684
 46
0.0003200987065788
 79
     2
 49
16.82972244591059
 49
-10734.28048182555
 53
25.04599999999999
 43
42927.64088725165
 44
1342.147468694694
 45
39.75589259518684
 46
0.0003200987065788
 79
     2
 49
16.82972244591059
 49
-10734.28048182555
 53
25.04599999999999
 43
42927.64088725165
 44
1208.283600769159
 45
39.75589259518684
 46
0.0003200987065788
 79
     2
 49
16.82972244591059
 49
-10734.28048182555
 53
25.04599999999999
 43
42927.64088725165
 44
1074.419732843654
 45
39.75589259518684
 46
0.0003200987065788
 79
     2
 49
16.82972244591059
 49
-10734.28048182555
 53
25.04599999999999
 43
42927.64088725165
 44
940.5558649181449
 45
39.75589259518684
 46
0.0003200987065788
 79
     2
 49
16.82972244591059
 49
-10734.28048182555
 53
25.04599999999999
 43
42927.64088725165
 44
806.6919969926139
 45
39.75589259518684
 46
0.0003200987065788
 79
     2
 49
16.82972244591059
 49
-10734.28048182555
 53
25.04599999999999
 43
42927.64088725165
 44
672.8281290670793
 45
39.75589259518684
 46
0.0003200987065788
 79
     2
 49
16.82972244591059
 49
-10734.28048182555
 53
14.07599999999998
 43
42938.13912242191
 44
5206.97367903981
 45
39.75585659252739
 46
-0.0002922356444212
 79
     2
 49
9.670087838729893
 49
-3843.073153322045
 53
14.07599999999998
 43
42938.13912242191
 44
5073.109573134058
 45
39.75585659252739
 46
-0.0002922356444212
 79
     2
 49
9.670087838729893
 49
-3843.073153322045
 53
14.07599999999998
 43
42938.13912242191
 44
4939.245705208548
 45
39.75585659252739
 46
-0.0002922356444212
 79
     2
 49
9.670087838729893
 49
-3843.073153322045
 53
14.07599999999998
 43
42938.13912242191
 44
4805.381837283044
 45
39.75585659252739
 46
-0.0002922356444212
 79
     2
 49
9.670087838729893
 49
-3843.073153322045
 53
14.07599999999998
 43
42938.13912242191
 44
4671.517969357509
 45
39.75585659252739
 46
-0.0002922356444212
 79
     2
 49
9.670087838729893
 49
-3843.073153322045
 53
14.07599999999998
 43
42938.13912242191
 44
4537.654101431978
 45
39.75585659252739
 46
-0.0002922356444212
 79
     2
 49
9.670087838729893
 49
-3843.073153322045
 53
14.07599999999998
 43
42938.13912242191
 44
4403.790233506469
 45
39.75585659252739
 46
-0.0002922356444212
 79
     2
 49
9.670087838729893
 49
-3843.073153322045
 98
        1
 10
4902.427231221135
 20
985.775114237972
  0
HATCH
  5
5A9F
330
67
100
AcDbEntity
  8
F_01 sichtbar
370
    13
100
AcDbHatch
 10
0.0
 20
0.0
 30
0.0
210
0.0
220
0.0
230
1.0
  2
BATT_INSULATION
 70
     0
 71
     0
 91
        1
 92
        1
 93
        4
 72
     1
 10
440.8813912467012
 20
800.1380006172785
 11
393.381391246714
 21
786.0634454884903
 72
     1
 10
393.381391246714
 20
786.0634454884903
 11
393.3813912467158
 21
658.1241680878056
 72
     1
 10
393.3813912467158
 20
658.1241680878056
 11
440.8813912467012
 21
658.1241680878056
 72
     1
 10
440.8813912467012
 20
658.1241680878056
 11
440.8813912467012
 21
800.1380006172785
 97
        0
 75
     0
 76
     2
 52
270.0
 41
46.15373762819272
 77
     0
 78
   528
 53
90.0
 43
-1377.238447305139
 44
17305.44924913575
 45
51.9229548317168
 46
15.42047143269309
 79
     2
 49
0.0
 49
-15.42047143269309
 53
75.92359999999998
 43
-1371.469230101613
 44
17297.73899034252
 45
-0.0000056969334701
 46
15.42045346660799
 79
     2
 49
3.750821949567946
 49
-1490.646556440059
 53
75.92359999999998
 43
-1319.546275269891
 44
17297.73899034252
 45
-0.0000056969334701
 46
15.42045346660799
 79
     2
 49
3.750821949567946
 49
-1490.646556440059
 53
75.92359999999998
 43
-1267.623320438179
 44
17297.73899034252
 45
-0.0000056969334701
 46
15.42045346660799
 79
     2
 49
3.750821949567946
 49
-1490.646556440059
 53
75.92359999999998
 43
-1215.700365606457
 44
17297.73899034252
 45
-0.0000056969334701
 46
15.42045346660799
 79
     2
 49
3.750821949567946
 49
-1490.646556440059
 53
75.92359999999998
 43
-1163.777410774744
 44
17297.73899034252
 45
-0.0000056969334701
 46
15.42045346660799
 79
     2
 49
3.750821949567946
 49
-1490.646556440059
 53
75.92359999999998
 43
-1111.854455943034
 44
17297.73899034252
 45
-0.0000056969334701
 46
15.42045346660799
 79
     2
 49
3.750821949567946
 49
-1490.646556440059
 53
75.92359999999998
 43
-1059.93150111131
 44
17297.73899034252
 45
-0.0000056969334701
 46
15.42045346660799
 79
     2
 49
3.750821949567946
 49
-1490.646556440059
 53
64.95440000000001
 43
-1328.078716745222
 44
17299.5351553498
 45
0.00001650432676
 46
15.42046743135135
 79
     2
 49
6.527892342656226
 49
-4163.599702041419
 53
64.95440000000001
 43
-1276.1557619135
 44
17299.5351553498
 45
0.00001650432676
 46
15.42046743135135
 79
     2
 49
6.527892342656226
 49
-4163.599702041419
 53
64.95440000000001
 43
-1224.232807081789
 44
17299.5351553498
 45
0.00001650432676
 46
15.42046743135135
 79
     2
 49
6.527892342656226
 49
-4163.599702041419
 53
64.95440000000001
 43
-1172.309852250066
 44
17299.5351553498
 45
0.00001650432676
 46
15.42046743135135
 79
     2
 49
6.527892342656226
 49
-4163.599702041419
 53
64.95440000000001
 43
-1120.386897418349
 44
17299.5351553498
 45
0.00001650432676
 46
15.42046743135135
 79
     2
 49
6.527892342656226
 49
-4163.599702041419
 53
64.95440000000001
 43
-1068.463942586632
 44
17299.5351553498
 45
0.00001650432676
 46
15.42046743135135
 79
     2
 49
6.527892342656226
 49
-4163.599702041419
 53
64.95440000000001
 43
-1016.540987754921
 44
17299.5351553498
 45
0.00001650432676
 46
15.42046743135135
 79
     2
 49
6.527892342656226
 49
-4163.599702041419
 53
64.95440000000001
 43
-964.6180329231974
 44
17299.5351553498
 45
0.00001650432676
 46
15.42046743135135
 79
     2
 49
6.527892342656226
 49
-4163.599702041419
 53
64.95440000000001
 43
-912.6964627036176
 44
17299.5351553498
 45
0.00001650432676
 46
15.42046743135135
 79
     2
 49
6.527892342656226
 49
-4163.599702041419
 53
64.95440000000001
 43
-860.773507871896
 44
17299.5351553498
 45
0.00001650432676
 46
15.42046743135135
 79
     2
 49
6.527892342656226
 49
-4163.599702041419
 53
64.95440000000001
 43
-808.850553040178
 44
17299.5351553498
 45
0.00001650432676
 46
15.42046743135135
 79
     2
 49
6.527892342656226
 49
-4163.599702041419
 53
64.95440000000001
 43
-756.9275982084619
 44
17299.5351553498
 45
0.00001650432676
 46
15.42046743135135
 79
     2
 49
6.527892342656226
 49
-4163.599702041419
 53
64.95440000000001
 43
-705.0046433767438
 44
17299.5351553498
 45
0.00001650432676
 46
15.42046743135135
 79
     2
 49
6.527892342656226
 49
-4163.599702041419
 53
64.95440000000001
 43
-653.0816885450331
 44
17299.5351553498
 45
0.00001650432676
 46
15.42046743135135
 79
     2
 49
6.527892342656226
 49
-4163.599702041419
 53
64.95440000000001
 43
-601.1587337133151
 44
17299.5351553498
 45
0.00001650432676
 46
15.42046743135135
 79
     2
 49
6.527892342656226
 49
-4163.599702041419
 53
64.95440000000001
 43
-549.2357788815934
 44
17299.5351553498
 45
0.00001650432676
 46
15.42046743135135
 79
     2
 49
6.527892342656226
 49
-4163.599702041419
 53
64.95440000000001
 43
-497.3128240498808
 44
17299.5351553498
 45
0.00001650432676
 46
15.42046743135135
 79
     2
 49
6.527892342656226
 49
-4163.599702041419
 53
64.95440000000001
 43
-445.3898692181646
 44
17299.5351553498
 45
0.00001650432676
 46
15.42046743135135
 79
     2
 49
6.527892342656226
 49
-4163.599702041419
 53
64.95440000000001
 43
-393.4669143864466
 44
17299.5351553498
 45
0.00001650432676
 46
15.42046743135135
 79
     2
 49
6.527892342656226
 49
-4163.599702041419
 53
64.95440000000001
 43
-341.543959554725
 44
17299.5351553498
 45
0.00001650432676
 46
15.42046743135135
 79
     2
 49
6.527892342656226
 49
-4163.599702041419
 53
64.95440000000001
 43
-289.6210047230125
 44
17299.5351553498
 45
0.00001650432676
 46
15.42046743135135
 79
     2
 49
6.527892342656226
 49
-4163.599702041419
 53
64.95440000000001
 43
-237.6980498912963
 44
17299.5351553498
 45
0.00001650432676
 46
15.42046743135135
 79
     2
 49
6.527892342656226
 49
-4163.599702041419
 53
64.95440000000001
 43
-185.77509505958
 44
17299.5351553498
 45
0.00001650432676
 46
15.42046743135135
 79
     2
 49
6.527892342656226
 49
-4163.599702041419
 53
64.95440000000001
 43
-133.8521402278566
 44
17299.5351553498
 45
0.00001650432676
 46
15.42046743135135
 79
     2
 49
6.527892342656226
 49
-4163.599702041419
 53
64.95440000000001
 43
-81.92918539614401
 44
17299.5351553498
 45
0.00001650432676
 46
15.42046743135135
 79
     2
 49
6.527892342656226
 49
-4163.599702041419
 53
64.95440000000001
 43
-30.00623056443146
 44
17299.5351553498
 45
0.00001650432676
 46
15.42046743135135
 79
     2
 49
6.527892342656226
 49
-4163.599702041419
 53
64.95440000000001
 43
21.91672426728837
 44
17299.5351553498
 45
0.00001650432676
 46
15.42046743135135
 79
     2
 49
6.527892342656226
 49
-4163.599702041419
 53
64.95440000000001
 43
73.83967909900093
 44
17299.5351553498
 45
0.00001650432676
 46
15.42046743135135
 79
     2
 49
6.527892342656226
 49
-4163.599702041419
 53
64.95440000000001
 43
125.7626339307244
 44
17299.5351553498
 45
0.00001650432676
 46
15.42046743135135
 79
     2
 49
6.527892342656226
 49
-4163.599702041419
 53
64.95440000000001
 43
177.685588762446
 44
17299.5351553498
 45
0.00001650432676
 46
15.42046743135135
 79
     2
 49
6.527892342656226
 49
-4163.599702041419
 53
64.95440000000001
 43
229.6085435941568
 44
17299.5351553498
 45
0.00001650432676
 46
15.42046743135135
 79
     2
 49
6.527892342656226
 49
-4163.599702041419
 53
64.95440000000001
 43
281.5314984258693
 44
17299.5351553498
 45
0.00001650432676
 46
15.42046743135135
 79
     2
 49
6.527892342656226
 49
-4163.599702041419
 53
64.95440000000001
 43
333.4544532575928
 44
17299.5351553498
 45
0.00001650432676
 46
15.42046743135135
 79
     2
 49
6.527892342656226
 49
-4163.599702041419
 53
64.95440000000001
 43
385.377408089309
 44
17299.5351553498
 45
0.00001650432676
 46
15.42046743135135
 79
     2
 49
6.527892342656226
 49
-4163.599702041419
 53
37.5647
 43
-1370.55686301618
 44
17301.37719717228
 45
0.0000034821466346
 46
15.42046066973198
 79
     2
 49
6.340646629098716
 49
-2548.323746346614
 53
37.5647
 43
-1318.633815876985
 44
17301.37719717228
 45
0.0000034821466346
 46
15.42046066973198
 79
     2
 49
6.340646629098716
 49
-2548.323746346614
 53
37.5647
 43
-1266.710861045269
 44
17301.37719717228
 45
0.0000034821466346
 46
15.42046066973198
 79
     2
 49
6.340646629098716
 49
-2548.323746346614
 53
37.5647
 43
-1214.787906213556
 44
17301.37719717228
 45
0.0000034821466346
 46
15.42046066973198
 79
     2
 49
6.340646629098716
 49
-2548.323746346614
 53
37.5647
 43
-1162.864951381834
 44
17301.37719717228
 45
0.0000034821466346
 46
15.42046066973198
 79
     2
 49
6.340646629098716
 49
-2548.323746346614
 53
37.5647
 43
-1110.941996550111
 44
17301.37719717228
 45
0.0000034821466346
 46
15.42046066973198
 79
     2
 49
6.340646629098716
 49
-2548.323746346614
 53
37.5647
 43
-1059.0190417184
 44
17301.37719717228
 45
0.0000034821466346
 46
15.42046066973198
 79
     2
 49
6.340646629098716
 49
-2548.323746346614
 53
37.5647
 43
-1007.096086886688
 44
17301.37719717228
 45
0.0000034821466346
 46
15.42046066973198
 79
     2
 49
6.340646629098716
 49
-2548.323746346614
 53
37.5647
 43
-955.1731320549661
 44
17301.37719717228
 45
0.0000034821466346
 46
15.42046066973198
 79
     2
 49
6.340646629098716
 49
-2548.323746346614
 53
37.5647
 43
-903.2487926111226
 44
17301.37719717228
 45
0.0000034821466346
 46
15.42046066973198
 79
     2
 49
6.340646629098716
 49
-2548.323746346614
 53
37.5647
 43
-851.32583777941
 44
17301.37719717228
 45
0.0000034821466346
 46
15.42046066973198
 79
     2
 49
6.340646629098716
 49
-2548.323746346614
 53
37.5647
 43
-799.4028829476883
 44
17301.37719717228
 45
0.0000034821466346
 46
15.42046066973198
 79
     2
 49
6.340646629098716
 49
-2548.323746346614
 53
37.5647
 43
-747.4799281159648
 44
17301.37719717228
 45
0.0000034821466346
 46
15.42046066973198
 79
     2
 49
6.340646629098716
 49
-2548.323746346614
 53
37.5647
 43
-695.556973284254
 44
17301.37719717228
 45
0.0000034821466346
 46
15.42046066973198
 79
     2
 49
6.340646629098716
 49
-2548.323746346614
 53
37.5647
 43
-643.6340184525415
 44
17301.37719717228
 45
0.0000034821466346
 46
15.42046066973198
 79
     2
 49
6.340646629098716
 49
-2548.323746346614
 53
37.5647
 43
-591.7110636208199
 44
17301.37719717228
 45
0.0000034821466346
 46
15.42046066973198
 79
     2
 49
6.340646629098716
 49
-2548.323746346614
 53
37.5647
 43
-539.7881087891018
 44
17301.37719717228
 45
0.0000034821466346
 46
15.42046066973198
 79
     2
 49
6.340646629098716
 49
-2548.323746346614
 53
37.5647
 43
-487.8651539573857
 44
17301.37719717228
 45
0.0000034821466346
 46
15.42046066973198
 79
     2
 49
6.340646629098716
 49
-2548.323746346614
 53
37.5647
 43
-435.9421991256731
 44
17301.37719717228
 45
0.0000034821466346
 46
15.42046066973198
 79
     2
 49
6.340646629098716
 49
-2548.323746346614
 53
37.5647
 43
-384.0192442939515
 44
17301.37719717228
 45
0.0000034821466346
 46
15.42046066973198
 79
     2
 49
6.340646629098716
 49
-2548.323746346614
 53
37.5647
 43
-332.0962894622389
 44
17301.37719717228
 45
0.0000034821466346
 46
15.42046066973198
 79
     2
 49
6.340646629098716
 49
-2548.323746346614
 53
37.5647
 43
-280.1733346305173
 44
17301.37719717228
 45
0.0000034821466346
 46
15.42046066973198
 79
     2
 49
6.340646629098716
 49
-2548.323746346614
 53
37.5647
 43
-228.2503797988047
 44
17301.37719717228
 45
0.0000034821466346
 46
15.42046066973198
 79
     2
 49
6.340646629098716
 49
-2548.323746346614
 53
37.5647
 43
-176.3274249670867
 44
17301.37719717228
 45
0.0000034821466346
 46
15.42046066973198
 79
     2
 49
6.340646629098716
 49
-2548.323746346614
 53
37.5647
 43
-124.4044701353705
 44
17301.37719717228
 45
0.0000034821466346
 46
15.42046066973198
 79
     2
 49
6.340646629098716
 49
-2548.323746346614
 53
37.5647
 43
-72.48151530364885
 44
17301.37719717228
 45
0.0000034821466346
 46
15.42046066973198
 79
     2
 49
6.340646629098716
 49
-2548.323746346614
 53
37.5647
 43
-20.55856047193629
 44
17301.37719717228
 45
0.0000034821466346
 46
15.42046066973198
 79
     2
 49
6.340646629098716
 49
-2548.323746346614
 53
37.5647
 43
31.36439435977445
 44
17301.37719717228
 45
0.0000034821466346
 46
15.42046066973198
 79
     2
 49
6.340646629098716
 49
-2548.323746346614
 53
37.5647
 43
83.28734919149793
 44
17301.37719717228
 45
0.0000034821466346
 46
15.42046066973198
 79
     2
 49
6.340646629098716
 49
-2548.323746346614
 53
37.5647
 43
135.2103040232141
 44
17301.37719717228
 45
0.0000034821466346
 46
15.42046066973198
 79
     2
 49
6.340646629098716
 49
-2548.323746346614
 53
37.5647
 43
187.1332588549321
 44
17301.37719717228
 45
0.0000034821466346
 46
15.42046066973198
 79
     2
 49
6.340646629098716
 49
-2548.323746346614
 53
37.5647
 43
239.0562136866538
 44
17301.37719717228
 45
0.0000034821466346
 46
15.42046066973198
 79
     2
 49
6.340646629098716
 49
-2548.323746346614
 53
37.5647
 43
290.9791685183627
 44
17301.37719717228
 45
0.0000034821466346
 46
15.42046066973198
 79
     2
 49
6.340646629098716
 49
-2548.323746346614
 53
37.5647
 43
342.9021233500789
 44
17301.37719717228
 45
0.0000034821466346
 46
15.42046066973198
 79
     2
 49
6.340646629098716
 49
-2548.323746346614
 53
37.5647
 43
394.8250781817987
 44
17301.37719717228
 45
0.0000034821466346
 46
15.42046066973198
 79
     2
 49
6.340646629098716
 49
-2548.323746346614
 53
37.5647
 43
446.7480330135113
 44
17301.37719717228
 45
0.0000034821466346
 46
15.42046066973198
 79
     2
 49
6.340646629098716
 49
-2548.323746346614
 53
37.5647
 43
498.6709878452274
 44
17301.37719717228
 45
0.0000034821466346
 46
15.42046066973198
 79
     2
 49
6.340646629098716
 49
-2548.323746346614
 53
37.5647
 43
550.5939426769473
 44
17301.37719717228
 45
0.0000034821466346
 46
15.42046066973198
 79
     2
 49
6.340646629098716
 49
-2548.323746346614
 53
37.5647
 43
602.5168975086635
 44
17301.37719717228
 45
0.0000034821466346
 46
15.42046066973198
 79
     2
 49
6.340646629098716
 49
-2548.323746346614
 53
22.93839999999997
 43
-1354.246824444439
 44
17291.44950513159
 45
0.0000064260253368
 46
15.42047545591863
 79
     2
 49
11.80815684974733
 49
-2243.446094003543
 53
22.93839999999997
 43
-1302.324008073934
 44
17291.44950513159
 45
0.0000064260253368
 46
15.42047545591863
 79
     2
 49
11.80815684974733
 49
-2243.446094003543
 53
22.93839999999997
 43
-1250.401053242212
 44
17291.44950513159
 45
0.0000064260253368
 46
15.42047545591863
 79
     2
 49
11.80815684974733
 49
-2243.446094003543
 53
22.93839999999997
 43
-1198.4780984105
 44
17291.44950513159
 45
0.0000064260253368
 46
15.42047545591863
 79
     2
 49
11.80815684974733
 49
-2243.446094003543
 53
22.93839999999997
 43
-1146.555143578787
 44
17291.44950513159
 45
0.0000064260253368
 46
15.42047545591863
 79
     2
 49
11.80815684974733
 49
-2243.446094003543
 53
22.93839999999997
 43
-1094.632188747066
 44
17291.44950513159
 45
0.0000064260253368
 46
15.42047545591863
 79
     2
 49
11.80815684974733
 49
-2243.446094003543
 53
22.93839999999997
 43
-1042.709233915349
 44
17291.44950513159
 45
0.0000064260253368
 46
15.42047545591863
 79
     2
 49
11.80815684974733
 49
-2243.446094003543
 53
22.93839999999997
 43
-990.7862790836317
 44
17291.44950513159
 45
0.0000064260253368
 46
15.42047545591863
 79
     2
 49
11.80815684974733
 49
-2243.446094003543
 53
22.93839999999997
 43
-938.863324251919
 44
17291.44950513159
 45
0.0000064260253368
 46
15.42047545591863
 79
     2
 49
11.80815684974733
 49
-2243.446094003543
 53
22.93839999999997
 43
-886.938061733319
 44
17291.44950513159
 45
0.0000064260253368
 46
15.42047545591863
 79
     2
 49
11.80815684974733
 49
-2243.446094003543
 53
22.93839999999997
 43
-835.0151069016028
 44
17291.44950513159
 45
0.0000064260253368
 46
15.42047545591863
 79
     2
 49
11.80815684974733
 49
-2243.446094003543
 53
22.93839999999997
 43
-783.0921520698794
 44
17291.44950513159
 45
0.0000064260253368
 46
15.42047545591863
 79
     2
 49
11.80815684974733
 49
-2243.446094003543
 53
22.93839999999997
 43
-731.1691972381686
 44
17291.44950513159
 45
0.0000064260253368
 46
15.42047545591863
 79
     2
 49
11.80815684974733
 49
-2243.446094003543
 53
22.93839999999997
 43
-679.246242406456
 44
17291.44950513159
 45
0.0000064260253368
 46
15.42047545591863
 79
     2
 49
11.80815684974733
 49
-2243.446094003543
 53
22.93839999999997
 43
-627.3232875747344
 44
17291.44950513159
 45
0.0000064260253368
 46
15.42047545591863
 79
     2
 49
11.80815684974733
 49
-2243.446094003543
 53
22.93839999999997
 43
-575.4003327430163
 44
17291.44950513159
 45
0.0000064260253368
 46
15.42047545591863
 79
     2
 49
11.80815684974733
 49
-2243.446094003543
 53
22.93839999999997
 43
-523.4773779113002
 44
17291.44950513159
 45
0.0000064260253368
 46
15.42047545591863
 79
     2
 49
11.80815684974733
 49
-2243.446094003543
 53
22.93839999999997
 43
-471.5544230795821
 44
17291.44950513159
 45
0.0000064260253368
 46
15.42047545591863
 79
     2
 49
11.80815684974733
 49
-2243.446094003543
 53
22.93839999999997
 43
-419.6314682478714
 44
17291.44950513159
 45
0.0000064260253368
 46
15.42047545591863
 79
     2
 49
11.80815684974733
 49
-2243.446094003543
 53
22.93839999999997
 43
-367.7085134161534
 44
17291.44950513159
 45
0.0000064260253368
 46
15.42047545591863
 79
     2
 49
11.80815684974733
 49
-2243.446094003543
 53
22.93839999999997
 43
-315.7855585844318
 44
17291.44950513159
 45
0.0000064260253368
 46
15.42047545591863
 79
     2
 49
11.80815684974733
 49
-2243.446094003543
 53
22.93839999999997
 43
-263.8626037527192
 44
17291.44950513159
 45
0.0000064260253368
 46
15.42047545591863
 79
     2
 49
11.80815684974733
 49
-2243.446094003543
 53
22.93839999999997
 43
-211.939648921003
 44
17291.44950513159
 45
0.0000064260253368
 46
15.42047545591863
 79
     2
 49
11.80815684974733
 49
-2243.446094003543
 53
22.93839999999997
 43
-160.016694089285
 44
17291.44950513159
 45
0.0000064260253368
 46
15.42047545591863
 79
     2
 49
11.80815684974733
 49
-2243.446094003543
 53
22.93839999999997
 43
-108.0937392575633
 44
17291.44950513159
 45
0.0000064260253368
 46
15.42047545591863
 79
     2
 49
11.80815684974733
 49
-2243.446094003543
 53
22.93839999999997
 43
-56.17078442585079
 44
17291.44950513159
 45
0.0000064260253368
 46
15.42047545591863
 79
     2
 49
11.80815684974733
 49
-2243.446094003543
 53
22.93839999999997
 43
-4.247829594129143
 44
17291.44950513159
 45
0.0000064260253368
 46
15.42047545591863
 79
     2
 49
11.80815684974733
 49
-2243.446094003543
 53
22.93839999999997
 43
47.67512523758341
 44
17291.44950513159
 45
0.0000064260253368
 46
15.42047545591863
 79
     2
 49
11.80815684974733
 49
-2243.446094003543
 53
22.93839999999997
 43
99.59808006930508
 44
17291.44950513159
 45
0.0000064260253368
 46
15.42047545591863
 79
     2
 49
11.80815684974733
 49
-2243.446094003543
 53
22.93839999999997
 43
151.5210349010158
 44
17291.44950513159
 45
0.0000064260253368
 46
15.42047545591863
 79
     2
 49
11.80815684974733
 49
-2243.446094003543
 53
22.93839999999997
 43
203.4439897327284
 44
17291.44950513159
 45
0.0000064260253368
 46
15.42047545591863
 79
     2
 49
11.80815684974733
 49
-2243.446094003543
 53
22.93839999999997
 43
255.3669445644518
 44
17291.44950513159
 45
0.0000064260253368
 46
15.42047545591863
 79
     2
 49
11.80815684974733
 49
-2243.446094003543
 53
22.93839999999997
 43
307.289899396168
 44
17291.44950513159
 45
0.0000064260253368
 46
15.42047545591863
 79
     2
 49
11.80815684974733
 49
-2243.446094003543
 53
22.93839999999997
 43
359.2128542278842
 44
17291.44950513159
 45
0.0000064260253368
 46
15.42047545591863
 79
     2
 49
11.80815684974733
 49
-2243.446094003543
 53
22.93839999999997
 43
411.1358090596004
 44
17291.44950513159
 45
0.0000064260253368
 46
15.42047545591863
 79
     2
 49
11.80815684974733
 49
-2243.446094003543
 53
22.93839999999997
 43
463.0587638913202
 44
17291.44950513159
 45
0.0000064260253368
 46
15.42047545591863
 79
     2
 49
11.80815684974733
 49
-2243.446094003543
 53
22.93839999999997
 43
514.9817187230328
 44
17291.44950513159
 45
0.0000064260253368
 46
15.42047545591863
 79
     2
 49
11.80815684974733
 49
-2243.446094003543
 53
22.93839999999997
 43
566.904673554749
 44
17291.44950513159
 45
0.0000064260253368
 46
15.42047545591863
 79
     2
 49
11.80815684974733
 49
-2243.446094003543
 53
22.93839999999997
 43
618.8276283864688
 44
17291.44950513159
 45
0.0000064260253368
 46
15.42047545591863
 79
     2
 49
11.80815684974733
 49
-2243.446094003543
 53
22.93839999999997
 43
670.7505832181814
 44
17291.44950513159
 45
0.0000064260253368
 46
15.42047545591863
 79
     2
 49
11.80815684974733
 49
-2243.446094003543
 53
15.10899999999998
 43
-1333.025705112899
 44
17298.20052771881
 45
51.92292317524827
 46
0.0000001396797961
 79
     2
 49
5.123664875318557
 49
-586.4794671091432
 53
15.10899999999998
 43
-1333.025705112899
 44
17313.62099915151
 45
51.92292317524827
 46
0.0000001396797961
 79
     2
 49
5.123664875318557
 49
-586.4794671091432
 53
15.10899999999998
 43
-1333.025705112899
 44
17329.0414705842
 45
51.92292317524827
 46
0.0000001396797961
 79
     2
 49
5.123664875318557
 49
-586.4794671091432
 53
15.10899999999998
 43
-1333.025705112899
 44
17344.46203432436
 45
51.92292317524827
 46
0.0000001396797961
 79
     2
 49
5.123664875318557
 49
-586.4794671091432
 53
15.10899999999998
 43
-1333.025705112899
 44
17359.88245960332
 45
51.92292317524827
 46
0.0000001396797961
 79
     2
 49
5.123664875318557
 49
-586.4794671091432
 53
15.10899999999998
 43
-1333.025705112899
 44
17375.30288488227
 45
51.92292317524827
 46
0.0000001396797961
 79
     2
 49
5.123664875318557
 49
-586.4794671091432
 53
15.10899999999998
 43
-1333.025705112899
 44
17390.72331016122
 45
51.92292317524827
 46
0.0000001396797961
 79
     2
 49
5.123664875318557
 49
-586.4794671091432
 53
15.10899999999998
 43
-1333.025705112899
 44
17406.14373544019
 45
51.92292317524827
 46
0.0000001396797961
 79
     2
 49
5.123664875318557
 49
-586.4794671091432
 53
15.10899999999998
 43
-1333.025705112899
 44
17421.56416071914
 45
51.92292317524827
 46
0.0000001396797961
 79
     2
 49
5.123664875318557
 49
-586.4794671091432
 53
15.10899999999998
 43
-1333.025705112899
 44
17436.98458599809
 45
51.92292317524827
 46
0.0000001396797961
 79
     2
 49
5.123664875318557
 49
-586.4794671091432
 53
6.747399999999972
 43
-1343.372173091953
 44
17296.05105585
 45
51.92304656764545
 46
0.0000050432755578
 79
     2
 49
10.4188831934011
 49
-6420.647671753949
 53
6.747399999999972
 43
-1343.372173091953
 44
17311.47152728268
 45
51.92304656764545
 46
0.0000050432755578
 79
     2
 49
10.4188831934011
 49
-6420.647671753949
 53
6.747399999999972
 43
-1343.372173091953
 44
17326.89199871536
 45
51.92304656764545
 46
0.0000050432755578
 79
     2
 49
10.4188831934011
 49
-6420.647671753949
 53
6.747399999999972
 43
-1343.372173091953
 44
17342.31265476303
 45
51.92304656764545
 46
0.0000050432755578
 79
     2
 49
10.4188831934011
 49
-6420.647671753949
 53
6.747399999999972
 43
-1343.372173091953
 44
17357.73308004197
 45
51.92304656764545
 46
0.0000050432755578
 79
     2
 49
10.4188831934011
 49
-6420.647671753949
 53
6.747399999999972
 43
-1343.372173091953
 44
17373.15350532093
 45
51.92304656764545
 46
0.0000050432755578
 79
     2
 49
10.4188831934011
 49
-6420.647671753949
 53
6.747399999999972
 43
-1343.372173091953
 44
17388.57393059989
 45
51.92304656764545
 46
0.0000050432755578
 79
     2
 49
10.4188831934011
 49
-6420.647671753949
 53
6.747399999999972
 43
-1343.372173091953
 44
17403.99435587884
 45
51.92304656764545
 46
0.0000050432755578
 79
     2
 49
10.4188831934011
 49
-6420.647671753949
 53
6.747399999999972
 43
-1343.372173091953
 44
17419.4147811578
 45
51.92304656764545
 46
0.0000050432755578
 79
     2
 49
10.4188831934011
 49
-6420.647671753949
 53
6.747399999999972
 43
-1343.372173091953
 44
17434.83520643675
 45
51.92304656764545
 46
0.0000050432755578
 79
     2
 49
10.4188831934011
 49
-6420.647671753949
 53
6.747399999999972
 43
-1343.372173091953
 44
17450.25563171571
 45
51.92304656764545
 46
0.0000050432755578
 79
     2
 49
10.4188831934011
 49
-6420.647671753949
 53
6.747399999999972
 43
-1343.372173091953
 44
17465.67605699467
 45
51.92304656764545
 46
0.0000050432755578
 79
     2
 49
10.4188831934011
 49
-6420.647671753949
 53
6.747399999999972
 43
-1343.372173091953
 44
17481.09648227361
 45
51.92304656764545
 46
0.0000050432755578
 79
     2
 49
10.4188831934011
 49
-6420.647671753949
 53
6.747399999999972
 43
-1343.372173091953
 44
17496.51690755257
 45
51.92304656764545
 46
0.0000050432755578
 79
     2
 49
10.4188831934011
 49
-6420.647671753949
 53
6.747399999999972
 43
-1343.372173091953
 44
17511.9377943689
 45
51.92304656764545
 46
0.0000050432755578
 79
     2
 49
10.4188831934011
 49
-6420.647671753949
 53
6.747399999999972
 43
-1343.372173091953
 44
17527.35821964786
 45
51.92304656764545
 46
0.0000050432755578
 79
     2
 49
10.4188831934011
 49
-6420.647671753949
 53
6.747399999999972
 43
-1343.372173091953
 44
17542.7786449268
 45
51.92304656764545
 46
0.0000050432755578
 79
     2
 49
10.4188831934011
 49
-6420.647671753949
 53
6.747399999999972
 43
-1343.372173091953
 44
17558.19907020577
 45
51.92304656764545
 46
0.0000050432755578
 79
     2
 49
10.4188831934011
 49
-6420.647671753949
 53
6.747399999999972
 43
-1343.372173091953
 44
17573.61949548472
 45
51.92304656764545
 46
0.0000050432755578
 79
     2
 49
10.4188831934011
 49
-6420.647671753949
 53
6.747399999999972
 43
-1343.372173091953
 44
17589.03992076368
 45
51.92304656764545
 46
0.0000050432755578
 79
     2
 49
10.4188831934011
 49
-6420.647671753949
 53
6.747399999999972
 43
-1343.372173091953
 44
17604.46034604264
 45
51.92304656764545
 46
0.0000050432755578
 79
     2
 49
10.4188831934011
 49
-6420.647671753949
 53
6.747399999999972
 43
-1343.372173091953
 44
17619.8807713216
 45
51.92304656764545
 46
0.0000050432755578
 79
     2
 49
10.4188831934011
 49
-6420.647671753949
 53
6.747399999999972
 43
-1343.372173091953
 44
17635.30119660055
 45
51.92304656764545
 46
0.0000050432755578
 79
     2
 49
10.4188831934011
 49
-6420.647671753949
 53
6.747399999999972
 43
-1343.372173091953
 44
17650.7216218795
 45
51.92304656764545
 46
0.0000050432755578
 79
     2
 49
10.4188831934011
 49
-6420.647671753949
 53
6.747399999999972
 43
-1343.372173091953
 44
17666.14250869584
 45
51.92304656764545
 46
0.0000050432755578
 79
     2
 49
10.4188831934011
 49
-6420.647671753949
 53
6.747399999999972
 43
-1343.372173091953
 44
17681.56293397479
 45
51.92304656764545
 46
0.0000050432755578
 79
     2
 49
10.4188831934011
 49
-6420.647671753949
 53
6.747399999999972
 43
-1343.372173091953
 44
17696.98335925375
 45
51.92304656764545
 46
0.0000050432755578
 79
     2
 49
10.4188831934011
 49
-6420.647671753949
 53
6.747399999999972
 43
-1343.372173091953
 44
17712.40378453271
 45
51.92304656764545
 46
0.0000050432755578
 79
     2
 49
10.4188831934011
 49
-6420.647671753949
 53
6.747399999999972
 43
-1343.372173091953
 44
17727.82420981166
 45
51.92304656764545
 46
0.0000050432755578
 79
     2
 49
10.4188831934011
 49
-6420.647671753949
 53
6.747399999999972
 43
-1343.372173091953
 44
17743.24463509062
 45
51.92304656764545
 46
0.0000050432755578
 79
     2
 49
10.4188831934011
 49
-6420.647671753949
 53
6.747399999999972
 43
-1343.372173091953
 44
17758.66459883219
 45
51.92304656764545
 46
0.0000050432755578
 79
     2
 49
10.4188831934011
 49
-6420.647671753949
 53
6.747399999999972
 43
-1343.372173091953
 44
17774.08456257377
 45
51.92304656764545
 46
0.0000050432755578
 79
     2
 49
10.4188831934011
 49
-6420.647671753949
 53
6.747399999999972
 43
-1343.372173091953
 44
17789.50452631535
 45
51.92304656764545
 46
0.0000050432755578
 79
     2
 49
10.4188831934011
 49
-6420.647671753949
 53
6.747399999999972
 43
-1343.372173091953
 44
17804.92449005692
 45
51.92304656764545
 46
0.0000050432755578
 79
     2
 49
10.4188831934011
 49
-6420.647671753949
 53
6.747399999999972
 43
-1343.372173091953
 44
17820.34906917228
 45
51.92304656764545
 46
0.0000050432755578
 79
     2
 49
10.4188831934011
 49
-6420.647671753949
 53
6.747399999999972
 43
-1343.372173091953
 44
17835.76903291385
 45
51.92304656764545
 46
0.0000050432755578
 79
     2
 49
10.4188831934011
 49
-6420.647671753949
 53
6.747399999999972
 43
-1343.372173091953
 44
17851.18899665542
 45
51.92304656764545
 46
0.0000050432755578
 79
     2
 49
10.4188831934011
 49
-6420.647671753949
 53
6.747399999999972
 43
-1343.372173091953
 44
17866.60896039701
 45
51.92304656764545
 46
0.0000050432755578
 79
     2
 49
10.4188831934011
 49
-6420.647671753949
 53
6.747399999999972
 43
-1343.372173091953
 44
17882.02892413858
 45
51.92304656764545
 46
0.0000050432755578
 79
     2
 49
10.4188831934011
 49
-6420.647671753949
 53
6.747399999999972
 43
-1343.372173091953
 44
17897.44888788017
 45
51.92304656764545
 46
0.0000050432755578
 79
     2
 49
10.4188831934011
 49
-6420.647671753949
 53
6.747399999999972
 43
-1343.372173091953
 44
17912.86885162174
 45
51.92304656764545
 46
0.0000050432755578
 79
     2
 49
10.4188831934011
 49
-6420.647671753949
 53
6.747399999999972
 43
-1343.372173091953
 44
17928.28881536333
 45
51.92304656764545
 46
0.0000050432755578
 79
     2
 49
10.4188831934011
 49
-6420.647671753949
 53
6.747399999999972
 43
-1343.372173091953
 44
17943.7087791049
 45
51.92304656764545
 46
0.0000050432755578
 79
     2
 49
10.4188831934011
 49
-6420.647671753949
 53
6.747399999999972
 43
-1343.372173091953
 44
17959.13335822024
 45
51.92304656764545
 46
0.0000050432755578
 79
     2
 49
10.4188831934011
 49
-6420.647671753949
 53
6.747399999999972
 43
-1343.372173091953
 44
17974.55332196182
 45
51.92304656764545
 46
0.0000050432755578
 79
     2
 49
10.4188831934011
 49
-6420.647671753949
 53
6.747399999999972
 43
-1343.372173091953
 44
17989.9732857034
 45
51.92304656764545
 46
0.0000050432755578
 79
     2
 49
10.4188831934011
 49
-6420.647671753949
 53
6.747399999999972
 43
-1343.372173091953
 44
18005.39324944498
 45
51.92304656764545
 46
0.0000050432755578
 79
     2
 49
10.4188831934011
 49
-6420.647671753949
 53
6.747399999999972
 43
-1343.372173091953
 44
18020.81321318656
 45
51.92304656764545
 46
0.0000050432755578
 79
     2
 49
10.4188831934011
 49
-6420.647671753949
 53
6.747399999999972
 43
-1343.372173091953
 44
18036.23317692815
 45
51.92304656764545
 46
0.0000050432755578
 79
     2
 49
10.4188831934011
 49
-6420.647671753949
 53
6.141599999999983
 43
-1365.530905603422
 44
17290.23514721778
 45
51.92281660003864
 46
-0.0000502503489585
 79
     2
 49
11.34925023651022
 49
-3592.016307598095
 53
6.141599999999983
 43
-1365.530905603422
 44
17305.65560249669
 45
51.92281660003864
 46
-0.0000502503489585
 79
     2
 49
11.34925023651022
 49
-3592.016307598095
 53
6.141599999999983
 43
-1365.530905603422
 44
17321.07607392938
 45
51.92281660003864
 46
-0.0000502503489585
 79
     2
 49
11.34925023651022
 49
-3592.016307598095
 53
6.141599999999983
 43
-1365.530905603422
 44
17336.49636074712
 45
51.92281660003864
 46
-0.0000502503489585
 79
     2
 49
11.34925023651022
 49
-3592.016307598095
 53
6.141599999999983
 43
-1365.530905603422
 44
17351.91724756345
 45
51.92281660003864
 46
-0.0000502503489585
 79
     2
 49
11.34925023651022
 49
-3592.016307598095
 53
6.141599999999983
 43
-1365.530905603422
 44
17367.33767284239
 45
51.92281660003864
 46
-0.0000502503489585
 79
     2
 49
11.34925023651022
 49
-3592.016307598095
 53
6.141599999999983
 43
-1365.530905603422
 44
17382.75809812135
 45
51.92281660003864
 46
-0.0000502503489585
 79
     2
 49
11.34925023651022
 49
-3592.016307598095
 53
6.141599999999983
 43
-1365.530905603422
 44
17398.17852340032
 45
51.92281660003864
 46
-0.0000502503489585
 79
     2
 49
11.34925023651022
 49
-3592.016307598095
 53
6.141599999999983
 43
-1365.530905603422
 44
17413.59894867926
 45
51.92281660003864
 46
-0.0000502503489585
 79
     2
 49
11.34925023651022
 49
-3592.016307598095
 53
6.141599999999983
 43
-1365.530905603422
 44
17429.01937395823
 45
51.92281660003864
 46
-0.0000502503489585
 79
     2
 49
11.34925023651022
 49
-3592.016307598095
 53
6.141599999999983
 43
-1365.530905603422
 44
17444.43979923718
 45
51.92281660003864
 46
-0.0000502503489585
 79
     2
 49
11.34925023651022
 49
-3592.016307598095
 53
6.141599999999983
 43
-1365.530905603422
 44
17459.86022451613
 45
51.92281660003864
 46
-0.0000502503489585
 79
     2
 49
11.34925023651022
 49
-3592.016307598095
 53
6.141599999999983
 43
-1365.530905603422
 44
17475.2806497951
 45
51.92281660003864
 46
-0.0000502503489585
 79
     2
 49
11.34925023651022
 49
-3592.016307598095
 53
6.141599999999983
 43
-1365.530905603422
 44
17490.70107507404
 45
51.92281660003864
 46
-0.0000502503489585
 79
     2
 49
11.34925023651022
 49
-3592.016307598095
 53
6.141599999999983
 43
-1365.530905603422
 44
17506.121500353
 45
51.92281660003864
 46
-0.0000502503489585
 79
     2
 49
11.34925023651022
 49
-3592.016307598095
 53
6.141599999999983
 43
-1365.530905603422
 44
17521.54238716933
 45
51.92281660003864
 46
-0.0000502503489585
 79
     2
 49
11.34925023651022
 49
-3592.016307598095
 53
6.141599999999983
 43
-1365.530905603422
 44
17536.96281244829
 45
51.92281660003864
 46
-0.0000502503489585
 79
     2
 49
11.34925023651022
 49
-3592.016307598095
 53
6.141599999999983
 43
-1365.530905603422
 44
17552.38323772724
 45
51.92281660003864
 46
-0.0000502503489585
 79
     2
 49
11.34925023651022
 49
-3592.016307598095
 53
6.141599999999983
 43
-1365.530905603422
 44
17567.80366300619
 45
51.92281660003864
 46
-0.0000502503489585
 79
     2
 49
11.34925023651022
 49
-3592.016307598095
 53
6.141599999999983
 43
-1365.530905603422
 44
17583.22408828516
 45
51.92281660003864
 46
-0.0000502503489585
 79
     2
 49
11.34925023651022
 49
-3592.016307598095
 53
6.141599999999983
 43
-1365.530905603422
 44
17598.64451356411
 45
51.92281660003864
 46
-0.0000502503489585
 79
     2
 49
11.34925023651022
 49
-3592.016307598095
 53
6.141599999999983
 43
-1365.530905603422
 44
17614.06493884306
 45
51.92281660003864
 46
-0.0000502503489585
 79
     2
 49
11.34925023651022
 49
-3592.016307598095
 53
6.141599999999983
 43
-1365.530905603422
 44
17629.48536412201
 45
51.92281660003864
 46
-0.0000502503489585
 79
     2
 49
11.34925023651022
 49
-3592.016307598095
 53
6.141599999999983
 43
-1365.530905603422
 44
17644.90578940098
 45
51.92281660003864
 46
-0.0000502503489585
 79
     2
 49
11.34925023651022
 49
-3592.016307598095
 53
6.141599999999983
 43
-1365.530905603422
 44
17660.32621467993
 45
51.92281660003864
 46
-0.0000502503489585
 79
     2
 49
11.34925023651022
 49
-3592.016307598095
 53
173.8580000000001
 43
-1354.246824444439
 44
17304.02849863033
 45
0.0000964139596056
 46
15.42045503177991
 79
     2
 49
11.34925023651006
 49
-3592.016307598054
 53
173.8580000000001
 43
-1302.324008073934
 44
17304.02849863033
 45
0.0000964139596056
 46
15.42045503177991
 79
     2
 49
11.34925023651006
 49
-3592.016307598054
 53
173.8580000000001
 43
-1250.401053242212
 44
17304.02849863033
 45
0.0000964139596056
 46
15.42045503177991
 79
     2
 49
11.34925023651006
 49
-3592.016307598054
 53
173.8580000000001
 43
-1198.4780984105
 44
17304.02849863033
 45
0.0000964139596056
 46
15.42045503177991
 79
     2
 49
11.34925023651006
 49
-3592.016307598054
 53
173.8580000000001
 43
-1146.555143578787
 44
17304.02849863033
 45
0.0000964139596056
 46
15.42045503177991
 79
     2
 49
11.34925023651006
 49
-3592.016307598054
 53
173.8580000000001
 43
-1094.632188747066
 44
17304.02849863033
 45
0.0000964139596056
 46
15.42045503177991
 79
     2
 49
11.34925023651006
 49
-3592.016307598054
 53
173.8580000000001
 43
-1042.709233915349
 44
17304.02849863033
 45
0.0000964139596056
 46
15.42045503177991
 79
     2
 49
11.34925023651006
 49
-3592.016307598054
 53
173.8580000000001
 43
-990.7862790836317
 44
17304.02849863033
 45
0.0000964139596056
 46
15.42045503177991
 79
     2
 49
11.34925023651006
 49
-3592.016307598054
 53
173.8580000000001
 43
-938.863324251919
 44
17304.02849863033
 45
0.0000964139596056
 46
15.42045503177991
 79
     2
 49
11.34925023651006
 49
-3592.016307598054
 53
173.8580000000001
 43
-886.938061733319
 44
17304.02849863033
 45
0.0000964139596056
 46
15.42045503177991
 79
     2
 49
11.34925023651006
 49
-3592.016307598054
 53
173.8580000000001
 43
-835.0151069016028
 44
17304.02849863033
 45
0.0000964139596056
 46
15.42045503177991
 79
     2
 49
11.34925023651006
 49
-3592.016307598054
 53
173.8580000000001
 43
-783.0921520698794
 44
17304.02849863033
 45
0.0000964139596056
 46
15.42045503177991
 79
     2
 49
11.34925023651006
 49
-3592.016307598054
 53
173.8580000000001
 43
-731.1691972381686
 44
17304.02849863033
 45
0.0000964139596056
 46
15.42045503177991
 79
     2
 49
11.34925023651006
 49
-3592.016307598054
 53
173.8580000000001
 43
-679.246242406456
 44
17304.02849863033
 45
0.0000964139596056
 46
15.42045503177991
 79
     2
 49
11.34925023651006
 49
-3592.016307598054
 53
173.8580000000001
 43
-627.3232875747344
 44
17304.02849863033
 45
0.0000964139596056
 46
15.42045503177991
 79
     2
 49
11.34925023651006
 49
-3592.016307598054
 53
173.8580000000001
 43
-575.4003327430163
 44
17304.02849863033
 45
0.0000964139596056
 46
15.42045503177991
 79
     2
 49
11.34925023651006
 49
-3592.016307598054
 53
173.8580000000001
 43
-523.4773779113002
 44
17304.02849863033
 45
0.0000964139596056
 46
15.42045503177991
 79
     2
 49
11.34925023651006
 49
-3592.016307598054
 53
173.8580000000001
 43
-471.5544230795821
 44
17304.02849863033
 45
0.0000964139596056
 46
15.42045503177991
 79
     2
 49
11.34925023651006
 49
-3592.016307598054
 53
173.8580000000001
 43
-419.6314682478714
 44
17304.02849863033
 45
0.0000964139596056
 46
15.42045503177991
 79
     2
 49
11.34925023651006
 49
-3592.016307598054
 53
173.8580000000001
 43
-367.7085134161534
 44
17304.02849863033
 45
0.0000964139596056
 46
15.42045503177991
 79
     2
 49
11.34925023651006
 49
-3592.016307598054
 53
173.8580000000001
 43
-315.7855585844318
 44
17304.02849863033
 45
0.0000964139596056
 46
15.42045503177991
 79
     2
 49
11.34925023651006
 49
-3592.016307598054
 53
173.8580000000001
 43
-263.8626037527192
 44
17304.02849863033
 45
0.0000964139596056
 46
15.42045503177991
 79
     2
 49
11.34925023651006
 49
-3592.016307598054
 53
173.8580000000001
 43
-211.939648921003
 44
17304.02849863033
 45
0.0000964139596056
 46
15.42045503177991
 79
     2
 49
11.34925023651006
 49
-3592.016307598054
 53
173.8580000000001
 43
-160.016694089285
 44
17304.02849863033
 45
0.0000964139596056
 46
15.42045503177991
 79
     2
 49
11.34925023651006
 49
-3592.016307598054
 53
173.8580000000001
 43
-108.0937392575633
 44
17304.02849863033
 45
0.0000964139596056
 46
15.42045503177991
 79
     2
 49
11.34925023651006
 49
-3592.016307598054
 53
173.8580000000001
 43
-56.17078442585079
 44
17304.02849863033
 45
0.0000964139596056
 46
15.42045503177991
 79
     2
 49
11.34925023651006
 49
-3592.016307598054
 53
173.8580000000001
 43
-4.247829594129143
 44
17304.02849863033
 45
0.0000964139596056
 46
15.42045503177991
 79
     2
 49
11.34925023651006
 49
-3592.016307598054
 53
173.8580000000001
 43
47.67512523758341
 44
17304.02849863033
 45
0.0000964139596056
 46
15.42045503177991
 79
     2
 49
11.34925023651006
 49
-3592.016307598054
 53
173.8580000000001
 43
99.59808006930508
 44
17304.02849863033
 45
0.0000964139596056
 46
15.42045503177991
 79
     2
 49
11.34925023651006
 49
-3592.016307598054
 53
173.8580000000001
 43
151.5210349010158
 44
17304.02849863033
 45
0.0000964139596056
 46
15.42045503177991
 79
     2
 49
11.34925023651006
 49
-3592.016307598054
 53
173.8580000000001
 43
203.4439897327284
 44
17304.02849863033
 45
0.0000964139596056
 46
15.42045503177991
 79
     2
 49
11.34925023651006
 49
-3592.016307598054
 53
173.8580000000001
 43
255.3669445644518
 44
17304.02849863033
 45
0.0000964139596056
 46
15.42045503177991
 79
     2
 49
11.34925023651006
 49
-3592.016307598054
 53
173.8580000000001
 43
307.289899396168
 44
17304.02849863033
 45
0.0000964139596056
 46
15.42045503177991
 79
     2
 49
11.34925023651006
 49
-3592.016307598054
 53
173.8580000000001
 43
359.2128542278842
 44
17304.02849863033
 45
0.0000964139596056
 46
15.42045503177991
 79
     2
 49
11.34925023651006
 49
-3592.016307598054
 53
173.8580000000001
 43
411.1358090596004
 44
17304.02849863033
 45
0.0000964139596056
 46
15.42045503177991
 79
     2
 49
11.34925023651006
 49
-3592.016307598054
 53
173.8580000000001
 43
463.0587638913202
 44
17304.02849863033
 45
0.0000964139596056
 46
15.42045503177991
 79
     2
 49
11.34925023651006
 49
-3592.016307598054
 53
173.8580000000001
 43
514.9817187230328
 44
17304.02849863033
 45
0.0000964139596056
 46
15.42045503177991
 79
     2
 49
11.34925023651006
 49
-3592.016307598054
 53
173.8580000000001
 43
566.904673554749
 44
17304.02849863033
 45
0.0000964139596056
 46
15.42045503177991
 79
     2
 49
11.34925023651006
 49
-3592.016307598054
 53
173.8580000000001
 43
618.8276283864688
 44
17304.02849863033
 45
0.0000964139596056
 46
15.42045503177991
 79
     2
 49
11.34925023651006
 49
-3592.016307598054
 53
173.8580000000001
 43
670.7505832181814
 44
17304.02849863033
 45
0.0000964139596056
 46
15.42045503177991
 79
     2
 49
11.34925023651006
 49
-3592.016307598054
 53
173.8580000000001
 43
722.6735380499012
 44
17304.02849863033
 45
0.0000964139596056
 46
15.42045503177991
 79
     2
 49
11.34925023651006
 49
-3592.016307598054
 53
173.8580000000001
 43
774.5964928816174
 44
17304.02849863033
 45
0.0000964139596056
 46
15.42045503177991
 79
     2
 49
11.34925023651006
 49
-3592.016307598054
 53
173.8580000000001
 43
826.5194477133336
 44
17304.02849863033
 45
0.0000964139596056
 46
15.42045503177991
 79
     2
 49
11.34925023651006
 49
-3592.016307598054
 53
173.8580000000001
 43
878.4424025450498
 44
17304.02849863033
 45
0.0000964139596056
 46
15.42045503177991
 79
     2
 49
11.34925023651006
 49
-3592.016307598054
 53
173.8580000000001
 43
930.3653573767697
 44
17304.02849863033
 45
0.0000964139596056
 46
15.42045503177991
 79
     2
 49
11.34925023651006
 49
-3592.016307598054
 53
173.8580000000001
 43
982.2883122084858
 44
17304.02849863033
 45
0.0000964139596056
 46
15.42045503177991
 79
     2
 49
11.34925023651006
 49
-3592.016307598054
 53
173.8580000000001
 43
1034.211267040202
 44
17304.02849863033
 45
0.0000964139596056
 46
15.42045503177991
 79
     2
 49
11.34925023651006
 49
-3592.016307598054
 53
173.8580000000001
 43
1086.134221871925
 44
17304.02849863033
 45
0.0000964139596056
 46
15.42045503177991
 79
     2
 49
11.34925023651006
 49
-3592.016307598054
 53
173.8580000000001
 43
1138.057176703631
 44
17304.02849863033
 45
0.0000964139596056
 46
15.42045503177991
 79
     2
 49
11.34925023651006
 49
-3592.016307598054
 53
173.8580000000001
 43
1189.980131535347
 44
17304.02849863033
 45
0.0000964139596056
 46
15.42045503177991
 79
     2
 49
11.34925023651006
 49
-3592.016307598054
 53
173.8580000000001
 43
1241.90308636707
 44
17304.02849863033
 45
0.0000964139596056
 46
15.42045503177991
 79
     2
 49
11.34925023651006
 49
-3592.016307598054
 53
173.8580000000001
 43
1293.826041198786
 44
17304.02849863033
 45
0.0000964139596056
 46
15.42045503177991
 79
     2
 49
11.34925023651006
 49
-3592.016307598054
 53
173.8580000000001
 43
1345.748996030506
 44
17304.02849863033
 45
0.0000964139596056
 46
15.42045503177991
 79
     2
 49
11.34925023651006
 49
-3592.016307598054
 53
173.8580000000001
 43
1397.671950862223
 44
17304.02849863033
 45
0.0000964139596056
 46
15.42045503177991
 79
     2
 49
11.34925023651006
 49
-3592.016307598054
 53
173.8580000000001
 43
1449.594905693935
 44
17304.02849863033
 45
0.0000964139596056
 46
15.42045503177991
 79
     2
 49
11.34925023651006
 49
-3592.016307598054
 53
173.8580000000001
 43
1501.517860525651
 44
17304.02849863033
 45
0.0000964139596056
 46
15.42045503177991
 79
     2
 49
11.34925023651006
 49
-3592.016307598054
 53
173.8580000000001
 43
1553.440815357375
 44
17304.02849863033
 45
0.0000964139596056
 46
15.42045503177991
 79
     2
 49
11.34925023651006
 49
-3592.016307598054
 53
173.8580000000001
 43
1605.363770189084
 44
17304.02849863033
 45
0.0000964139596056
 46
15.42045503177991
 79
     2
 49
11.34925023651006
 49
-3592.016307598054
 53
173.8580000000001
 43
1657.286725020804
 44
17304.02849863033
 45
0.0000964139596056
 46
15.42045503177991
 79
     2
 49
11.34925023651006
 49
-3592.016307598054
 53
173.8580000000001
 43
1709.20967985252
 44
17304.02849863033
 45
0.0000964139596056
 46
15.42045503177991
 79
     2
 49
11.34925023651006
 49
-3592.016307598054
 53
173.8580000000001
 43
1761.132634684236
 44
17304.02849863033
 45
0.0000964139596056
 46
15.42045503177991
 79
     2
 49
11.34925023651006
 49
-3592.016307598054
 53
173.8580000000001
 43
1813.055589515952
 44
17304.02849863033
 45
0.0000964139596056
 46
15.42045503177991
 79
     2
 49
11.34925023651006
 49
-3592.016307598054
 53
173.8580000000001
 43
1864.978544347668
 44
17304.02849863033
 45
0.0000964139596056
 46
15.42045503177991
 79
     2
 49
11.34925023651006
 49
-3592.016307598054
 53
173.8580000000001
 43
1916.901499179388
 44
17304.02849863033
 45
0.0000964139596056
 46
15.42045503177991
 79
     2
 49
11.34925023651006
 49
-3592.016307598054
 53
173.8580000000001
 43
1968.824454011105
 44
17304.02849863033
 45
0.0000964139596056
 46
15.42045503177991
 79
     2
 49
11.34925023651006
 49
-3592.016307598054
 53
173.8580000000001
 43
2020.747408842824
 44
17304.02849863033
 45
0.0000964139596056
 46
15.42045503177991
 79
     2
 49
11.34925023651006
 49
-3592.016307598054
 53
173.8580000000001
 43
2072.670363674541
 44
17304.02849863033
 45
0.0000964139596056
 46
15.42045503177991
 79
     2
 49
11.34925023651006
 49
-3592.016307598054
 53
173.8580000000001
 43
2124.593318506249
 44
17304.02849863033
 45
0.0000964139596056
 46
15.42045503177991
 79
     2
 49
11.34925023651006
 49
-3592.016307598054
 53
173.8580000000001
 43
2176.516273337973
 44
17304.02849863033
 45
0.0000964139596056
 46
15.42045503177991
 79
     2
 49
11.34925023651006
 49
-3592.016307598054
 53
173.253
 43
-1333.025705112899
 44
17298.20052771881
 45
-0.0001124430909783
 46
15.42047771894057
 79
     2
 49
10.4188831934011
 49
-6420.647671753946
 53
173.253
 43
-1281.102981049867
 44
17298.20052771881
 45
-0.0001124430909783
 46
15.42047771894057
 79
     2
 49
10.4188831934011
 49
-6420.647671753946
 53
173.253
 43
-1229.18002621815
 44
17298.20052771881
 45
-0.0001124430909783
 46
15.42047771894057
 79
     2
 49
10.4188831934011
 49
-6420.647671753946
 53
173.253
 43
-1177.257071386433
 44
17298.20052771881
 45
-0.0001124430909783
 46
15.42047771894057
 79
     2
 49
10.4188831934011
 49
-6420.647671753946
 53
173.253
 43
-1125.334116554721
 44
17298.20052771881
 45
-0.0001124430909783
 46
15.42047771894057
 79
     2
 49
10.4188831934011
 49
-6420.647671753946
 53
173.253
 43
-1073.411161723004
 44
17298.20052771881
 45
-0.0001124430909783
 46
15.42047771894057
 79
     2
 49
10.4188831934011
 49
-6420.647671753946
 53
173.253
 43
-1021.488206891281
 44
17298.20052771881
 45
-0.0001124430909783
 46
15.42047771894057
 79
     2
 49
10.4188831934011
 49
-6420.647671753946
 53
173.253
 43
-969.5652520595704
 44
17298.20052771881
 45
-0.0001124430909783
 46
15.42047771894057
 79
     2
 49
10.4188831934011
 49
-6420.647671753946
 53
173.253
 43
-917.6422972278487
 44
17298.20052771881
 45
-0.0001124430909783
 46
15.42047771894057
 79
     2
 49
10.4188831934011
 49
-6420.647671753946
 53
173.253
 43
-865.7211885456382
 44
17298.20052771881
 45
-0.0001124430909783
 46
15.42047771894057
 79
     2
 49
10.4188831934011
 49
-6420.647671753946
 53
173.253
 43
-813.7982337139256
 44
17298.20052771881
 45
-0.0001124430909783
 46
15.42047771894057
 79
     2
 49
10.4188831934011
 49
-6420.647671753946
 53
173.253
 43
-761.8752788822039
 44
17298.20052771881
 45
-0.0001124430909783
 46
15.42047771894057
 79
     2
 49
10.4188831934011
 49
-6420.647671753946
 53
173.253
 43
-709.9523240504931
 44
17298.20052771881
 45
-0.0001124430909783
 46
15.42047771894057
 79
     2
 49
10.4188831934011
 49
-6420.647671753946
 53
173.253
 43
-658.0293692187697
 44
17298.20052771881
 45
-0.0001124430909783
 46
15.42047771894057
 79
     2
 49
10.4188831934011
 49
-6420.647671753946
 53
173.253
 43
-606.106414387048
 44
17298.20052771881
 45
-0.0001124430909783
 46
15.42047771894057
 79
     2
 49
10.4188831934011
 49
-6420.647671753946
 53
173.253
 43
-554.1834595553354
 44
17298.20052771881
 45
-0.0001124430909783
 46
15.42047771894057
 79
     2
 49
10.4188831934011
 49
-6420.647671753946
 53
173.253
 43
-502.2605047236247
 44
17298.20052771881
 45
-0.0001124430909783
 46
15.42047771894057
 79
     2
 49
10.4188831934011
 49
-6420.647671753946
 53
173.253
 43
-450.3375498919012
 44
17298.20052771881
 45
-0.0001124430909783
 46
15.42047771894057
 79
     2
 49
10.4188831934011
 49
-6420.647671753946
 53
173.253
 43
-398.4145950601851
 44
17298.20052771881
 45
-0.0001124430909783
 46
15.42047771894057
 79
     2
 49
10.4188831934011
 49
-6420.647671753946
 53
173.253
 43
-346.4916402284671
 44
17298.20052771881
 45
-0.0001124430909783
 46
15.42047771894057
 79
     2
 49
10.4188831934011
 49
-6420.647671753946
 53
173.253
 43
-294.5686853967563
 44
17298.20052771881
 45
-0.0001124430909783
 46
15.42047771894057
 79
     2
 49
10.4188831934011
 49
-6420.647671753946
 53
173.253
 43
-242.6457305650438
 44
17298.20052771881
 45
-0.0001124430909783
 46
15.42047771894057
 79
     2
 49
10.4188831934011
 49
-6420.647671753946
 53
173.253
 43
-190.7227757333203
 44
17298.20052771881
 45
-0.0001124430909783
 46
15.42047771894057
 79
     2
 49
10.4188831934011
 49
-6420.647671753946
 53
173.253
 43
-138.7998209016005
 44
17298.20052771881
 45
-0.0001124430909783
 46
15.42047771894057
 79
     2
 49
10.4188831934011
 49
-6420.647671753946
 53
173.253
 43
-86.87686606988791
 44
17298.20052771881
 45
-0.0001124430909783
 46
15.42047771894057
 79
     2
 49
10.4188831934011
 49
-6420.647671753946
 53
173.253
 43
-34.9539112381699
 44
17298.20052771881
 45
-0.0001124430909783
 46
15.42047771894057
 79
     2
 49
10.4188831934011
 49
-6420.647671753946
 53
173.253
 43
16.9690435935463
 44
17298.20052771881
 45
-0.0001124430909783
 46
15.42047771894057
 79
     2
 49
10.4188831934011
 49
-6420.647671753946
 53
173.253
 43
68.89199842526432
 44
17298.20052771881
 45
-0.0001124430909783
 46
15.42047771894057
 79
     2
 49
10.4188831934011
 49
-6420.647671753946
 53
173.253
 43
120.8149532569805
 44
17298.20052771881
 45
-0.0001124430909783
 46
15.42047771894057
 79
     2
 49
10.4188831934011
 49
-6420.647671753946
 53
173.253
 43
172.7379080886967
 44
17298.20052771881
 45
-0.0001124430909783
 46
15.42047771894057
 79
     2
 49
10.4188831934011
 49
-6420.647671753946
 53
173.253
 43
224.6608629204147
 44
17298.20052771881
 45
-0.0001124430909783
 46
15.42047771894057
 79
     2
 49
10.4188831934011
 49
-6420.647671753946
 53
173.253
 43
276.5838177521327
 44
17298.20052771881
 45
-0.0001124430909783
 46
15.42047771894057
 79
     2
 49
10.4188831934011
 49
-6420.647671753946
 53
173.253
 43
328.5067725838489
 44
17298.20052771881
 45
-0.0001124430909783
 46
15.42047771894057
 79
     2
 49
10.4188831934011
 49
-6420.647671753946
 53
173.253
 43
380.4297274155615
 44
17298.20052771881
 45
-0.0001124430909783
 46
15.42047771894057
 79
     2
 49
10.4188831934011
 49
-6420.647671753946
 53
173.253
 43
432.3526822472777
 44
17298.20052771881
 45
-0.0001124430909783
 46
15.42047771894057
 79
     2
 49
10.4188831934011
 49
-6420.647671753946
 53
173.253
 43
484.2756370789938
 44
17298.20052771881
 45
-0.0001124430909783
 46
15.42047771894057
 79
     2
 49
10.4188831934011
 49
-6420.647671753946
 53
173.253
 43
536.1985919107174
 44
17298.20052771881
 45
-0.0001124430909783
 46
15.42047771894057
 79
     2
 49
10.4188831934011
 49
-6420.647671753946
 53
173.253
 43
588.1215467424299
 44
17298.20052771881
 45
-0.0001124430909783
 46
15.42047771894057
 79
     2
 49
10.4188831934011
 49
-6420.647671753946
 53
173.253
 43
640.0445015741533
 44
17298.20052771881
 45
-0.0001124430909783
 46
15.42047771894057
 79
     2
 49
10.4188831934011
 49
-6420.647671753946
 53
173.253
 43
691.9674564058623
 44
17298.20052771881
 45
-0.0001124430909783
 46
15.42047771894057
 79
     2
 49
10.4188831934011
 49
-6420.647671753946
 53
173.253
 43
743.8904112375821
 44
17298.20052771881
 45
-0.0001124430909783
 46
15.42047771894057
 79
     2
 49
10.4188831934011
 49
-6420.647671753946
 53
173.253
 43
795.8133660692984
 44
17298.20052771881
 45
-0.0001124430909783
 46
15.42047771894057
 79
     2
 49
10.4188831934011
 49
-6420.647671753946
 53
173.253
 43
847.7363209010146
 44
17298.20052771881
 45
-0.0001124430909783
 46
15.42047771894057
 79
     2
 49
10.4188831934011
 49
-6420.647671753946
 53
173.253
 43
899.6592757327308
 44
17298.20052771881
 45
-0.0001124430909783
 46
15.42047771894057
 79
     2
 49
10.4188831934011
 49
-6420.647671753946
 53
173.253
 43
951.5822305644505
 44
17298.20052771881
 45
-0.0001124430909783
 46
15.42047771894057
 79
     2
 49
10.4188831934011
 49
-6420.647671753946
 53
173.253
 43
1003.505185396167
 44
17298.20052771881
 45
-0.0001124430909783
 46
15.42047771894057
 79
     2
 49
10.4188831934011
 49
-6420.647671753946
 53
173.253
 43
1055.428140227879
 44
17298.20052771881
 45
-0.0001124430909783
 46
15.42047771894057
 79
     2
 49
10.4188831934011
 49
-6420.647671753946
 53
173.253
 43
1107.351095059599
 44
17298.20052771881
 45
-0.0001124430909783
 46
15.42047771894057
 79
     2
 49
10.4188831934011
 49
-6420.647671753946
 53
173.253
 43
1159.274049891319
 44
17298.20052771881
 45
-0.0001124430909783
 46
15.42047771894057
 79
     2
 49
10.4188831934011
 49
-6420.647671753946
 53
173.253
 43
1211.197004723035
 44
17298.20052771881
 45
-0.0001124430909783
 46
15.42047771894057
 79
     2
 49
10.4188831934011
 49
-6420.647671753946
 53
173.253
 43
1263.119959554751
 44
17298.20052771881
 45
-0.0001124430909783
 46
15.42047771894057
 79
     2
 49
10.4188831934011
 49
-6420.647671753946
 53
173.253
 43
1315.042914386464
 44
17298.20052771881
 45
-0.0001124430909783
 46
15.42047771894057
 79
     2
 49
10.4188831934011
 49
-6420.647671753946
 53
173.253
 43
1366.96586921818
 44
17298.20052771881
 45
-0.0001124430909783
 46
15.42047771894057
 79
     2
 49
10.4188831934011
 49
-6420.647671753946
 53
173.253
 43
1418.888824049896
 44
17298.20052771881
 45
-0.0001124430909783
 46
15.42047771894057
 79
     2
 49
10.4188831934011
 49
-6420.647671753946
 53
173.253
 43
1470.81177888162
 44
17298.20052771881
 45
-0.0001124430909783
 46
15.42047771894057
 79
     2
 49
10.4188831934011
 49
-6420.647671753946
 53
173.253
 43
1522.734733713332
 44
17298.20052771881
 45
-0.0001124430909783
 46
15.42047771894057
 79
     2
 49
10.4188831934011
 49
-6420.647671753946
 53
173.253
 43
1574.657688545056
 44
17298.20052771881
 45
-0.0001124430909783
 46
15.42047771894057
 79
     2
 49
10.4188831934011
 49
-6420.647671753946
 53
173.253
 43
1626.580643376765
 44
17298.20052771881
 45
-0.0001124430909783
 46
15.42047771894057
 79
     2
 49
10.4188831934011
 49
-6420.647671753946
 53
173.253
 43
1678.503598208484
 44
17298.20052771881
 45
-0.0001124430909783
 46
15.42047771894057
 79
     2
 49
10.4188831934011
 49
-6420.647671753946
 53
173.253
 43
1730.426553040201
 44
17298.20052771881
 45
-0.0001124430909783
 46
15.42047771894057
 79
     2
 49
10.4188831934011
 49
-6420.647671753946
 53
173.253
 43
1782.349507871917
 44
17298.20052771881
 45
-0.0001124430909783
 46
15.42047771894057
 79
     2
 49
10.4188831934011
 49
-6420.647671753946
 53
173.253
 43
1834.272462703633
 44
17298.20052771881
 45
-0.0001124430909783
 46
15.42047771894057
 79
     2
 49
10.4188831934011
 49
-6420.647671753946
 53
173.253
 43
1886.195417535349
 44
17298.20052771881
 45
-0.0001124430909783
 46
15.42047771894057
 79
     2
 49
10.4188831934011
 49
-6420.647671753946
 53
173.253
 43
1938.118372367069
 44
17298.20052771881
 45
-0.0001124430909783
 46
15.42047771894057
 79
     2
 49
10.4188831934011
 49
-6420.647671753946
 53
173.253
 43
1990.041327198785
 44
17298.20052771881
 45
-0.0001124430909783
 46
15.42047771894057
 79
     2
 49
10.4188831934011
 49
-6420.647671753946
 53
173.253
 43
2041.964282030498
 44
17298.20052771881
 45
-0.0001124430909783
 46
15.42047771894057
 79
     2
 49
10.4188831934011
 49
-6420.647671753946
 53
173.253
 43
2093.887236862221
 44
17298.20052771881
 45
-0.0001124430909783
 46
15.42047771894057
 79
     2
 49
10.4188831934011
 49
-6420.647671753946
 53
173.253
 43
2145.810191693938
 44
17298.20052771881
 45
-0.0001124430909783
 46
15.42047771894057
 79
     2
 49
10.4188831934011
 49
-6420.647671753946
 53
173.253
 43
2197.733146525654
 44
17298.20052771881
 45
-0.0001124430909783
 46
15.42047771894057
 79
     2
 49
10.4188831934011
 49
-6420.647671753946
 53
173.253
 43
2249.656101357366
 44
17298.20052771881
 45
-0.0001124430909783
 46
15.42047771894057
 79
     2
 49
10.4188831934011
 49
-6420.647671753946
 53
173.253
 43
2301.579056189083
 44
17298.20052771881
 45
-0.0001124430909783
 46
15.42047771894057
 79
     2
 49
10.4188831934011
 49
-6420.647671753946
 53
173.253
 43
2353.502011020799
 44
17298.20052771881
 45
-0.0001124430909783
 46
15.42047771894057
 79
     2
 49
10.4188831934011
 49
-6420.647671753946
 53
173.253
 43
2405.424965852522
 44
17298.20052771881
 45
-0.0001124430909783
 46
15.42047771894057
 79
     2
 49
10.4188831934011
 49
-6420.647671753946
 53
173.253
 43
2457.347920684235
 44
17298.20052771881
 45
-0.0001124430909783
 46
15.42047771894057
 79
     2
 49
10.4188831934011
 49
-6420.647671753946
 53
173.253
 43
2509.270875515944
 44
17298.20052771881
 45
-0.0001124430909783
 46
15.42047771894057
 79
     2
 49
10.4188831934011
 49
-6420.647671753946
 53
173.253
 43
2561.193830347667
 44
17298.20052771881
 45
-0.0001124430909783
 46
15.42047771894057
 79
     2
 49
10.4188831934011
 49
-6420.647671753946
 53
173.253
 43
2613.116785179383
 44
17298.20052771881
 45
-0.0001124430909783
 46
15.42047771894057
 79
     2
 49
10.4188831934011
 49
-6420.647671753946
 53
173.253
 43
2665.0397400111
 44
17298.20052771881
 45
-0.0001124430909783
 46
15.42047771894057
 79
     2
 49
10.4188831934011
 49
-6420.647671753946
 53
173.253
 43
2716.96269484282
 44
17298.20052771881
 45
-0.0001124430909783
 46
15.42047771894057
 79
     2
 49
10.4188831934011
 49
-6420.647671753946
 53
173.253
 43
2768.885649674536
 44
17298.20052771881
 45
-0.0001124430909783
 46
15.42047771894057
 79
     2
 49
10.4188831934011
 49
-6420.647671753946
 53
173.253
 43
2820.808604506256
 44
17298.20052771881
 45
-0.0001124430909783
 46
15.42047771894057
 79
     2
 49
10.4188831934011
 49
-6420.647671753946
 53
173.253
 43
2872.731559337972
 44
17298.20052771881
 45
-0.0001124430909783
 46
15.42047771894057
 79
     2
 49
10.4188831934011
 49
-6420.647671753946
 53
173.253
 43
2924.654514169688
 44
17298.20052771881
 45
-0.0001124430909783
 46
15.42047771894057
 79
     2
 49
10.4188831934011
 49
-6420.647671753946
 53
173.253
 43
2976.577469001401
 44
17298.20052771881
 45
-0.0001124430909783
 46
15.42047771894057
 79
     2
 49
10.4188831934011
 49
-6420.647671753946
 53
173.253
 43
3028.500423833121
 44
17298.20052771881
 45
-0.0001124430909783
 46
15.42047771894057
 79
     2
 49
10.4188831934011
 49
-6420.647671753946
 53
173.253
 43
3080.423378664836
 44
17298.20052771881
 45
-0.0001124430909783
 46
15.42047771894057
 79
     2
 49
10.4188831934011
 49
-6420.647671753946
 53
173.253
 43
3132.34633349655
 44
17298.20052771881
 45
-0.0001124430909783
 46
15.42047771894057
 79
     2
 49
10.4188831934011
 49
-6420.647671753946
 53
173.253
 43
3184.269288328269
 44
17298.20052771881
 45
-0.0001124430909783
 46
15.42047771894057
 79
     2
 49
10.4188831934011
 49
-6420.647671753946
 53
173.253
 43
3236.192243159985
 44
17298.20052771881
 45
-0.0001124430909783
 46
15.42047771894057
 79
     2
 49
10.4188831934011
 49
-6420.647671753946
 53
173.253
 43
3288.119813365469
 44
17298.20052771881
 45
-0.0001124430909783
 46
15.42047771894057
 79
     2
 49
10.4188831934011
 49
-6420.647671753946
 53
173.253
 43
3340.042768197185
 44
17298.20052771881
 45
-0.0001124430909783
 46
15.42047771894057
 79
     2
 49
10.4188831934011
 49
-6420.647671753946
 53
173.253
 43
3391.965723028901
 44
17298.20052771881
 45
-0.0001124430909783
 46
15.42047771894057
 79
     2
 49
10.4188831934011
 49
-6420.647671753946
 53
173.253
 43
3443.888677860614
 44
17298.20052771881
 45
-0.0001124430909783
 46
15.42047771894057
 79
     2
 49
10.4188831934011
 49
-6420.647671753946
 53
173.253
 43
3495.81163269233
 44
17298.20052771881
 45
-0.0001124430909783
 46
15.42047771894057
 79
     2
 49
10.4188831934011
 49
-6420.647671753946
 53
173.253
 43
3547.734587524054
 44
17298.20052771881
 45
-0.0001124430909783
 46
15.42047771894057
 79
     2
 49
10.4188831934011
 49
-6420.647671753946
 53
173.253
 43
3599.65754235577
 44
17298.20052771881
 45
-0.0001124430909783
 46
15.42047771894057
 79
     2
 49
10.4188831934011
 49
-6420.647671753946
 53
173.253
 43
3651.580497187486
 44
17298.20052771881
 45
-0.0001124430909783
 46
15.42047771894057
 79
     2
 49
10.4188831934011
 49
-6420.647671753946
 53
173.253
 43
3703.503452019206
 44
17298.20052771881
 45
-0.0001124430909783
 46
15.42047771894057
 79
     2
 49
10.4188831934011
 49
-6420.647671753946
 53
173.253
 43
3755.426406850919
 44
17298.20052771881
 45
-0.0001124430909783
 46
15.42047771894057
 79
     2
 49
10.4188831934011
 49
-6420.647671753946
 53
173.253
 43
3807.349361682635
 44
17298.20052771881
 45
-0.0001124430909783
 46
15.42047771894057
 79
     2
 49
10.4188831934011
 49
-6420.647671753946
 53
173.253
 43
3859.272316514358
 44
17298.20052771881
 45
-0.0001124430909783
 46
15.42047771894057
 79
     2
 49
10.4188831934011
 49
-6420.647671753946
 53
173.253
 43
3911.195271346067
 44
17298.20052771881
 45
-0.0001124430909783
 46
15.42047771894057
 79
     2
 49
10.4188831934011
 49
-6420.647671753946
 53
173.253
 43
3963.118226177783
 44
17298.20052771881
 45
-0.0001124430909783
 46
15.42047771894057
 79
     2
 49
10.4188831934011
 49
-6420.647671753946
 53
173.253
 43
4015.041181009503
 44
17298.20052771881
 45
-0.0001124430909783
 46
15.42047771894057
 79
     2
 49
10.4188831934011
 49
-6420.647671753946
 53
173.253
 43
4066.964135841219
 44
17298.20052771881
 45
-0.0001124430909783
 46
15.42047771894057
 79
     2
 49
10.4188831934011
 49
-6420.647671753946
 53
173.253
 43
4118.887090672935
 44
17298.20052771881
 45
-0.0001124430909783
 46
15.42047771894057
 79
     2
 49
10.4188831934011
 49
-6420.647671753946
 53
173.253
 43
4170.810045504655
 44
17298.20052771881
 45
-0.0001124430909783
 46
15.42047771894057
 79
     2
 49
10.4188831934011
 49
-6420.647671753946
 53
173.253
 43
4222.733000336371
 44
17298.20052771881
 45
-0.0001124430909783
 46
15.42047771894057
 79
     2
 49
10.4188831934011
 49
-6420.647671753946
 53
173.253
 43
4274.655955168087
 44
17298.20052771881
 45
-0.0001124430909783
 46
15.42047771894057
 79
     2
 49
10.4188831934011
 49
-6420.647671753946
 53
173.253
 43
4326.578909999811
 44
17298.20052771881
 45
-0.0001124430909783
 46
15.42047771894057
 79
     2
 49
10.4188831934011
 49
-6420.647671753946
 53
173.253
 43
4378.50186483152
 44
17298.20052771881
 45
-0.0001124430909783
 46
15.42047771894057
 79
     2
 49
10.4188831934011
 49
-6420.647671753946
 53
173.253
 43
4430.424819663236
 44
17298.20052771881
 45
-0.0001124430909783
 46
15.42047771894057
 79
     2
 49
10.4188831934011
 49
-6420.647671753946
 53
173.253
 43
4482.347774494956
 44
17298.20052771881
 45
-0.0001124430909783
 46
15.42047771894057
 79
     2
 49
10.4188831934011
 49
-6420.647671753946
 53
173.253
 43
4534.270729326672
 44
17298.20052771881
 45
-0.0001124430909783
 46
15.42047771894057
 79
     2
 49
10.4188831934011
 49
-6420.647671753946
 53
173.253
 43
4586.193684158391
 44
17298.20052771881
 45
-0.0001124430909783
 46
15.42047771894057
 79
     2
 49
10.4188831934011
 49
-6420.647671753946
 53
173.253
 43
4638.116638990108
 44
17298.20052771881
 45
-0.0001124430909783
 46
15.42047771894057
 79
     2
 49
10.4188831934011
 49
-6420.647671753946
 53
173.253
 43
4690.039593821821
 44
17298.20052771881
 45
-0.0001124430909783
 46
15.42047771894057
 79
     2
 49
10.4188831934011
 49
-6420.647671753946
 53
173.253
 43
4741.962548653537
 44
17298.20052771881
 45
-0.0001124430909783
 46
15.42047771894057
 79
     2
 49
10.4188831934011
 49
-6420.647671753946
 53
173.253
 43
4793.885503485256
 44
17298.20052771881
 45
-0.0001124430909783
 46
15.42047771894057
 79
     2
 49
10.4188831934011
 49
-6420.647671753946
 53
173.253
 43
4845.808458316973
 44
17298.20052771881
 45
-0.0001124430909783
 46
15.42047771894057
 79
     2
 49
10.4188831934011
 49
-6420.647671753946
 53
173.253
 43
4897.731413148689
 44
17298.20052771881
 45
-0.0001124430909783
 46
15.42047771894057
 79
     2
 49
10.4188831934011
 49
-6420.647671753946
 53
173.253
 43
4949.654367980405
 44
17298.20052771881
 45
-0.0001124430909783
 46
15.42047771894057
 79
     2
 49
10.4188831934011
 49
-6420.647671753946
 53
173.253
 43
5001.577322812122
 44
17298.20052771881
 45
-0.0001124430909783
 46
15.42047771894057
 79
     2
 49
10.4188831934011
 49
-6420.647671753946
 53
164.891
 43
-1328.078716745222
 44
17295.94287148899
 45
0.0000042855372929
 46
15.42045352479333
 79
     2
 49
5.123664875318557
 49
-586.4794671091429
 53
164.891
 43
-1276.1557619135
 44
17295.94287148899
 45
0.0000042855372929
 46
15.42045352479333
 79
     2
 49
5.123664875318557
 49
-586.4794671091429
 53
164.891
 43
-1224.232807081789
 44
17295.94287148899
 45
0.0000042855372929
 46
15.42045352479333
 79
     2
 49
5.123664875318557
 49
-586.4794671091429
 53
164.891
 43
-1172.309852250066
 44
17295.94287148899
 45
0.0000042855372929
 46
15.42045352479333
 79
     2
 49
5.123664875318557
 49
-586.4794671091429
 53
164.891
 43
-1120.386897418349
 44
17295.94287148899
 45
0.0000042855372929
 46
15.42045352479333
 79
     2
 49
5.123664875318557
 49
-586.4794671091429
 53
164.891
 43
-1068.463942586632
 44
17295.94287148899
 45
0.0000042855372929
 46
15.42045352479333
 79
     2
 49
5.123664875318557
 49
-586.4794671091429
 53
164.891
 43
-1016.540987754921
 44
17295.94287148899
 45
0.0000042855372929
 46
15.42045352479333
 79
     2
 49
5.123664875318557
 49
-586.4794671091429
 53
164.891
 43
-964.6180329231974
 44
17295.94287148899
 45
0.0000042855372929
 46
15.42045352479333
 79
     2
 49
5.123664875318557
 49
-586.4794671091429
 53
164.891
 43
-912.6964627036176
 44
17295.94287148899
 45
0.0000042855372929
 46
15.42045352479333
 79
     2
 49
5.123664875318557
 49
-586.4794671091429
 53
164.891
 43
-860.773507871896
 44
17295.94287148899
 45
0.0000042855372929
 46
15.42045352479333
 79
     2
 49
5.123664875318557
 49
-586.4794671091429
 53
164.891
 43
-808.850553040178
 44
17295.94287148899
 45
0.0000042855372929
 46
15.42045352479333
 79
     2
 49
5.123664875318557
 49
-586.4794671091429
 53
157.062
 43
-1343.372173091953
 44
17299.4269709888
 45
-0.0001140812529166
 46
15.42047545549798
 79
     2
 49
11.80815684974729
 49
-2243.446094003533
 53
157.062
 43
-1291.449264413981
 44
17299.4269709888
 45
-0.0001140812529166
 46
15.42047545549798
 79
     2
 49
11.80815684974729
 49
-2243.446094003533
 53
157.062
 43
-1239.526309582265
 44
17299.4269709888
 45
-0.0001140812529166
 46
15.42047545549798
 79
     2
 49
11.80815684974729
 49
-2243.446094003533
 53
157.062
 43
-1187.603354750547
 44
17299.4269709888
 45
-0.0001140812529166
 46
15.42047545549798
 79
     2
 49
11.80815684974729
 49
-2243.446094003533
 53
157.062
 43
-1135.680399918825
 44
17299.4269709888
 45
-0.0001140812529166
 46
15.42047545549798
 79
     2
 49
11.80815684974729
 49
-2243.446094003533
 53
157.062
 43
-1083.757445087112
 44
17299.4269709888
 45
-0.0001140812529166
 46
15.42047545549798
 79
     2
 49
11.80815684974729
 49
-2243.446094003533
 53
157.062
 43
-1031.834490255396
 44
17299.4269709888
 45
-0.0001140812529166
 46
15.42047545549798
 79
     2
 49
11.80815684974729
 49
-2243.446094003533
 53
157.062
 43
-979.9115354236782
 44
17299.4269709888
 45
-0.0001140812529166
 46
15.42047545549798
 79
     2
 49
11.80815684974729
 49
-2243.446094003533
 53
157.062
 43
-927.9885805919676
 44
17299.4269709888
 45
-0.0001140812529166
 46
15.42047545549798
 79
     2
 49
11.80815684974729
 49
-2243.446094003533
 53
157.062
 43
-876.064241148113
 44
17299.4269709888
 45
-0.0001140812529166
 46
15.42047545549798
 79
     2
 49
11.80815684974729
 49
-2243.446094003533
 53
157.062
 43
-824.1412863164004
 44
17299.4269709888
 45
-0.0001140812529166
 46
15.42047545549798
 79
     2
 49
11.80815684974729
 49
-2243.446094003533
 53
157.062
 43
-772.2183314846788
 44
17299.4269709888
 45
-0.0001140812529166
 46
15.42047545549798
 79
     2
 49
11.80815684974729
 49
-2243.446094003533
 53
157.062
 43
-720.2953766529662
 44
17299.4269709888
 45
-0.0001140812529166
 46
15.42047545549798
 79
     2
 49
11.80815684974729
 49
-2243.446094003533
 53
157.062
 43
-668.3724218212555
 44
17299.4269709888
 45
-0.0001140812529166
 46
15.42047545549798
 79
     2
 49
11.80815684974729
 49
-2243.446094003533
 53
157.062
 43
-616.449466989532
 44
17299.4269709888
 45
-0.0001140812529166
 46
15.42047545549798
 79
     2
 49
11.80815684974729
 49
-2243.446094003533
 53
157.062
 43
-564.5265121578213
 44
17299.4269709888
 45
-0.0001140812529166
 46
15.42047545549798
 79
     2
 49
11.80815684974729
 49
-2243.446094003533
 53
157.062
 43
-512.6035573260979
 44
17299.4269709888
 45
-0.0001140812529166
 46
15.42047545549798
 79
     2
 49
11.80815684974729
 49
-2243.446094003533
 53
157.062
 43
-460.6806024943762
 44
17299.4269709888
 45
-0.0001140812529166
 46
15.42047545549798
 79
     2
 49
11.80815684974729
 49
-2243.446094003533
 53
157.062
 43
-408.7576476626636
 44
17299.4269709888
 45
-0.0001140812529166
 46
15.42047545549798
 79
     2
 49
11.80815684974729
 49
-2243.446094003533
 53
157.062
 43
-356.8346928309511
 44
17299.4269709888
 45
-0.0001140812529166
 46
15.42047545549798
 79
     2
 49
11.80815684974729
 49
-2243.446094003533
 53
157.062
 43
-304.9117379992313
 44
17299.4269709888
 45
-0.0001140812529166
 46
15.42047545549798
 79
     2
 49
11.80815684974729
 49
-2243.446094003533
 53
157.062
 43
-252.9887831675132
 44
17299.4269709888
 45
-0.0001140812529166
 46
15.42047545549798
 79
     2
 49
11.80815684974729
 49
-2243.446094003533
 53
157.062
 43
-201.0658283357952
 44
17299.4269709888
 45
-0.0001140812529166
 46
15.42047545549798
 79
     2
 49
11.80815684974729
 49
-2243.446094003533
 53
157.062
 43
-149.142873504079
 44
17299.4269709888
 45
-0.0001140812529166
 46
15.42047545549798
 79
     2
 49
11.80815684974729
 49
-2243.446094003533
 53
157.062
 43
-97.21991867236647
 44
17299.4269709888
 45
-0.0001140812529166
 46
15.42047545549798
 79
     2
 49
11.80815684974729
 49
-2243.446094003533
 53
157.062
 43
-45.29696384065028
 44
17299.4269709888
 45
-0.0001140812529166
 46
15.42047545549798
 79
     2
 49
11.80815684974729
 49
-2243.446094003533
 53
157.062
 43
6.625990991073194
 44
17299.4269709888
 45
-0.0001140812529166
 46
15.42047545549798
 79
     2
 49
11.80815684974729
 49
-2243.446094003533
 53
157.062
 43
58.54894582278394
 44
17299.4269709888
 45
-0.0001140812529166
 46
15.42047545549798
 79
     2
 49
11.80815684974729
 49
-2243.446094003533
 53
157.062
 43
110.4719006545019
 44
17299.4269709888
 45
-0.0001140812529166
 46
15.42047545549798
 79
     2
 49
11.80815684974729
 49
-2243.446094003533
 53
157.062
 43
162.3948554862181
 44
17299.4269709888
 45
-0.0001140812529166
 46
15.42047545549798
 79
     2
 49
11.80815684974729
 49
-2243.446094003533
 53
157.062
 43
214.3178103179416
 44
17299.4269709888
 45
-0.0001140812529166
 46
15.42047545549798
 79
     2
 49
11.80815684974729
 49
-2243.446094003533
 53
157.062
 43
266.2407651496506
 44
17299.4269709888
 45
-0.0001140812529166
 46
15.42047545549798
 79
     2
 49
11.80815684974729
 49
-2243.446094003533
 53
157.062
 43
318.1637199813704
 44
17299.4269709888
 45
-0.0001140812529166
 46
15.42047545549798
 79
     2
 49
11.80815684974729
 49
-2243.446094003533
 53
157.062
 43
370.0866748130866
 44
17299.4269709888
 45
-0.0001140812529166
 46
15.42047545549798
 79
     2
 49
11.80815684974729
 49
-2243.446094003533
 53
157.062
 43
422.0096296448027
 44
17299.4269709888
 45
-0.0001140812529166
 46
15.42047545549798
 79
     2
 49
11.80815684974729
 49
-2243.446094003533
 53
157.062
 43
473.9325844765225
 44
17299.4269709888
 45
-0.0001140812529166
 46
15.42047545549798
 79
     2
 49
11.80815684974729
 49
-2243.446094003533
 53
157.062
 43
525.8555393082388
 44
17299.4269709888
 45
-0.0001140812529166
 46
15.42047545549798
 79
     2
 49
11.80815684974729
 49
-2243.446094003533
 53
157.062
 43
577.7784941399513
 44
17299.4269709888
 45
-0.0001140812529166
 46
15.42047545549798
 79
     2
 49
11.80815684974729
 49
-2243.446094003533
 53
157.062
 43
629.7014489716675
 44
17299.4269709888
 45
-0.0001140812529166
 46
15.42047545549798
 79
     2
 49
11.80815684974729
 49
-2243.446094003533
 53
157.062
 43
681.6244038033874
 44
17299.4269709888
 45
-0.0001140812529166
 46
15.42047545549798
 79
     2
 49
11.80815684974729
 49
-2243.446094003533
 53
142.435
 43
-1365.530905603422
 44
17290.23514721778
 45
0.0000772591966259
 46
15.42046066953884
 79
     2
 49
6.340646629098743
 49
-2548.32374634662
 53
142.435
 43
-1313.608135386657
 44
17290.23514721778
 45
0.0000772591966259
 46
15.42046066953884
 79
     2
 49
6.340646629098743
 49
-2548.32374634662
 53
142.435
 43
-1261.685180554934
 44
17290.23514721778
 45
0.0000772591966259
 46
15.42046066953884
 79
     2
 49
6.340646629098743
 49
-2548.32374634662
 53
142.435
 43
-1209.762225723212
 44
17290.23514721778
 45
0.0000772591966259
 46
15.42046066953884
 79
     2
 49
6.340646629098743
 49
-2548.32374634662
 53
142.435
 43
-1157.8392708915
 44
17290.23514721778
 45
0.0000772591966259
 46
15.42046066953884
 79
     2
 49
6.340646629098743
 49
-2548.32374634662
 53
142.435
 43
-1105.916316059789
 44
17290.23514721778
 45
0.0000772591966259
 46
15.42046066953884
 79
     2
 49
6.340646629098743
 49
-2548.32374634662
 53
142.435
 43
-1053.993361228071
 44
17290.23514721778
 45
0.0000772591966259
 46
15.42046066953884
 79
     2
 49
6.340646629098743
 49
-2548.32374634662
 53
142.435
 43
-1002.070406396355
 44
17290.23514721778
 45
0.0000772591966259
 46
15.42046066953884
 79
     2
 49
6.340646629098743
 49
-2548.32374634662
 53
142.435
 43
-950.1474515646314
 44
17290.23514721778
 45
0.0000772591966259
 46
15.42046066953884
 79
     2
 49
6.340646629098743
 49
-2548.32374634662
 53
142.435
 43
-898.2226505834077
 44
17290.23514721778
 45
0.0000772591966259
 46
15.42046066953884
 79
     2
 49
6.340646629098743
 49
-2548.32374634662
 53
142.435
 43
-846.2996957516953
 44
17290.23514721778
 45
0.0000772591966259
 46
15.42046066953884
 79
     2
 49
6.340646629098743
 49
-2548.32374634662
 53
142.435
 43
-794.3767409199827
 44
17290.23514721778
 45
0.0000772591966259
 46
15.42046066953884
 79
     2
 49
6.340646629098743
 49
-2548.32374634662
 53
142.435
 43
-742.453786088261
 44
17290.23514721778
 45
0.0000772591966259
 46
15.42046066953884
 79
     2
 49
6.340646629098743
 49
-2548.32374634662
 53
142.435
 43
-690.5308312565393
 44
17290.23514721778
 45
0.0000772591966259
 46
15.42046066953884
 79
     2
 49
6.340646629098743
 49
-2548.32374634662
 53
142.435
 43
-638.6078764248268
 44
17290.23514721778
 45
0.0000772591966259
 46
15.42046066953884
 79
     2
 49
6.340646629098743
 49
-2548.32374634662
 53
142.435
 43
-586.6849215931161
 44
17290.23514721778
 45
0.0000772591966259
 46
15.42046066953884
 79
     2
 49
6.340646629098743
 49
-2548.32374634662
 53
142.435
 43
-534.7619667613925
 44
17290.23514721778
 45
0.0000772591966259
 46
15.42046066953884
 79
     2
 49
6.340646629098743
 49
-2548.32374634662
 53
142.435
 43
-482.8390119296819
 44
17290.23514721778
 45
0.0000772591966259
 46
15.42046066953884
 79
     2
 49
6.340646629098743
 49
-2548.32374634662
 53
142.435
 43
-430.9160570979583
 44
17290.23514721778
 45
0.0000772591966259
 46
15.42046066953884
 79
     2
 49
6.340646629098743
 49
-2548.32374634662
 53
142.435
 43
-378.9931022662458
 44
17290.23514721778
 45
0.0000772591966259
 46
15.42046066953884
 79
     2
 49
6.340646629098743
 49
-2548.32374634662
 53
142.435
 43
-327.0701474345351
 44
17290.23514721778
 45
0.0000772591966259
 46
15.42046066953884
 79
     2
 49
6.340646629098743
 49
-2548.32374634662
 53
142.435
 43
-275.1471926028135
 44
17290.23514721778
 45
0.0000772591966259
 46
15.42046066953884
 79
     2
 49
6.340646629098743
 49
-2548.32374634662
 53
142.435
 43
-223.22423777109
 44
17290.23514721778
 45
0.0000772591966259
 46
15.42046066953884
 79
     2
 49
6.340646629098743
 49
-2548.32374634662
 53
142.435
 43
-171.3012829393792
 44
17290.23514721778
 45
0.0000772591966259
 46
15.42046066953884
 79
     2
 49
6.340646629098743
 49
-2548.32374634662
 53
142.435
 43
-119.3783281076576
 44
17290.23514721778
 45
0.0000772591966259
 46
15.42046066953884
 79
     2
 49
6.340646629098743
 49
-2548.32374634662
 53
142.435
 43
-67.45537327594502
 44
17290.23514721778
 45
0.0000772591966259
 46
15.42046066953884
 79
     2
 49
6.340646629098743
 49
-2548.32374634662
 53
142.435
 43
-15.53241844422155
 44
17290.23514721778
 45
0.0000772591966259
 46
15.42046066953884
 79
     2
 49
6.340646629098743
 49
-2548.32374634662
 53
142.435
 43
36.39053638748919
 44
17290.23514721778
 45
0.0000772591966259
 46
15.42046066953884
 79
     2
 49
6.340646629098743
 49
-2548.32374634662
 53
142.435
 43
88.31349121920721
 44
17290.23514721778
 45
0.0000772591966259
 46
15.42046066953884
 79
     2
 49
6.340646629098743
 49
-2548.32374634662
 53
142.435
 43
140.2364460509234
 44
17290.23514721778
 45
0.0000772591966259
 46
15.42046066953884
 79
     2
 49
6.340646629098743
 49
-2548.32374634662
 53
142.435
 43
192.1594008826396
 44
17290.23514721778
 45
0.0000772591966259
 46
15.42046066953884
 79
     2
 49
6.340646629098743
 49
-2548.32374634662
 53
142.435
 43
244.0823557143576
 44
17290.23514721778
 45
0.0000772591966259
 46
15.42046066953884
 79
     2
 49
6.340646629098743
 49
-2548.32374634662
 53
142.435
 43
296.005310546072
 44
17290.23514721778
 45
0.0000772591966259
 46
15.42046066953884
 79
     2
 49
6.340646629098743
 49
-2548.32374634662
 53
142.435
 43
347.9282653777918
 44
17290.23514721778
 45
0.0000772591966259
 46
15.42046066953884
 79
     2
 49
6.340646629098743
 49
-2548.32374634662
 53
142.435
 43
399.8512202095044
 44
17290.23514721778
 45
0.0000772591966259
 46
15.42046066953884
 79
     2
 49
6.340646629098743
 49
-2548.32374634662
 53
142.435
 43
451.7741750412278
 44
17290.23514721778
 45
0.0000772591966259
 46
15.42046066953884
 79
     2
 49
6.340646629098743
 49
-2548.32374634662
 53
142.435
 43
503.697129872944
 44
17290.23514721778
 45
0.0000772591966259
 46
15.42046066953884
 79
     2
 49
6.340646629098743
 49
-2548.32374634662
 53
142.435
 43
555.6200847046603
 44
17290.23514721778
 45
0.0000772591966259
 46
15.42046066953884
 79
     2
 49
6.340646629098743
 49
-2548.32374634662
 53
142.435
 43
607.5430395363728
 44
17290.23514721778
 45
0.0000772591966259
 46
15.42046066953884
 79
     2
 49
6.340646629098743
 49
-2548.32374634662
 53
115.046
 43
-1325.315492473422
 44
17290.02877770305
 45
-0.0001241594983084
 46
15.42046743086035
 79
     2
 49
6.527892342656238
 49
-4163.599702041431
 53
115.046
 43
-1273.392537641705
 44
17290.02877770305
 45
-0.0001241594983084
 46
15.42046743086035
 79
     2
 49
6.527892342656238
 49
-4163.599702041431
 53
115.046
 43
-1221.469582809983
 44
17290.02877770305
 45
-0.0001241594983084
 46
15.42046743086035
 79
     2
 49
6.527892342656238
 49
-4163.599702041431
 53
115.046
 43
-1169.54662797827
 44
17290.02877770305
 45
-0.0001241594983084
 46
15.42046743086035
 79
     2
 49
6.527892342656238
 49
-4163.599702041431
 53
115.046
 43
-1117.623673146549
 44
17290.02877770305
 45
-0.0001241594983084
 46
15.42046743086035
 79
     2
 49
6.527892342656238
 49
-4163.599702041431
 53
115.046
 43
-1065.700718314836
 44
17290.02877770305
 45
-0.0001241594983084
 46
15.42046743086035
 79
     2
 49
6.527892342656238
 49
-4163.599702041431
 53
115.046
 43
-1013.77776348312
 44
17290.02877770305
 45
-0.0001241594983084
 46
15.42046743086035
 79
     2
 49
6.527892342656238
 49
-4163.599702041431
 53
115.046
 43
-961.8548086514019
 44
17290.02877770305
 45
-0.0001241594983084
 46
15.42046743086035
 79
     2
 49
6.527892342656238
 49
-4163.599702041431
 53
115.046
 43
-909.9318538196802
 44
17290.02877770305
 45
-0.0001241594983084
 46
15.42046743086035
 79
     2
 49
6.527892342656238
 49
-4163.599702041431
 53
115.046
 43
-858.0088989879678
 44
17290.02877770305
 45
-0.0001241594983084
 46
15.42046743086035
 79
     2
 49
6.527892342656238
 49
-4163.599702041431
 53
115.046
 43
-806.0859441562461
 44
17290.02877770305
 45
-0.0001241594983084
 46
15.42046743086035
 79
     2
 49
6.527892342656238
 49
-4163.599702041431
 53
115.046
 43
-754.1629893245335
 44
17290.02877770305
 45
-0.0001241594983084
 46
15.42046743086035
 79
     2
 49
6.527892342656238
 49
-4163.599702041431
 53
115.046
 43
-702.2400344928209
 44
17290.02877770305
 45
-0.0001241594983084
 46
15.42046743086035
 79
     2
 49
6.527892342656238
 49
-4163.599702041431
 53
115.046
 43
-650.3170796610993
 44
17290.02877770305
 45
-0.0001241594983084
 46
15.42046743086035
 79
     2
 49
6.527892342656238
 49
-4163.599702041431
 53
115.046
 43
-598.3941248293886
 44
17290.02877770305
 45
-0.0001241594983084
 46
15.42046743086035
 79
     2
 49
6.527892342656238
 49
-4163.599702041431
 53
115.046
 43
-546.4711699976651
 44
17290.02877770305
 45
-0.0001241594983084
 46
15.42046743086035
 79
     2
 49
6.527892342656238
 49
-4163.599702041431
 53
115.046
 43
-494.5482151659434
 44
17290.02877770305
 45
-0.0001241594983084
 46
15.42046743086035
 79
     2
 49
6.527892342656238
 49
-4163.599702041431
 53
115.046
 43
-442.6252603342309
 44
17290.02877770305
 45
-0.0001241594983084
 46
15.42046743086035
 79
     2
 49
6.527892342656238
 49
-4163.599702041431
 53
115.046
 43
-390.7023055025202
 44
17290.02877770305
 45
-0.0001241594983084
 46
15.42046743086035
 79
     2
 49
6.527892342656238
 49
-4163.599702041431
 53
115.046
 43
-338.7793506707967
 44
17290.02877770305
 45
-0.0001241594983084
 46
15.42046743086035
 79
     2
 49
6.527892342656238
 49
-4163.599702041431
 53
115.046
 43
-286.8563958390859
 44
17290.02877770305
 45
-0.0001241594983084
 46
15.42046743086035
 79
     2
 49
6.527892342656238
 49
-4163.599702041431
 53
115.046
 43
-234.9334410073643
 44
17290.02877770305
 45
-0.0001241594983084
 46
15.42046743086035
 79
     2
 49
6.527892342656238
 49
-4163.599702041431
 53
115.046
 43
-183.0104861756463
 44
17290.02877770305
 45
-0.0001241594983084
 46
15.42046743086035
 79
     2
 49
6.527892342656238
 49
-4163.599702041431
 53
115.046
 43
-131.0875313439337
 44
17290.02877770305
 45
-0.0001241594983084
 46
15.42046743086035
 79
     2
 49
6.527892342656238
 49
-4163.599702041431
 53
115.046
 43
-79.16457651221754
 44
17290.02877770305
 45
-0.0001241594983084
 46
15.42046743086035
 79
     2
 49
6.527892342656238
 49
-4163.599702041431
 53
115.046
 43
-27.24162168049588
 44
17290.02877770305
 45
-0.0001241594983084
 46
15.42046743086035
 79
     2
 49
6.527892342656238
 49
-4163.599702041431
 53
115.046
 43
24.68133315121668
 44
17290.02877770305
 45
-0.0001241594983084
 46
15.42046743086035
 79
     2
 49
6.527892342656238
 49
-4163.599702041431
 53
115.046
 43
76.6042879829347
 44
17290.02877770305
 45
-0.0001241594983084
 46
15.42046743086035
 79
     2
 49
6.527892342656238
 49
-4163.599702041431
 53
115.046
 43
128.5272428146509
 44
17290.02877770305
 45
-0.0001241594983084
 46
15.42046743086035
 79
     2
 49
6.527892342656238
 49
-4163.599702041431
 53
115.046
 43
180.4501976463725
 44
17290.02877770305
 45
-0.0001241594983084
 46
15.42046743086035
 79
     2
 49
6.527892342656238
 49
-4163.599702041431
 53
115.046
 43
232.3731524780851
 44
17290.02877770305
 45
-0.0001241594983084
 46
15.42046743086035
 79
     2
 49
6.527892342656238
 49
-4163.599702041431
 53
115.046
 43
284.2961073098013
 44
17290.02877770305
 45
-0.0001241594983084
 46
15.42046743086035
 79
     2
 49
6.527892342656238
 49
-4163.599702041431
 53
115.046
 43
336.2190621415175
 44
17290.02877770305
 45
-0.0001241594983084
 46
15.42046743086035
 79
     2
 49
6.527892342656238
 49
-4163.599702041431
 53
115.046
 43
388.1420169732373
 44
17290.02877770305
 45
-0.0001241594983084
 46
15.42046743086035
 79
     2
 49
6.527892342656238
 49
-4163.599702041431
 53
104.0759999999998
 43
-1370.55686301618
 44
17294.10082043575
 45
0.000113352007534
 46
15.42045346619244
 79
     2
 49
3.750821949567952
 49
-1490.646556440062
 53
104.0759999999998
 43
-1318.633815876985
 44
17294.10082043575
 45
0.000113352007534
 46
15.42045346619244
 79
     2
 49
3.750821949567952
 49
-1490.646556440062
 53
104.0759999999998
 43
-1266.710861045269
 44
17294.10082043575
 45
0.000113352007534
 46
15.42045346619244
 79
     2
 49
3.750821949567952
 49
-1490.646556440062
 53
104.0759999999998
 43
-1214.787906213556
 44
17294.10082043575
 45
0.000113352007534
 46
15.42045346619244
 79
     2
 49
3.750821949567952
 49
-1490.646556440062
 53
104.0759999999998
 43
-1162.864951381834
 44
17294.10082043575
 45
0.000113352007534
 46
15.42045346619244
 79
     2
 49
3.750821949567952
 49
-1490.646556440062
 53
104.0759999999998
 43
-1110.941996550111
 44
17294.10082043575
 45
0.000113352007534
 46
15.42045346619244
 79
     2
 49
3.750821949567952
 49
-1490.646556440062
 53
104.0759999999998
 43
-1059.0190417184
 44
17294.10082043575
 45
0.000113352007534
 46
15.42045346619244
 79
     2
 49
3.750821949567952
 49
-1490.646556440062
 98
        1
 10
266.7565196948344
 20
2540.854995969993
  0
HATCH
  5
5AA0
330
67
100
AcDbEntity
  8
F_01 sichtbar
370
    13
100
AcDbHatch
 10
0.0
 20
0.0
 30
0.0
210
0.0
220
0.0
230
1.0
  2
HEX
 70
     0
 71
     0
 91
        1
 92
        1
 93
        4
 72
     1
 10
273.9377386828637
 20
725.1241680878074
 11
273.9377386828637
 21
680.1241680878056
 72
     1
 10
273.9377386828637
 20
680.1241680878056
 11
366.3813912467158
 21
680.1241680878056
 72
     1
 10
366.3813912467158
 20
680.1241680878056
 11
366.3813912467158
 21
725.1241680878056
 72
     1
 10
366.3813912467158
 20
725.1241680878056
 11
273.9377386828637
 21
725.1241680878074
 97
        0
 75
     0
 76
     1
 52
0.0
 41
2.0
 77
     0
 78
     3
 53
0.0
 43
-33473.09627112634
 44
-13998.92422614714
 45
0.0
 46
10.99852
 79
     2
 49
6.349999999999999
 49
-12.7
 53
120.0
 43
-33473.09627112634
 44
-13998.92422614714
 45
-9.524997724031223
 46
-5.499259999999996
 79
     2
 49
6.349999999999982
 49
-12.69999999999996
 53
60.0
 43
-33466.74627112634
 44
-13998.92422614714
 45
-9.524997724031223
 46
5.49926
 79
     2
 49
6.349999999999999
 49
-12.7
 98
        1
 10
288.6334719013175
 20
679.5431926157625
1001
ACAD
1010
0.0
1020
0.0
1030
0.0
  0
HATCH
  5
5AA1
330
67
100
AcDbEntity
  8
F_01 sichtbar
370
    13
100
AcDbHatch
 10
0.0
 20
0.0
 30
0.0
210
0.0
220
0.0
230
1.0
  2
HEX
 70
     0
 71
     0
 91
        1
 92
        1
 93
        4
 72
     1
 10
273.9377386828619
 20
533.1241680878056
 11
273.9377386828601
 21
496.1241680878038
 72
     1
 10
273.9377386828601
 20
496.1241680878038
 11
435.8813912467012
 21
496.1241680878056
 72
     1
 10
435.8813912467012
 20
496.1241680878056
 11
435.8813912467012
 21
533.1241680878056
 72
     1
 10
435.8813912467012
 20
533.1241680878056
 11
273.9377386828619
 21
533.1241680878056
 97
        0
 75
     0
 76
     1
 52
0.0
 41
2.0
 77
     0
 78
     3
 53
0.0
 43
-33406.09627112634
 44
-14190.92422614714
 45
0.0
 46
10.99852
 79
     2
 49
6.349999999999999
 49
-12.7
 53
120.0
 43
-33406.09627112634
 44
-14190.92422614714
 45
-9.524997724031223
 46
-5.499259999999996
 79
     2
 49
6.34999999999998
 49
-12.69999999999996
 53
60.0
 43
-33399.74627112634
 44
-14190.92422614714
 45
-9.524997724031223
 46
5.49926
 79
     2
 49
6.349999999999999
 49
-12.7
 98
        1
 10
355.6334719013175
 20
487.5431926157625
1001
ACAD
1010
0.0
1020
0.0
1030
0.0
  0
POLYLINE
  5
5AA2
330
67
100
AcDbEntity
  8
F_0 sichtbar
370
    13
100
AcDb2dPolyline
 66
     1
 10
0.0
 20
0.0
 30
0.0
  0
VERTEX
  5
5AA3
330
5AA2
100
AcDbEntity
  8
F_0 sichtbar
370
    13
100
AcDbVertex
100
AcDb2dVertex
 10
344.6381497947677
 20
771.6205099311964
 30
0.0
  0
VERTEX
  5
5AA4
330
5AA2
100
AcDbEntity
  8
F_0 sichtbar
370
    13
100
AcDbVertex
100
AcDb2dVertex
 10
495.0728578614016
 20
816.1952802884089
 30
0.0
  0
SEQEND
  5
5AA5
330
5AA2
100
AcDbEntity
  8
F_0 sichtbar
370
    13
  0
POLYLINE
  5
5AA6
330
67
100
AcDbEntity
  8
F_0 sichtbar
370
    13
100
AcDb2dPolyline
 66
     1
 10
0.0
 20
0.0
 30
0.0
  0
VERTEX
  5
5AA7
330
5AA6
100
AcDbEntity
  8
F_0 sichtbar
370
    13
100
AcDbVertex
100
AcDb2dVertex
 10
341.797177232982
 20
781.2084646089779
 30
0.0
  0
VERTEX
  5
5AA8
330
5AA6
100
AcDbEntity
  8
F_0 sichtbar
370
    13
100
AcDbVertex
100
AcDb2dVertex
 10
492.2318852996158
 20
825.7832349661903
 30
0.0
  0
SEQEND
  5
5AA9
330
5AA6
100
AcDbEntity
  8
F_0 sichtbar
370
    13
  0
HATCH
  5
5AAA
330
67
100
AcDbEntity
  8
F_01 sichtbar
370
    13
100
AcDbHatch
 10
0.0
 20
0.0
 30
0.0
210
0.0
220
0.0
230
1.0
  2
CROSS
 70
     0
 71
     0
 91
        2
 92
        1
 93
        5
 72
     1
 10
435.8813912466867
 20
313.1241680878056
 11
334.0643104299525
 21
313.1241680878056
 72
     1
 10
334.0643104299525
 20
313.1241680878056
 11
334.0643104299525
 21
301.124168087802
 72
     1
 10
334.0643104299525
 20
301.124168087802
 11
395.3813729395552
 21
301.1241693492566
 72
     1
 10
395.3813729395552
 20
301.1241693492566
 11
435.8813912466867
 21
301.1241693492566
 72
     1
 10
435.8813912466867
 20
301.1241693492566
 11
435.8813912466867
 21
313.1241680878056
 97
        0
 92
        1
 93
        4
 72
     1
 10
334.0643104299525
 20
313.1241680878056
 11
273.9377386828583
 21
313.1241680878056
 72
     1
 10
273.9377386828583
 20
313.1241680878056
 11
273.9377386828583
 21
301.124168087802
 72
     1
 10
273.9377386828583
 20
301.124168087802
 11
334.0643104299525
 21
301.124168087802
 72
     1
 10
334.0643104299525
 20
301.124168087802
 11
334.0643104299525
 21
313.1241680878056
 97
        0
 75
     0
 76
     1
 52
0.0
 41
1.0
 77
     0
 78
     2
 53
0.0
 43
-33406.09627112636
 44
-14097.92422598944
 45
6.349999999999999
 46
6.349999999999999
 79
     2
 49
3.174999999999999
 49
-9.525
 53
90.0
 43
-33404.50877112635
 44
-14099.51172598944
 45
-6.349999999999999
 46
6.349999999999999
 79
     2
 49
3.174999999999999
 49
-9.525
 98
        2
 10
348.013436468973
 20
303.1431707636047
 10
320.1441489857025
 20
302.5172207614387
1001
ACAD
1010
0.0
1020
0.0
1030
0.0
  0
POLYLINE
  5
5AAB
330
67
100
AcDbEntity
  8
F_01 sichtbar
370
    13
100
AcDb2dPolyline
 66
     1
 10
0.0
 20
0.0
 30
0.0
  0
VERTEX
  5
5AAC
330
5AAB
100
AcDbEntity
  8
F_01 sichtbar
370
    13
100
AcDbVertex
100
AcDb2dVertex
 10
273.9377386828619
 20
313.1241680878056
 30
0.0
  0
VERTEX
  5
5AAD
330
5AAB
100
AcDbEntity
  8
F_01 sichtbar
370
    13
100
AcDbVertex
100
AcDb2dVertex
 10
435.8813912466867
 20
313.1241680878056
 30
0.0
  0
VERTEX
  5
5AAE
330
5AAB
100
AcDbEntity
  8
F_01 sichtbar
370
    13
100
AcDbVertex
100
AcDb2dVertex
 10
435.8813912466867
 20
301.124168087802
 30
0.0
  0
VERTEX
  5
5AAF
330
5AAB
100
AcDbEntity
  8
F_01 sichtbar
370
    13
100
AcDbVertex
100
AcDb2dVertex
 10
273.9377386828619
 20
301.1241680878029
 30
0.0
  0
SEQEND
  5
5AB0
330
5AAB
100
AcDbEntity
  8
F_01 sichtbar
370
    13
  0
LINE
  5
5AB1
330
67
100
AcDbEntity
  8
F_02 unsichtbar
370
    13
100
AcDbLine
 10
435.8813912467012
 20
314.6241680878056
 30
0.0
 11
273.9377386828583
 21
314.6241680878056
 31
0.0
  0
TEXT
  5
5AB2
330
67
100
AcDbEntity
  8
F_01 sichtbar
370
    13
100
AcDbText
 10
343.1527926972631
 20
225.8571539292207
 30
0.0
 40
15.0
  1
RH
 50
90.0
  7
Arial
100
AcDbText
  0
LINE
  5
5AB3
330
67
100
AcDbEntity
  8
F_01 sichtbar
370
    13
100
AcDbLine
 10
348.1527926972631
 20
293.6241668263474
 30
0.0
 11
348.1527926972631
 21
107.0361505605287
 31
0.0
  0
SOLID
  5
5AB4
330
67
100
AcDbEntity
  8
F_01 sichtbar
370
    13
100
AcDbTrace
 10
345.6527926972631
 20
286.1241668263474
 30
0.0
 11
350.6527926972631
 21
286.1241668263474
 31
0.0
 12
348.1527926972631
 22
301.1241668263474
 32
0.0
 13
348.1527926972631
 23
301.1241668263474
 33
0.0
  0
SOLID
  5
5AB5
330
67
100
AcDbEntity
  8
F_01 sichtbar
370
    13
100
AcDbTrace
 10
345.6527924870206
 20
316.124168087802
 30
0.0
 11
350.6527924870206
 21
316.124168087802
 31
0.0
 12
348.1527924870206
 22
301.124168087802
 32
0.0
 13
348.1527924870206
 23
301.124168087802
 33
0.0
  0
SOLID
  5
5AB6
330
67
100
AcDbEntity
  8
F_01 sichtbar
370
    13
100
AcDbTrace
 10
345.6527924870206
 20
481.1241680878056
 30
0.0
 11
350.6527924870206
 21
481.1241680878056
 31
0.0
 12
348.1527924870206
 22
496.1241680878056
 32
0.0
 13
348.1527924870206
 23
496.1241680878056
 33
0.0
  0
TEXT
  5
5AB7
330
67
100
AcDbEntity
  8
F_01 sichtbar
370
    13
100
AcDbText
 10
343.1527924870206
 20
392.9836372057644
 30
0.0
 40
15.0
  1
D1
 50
90.0
  7
Arial
100
AcDbText
  0
SOLID
  5
5AB8
330
67
100
AcDbEntity
  8
F_01 sichtbar
370
    13
100
AcDbTrace
 10
345.6527924870206
 20
511.1241680878056
 30
0.0
 11
350.6527924870206
 21
511.1241680878056
 31
0.0
 12
348.1527924870206
 22
496.1241680878056
 32
0.0
 13
348.1527924870206
 23
496.1241680878056
 33
0.0
  0
SOLID
  5
5AB9
330
67
100
AcDbEntity
  8
F_01 sichtbar
370
    13
100
AcDbTrace
 10
345.6527924870206
 20
710.1241680878065
 30
0.0
 11
350.6527924870206
 21
710.1241680878065
 31
0.0
 12
348.1527924870206
 22
725.1241680878065
 32
0.0
 13
348.1527924870206
 23
725.1241680878065
 33
0.0
  0
TEXT
  5
5ABA
330
67
100
AcDbEntity
  8
F_01 sichtbar
370
    13
100
AcDbText
 10
343.1527924870206
 20
604.7548903021879
 30
0.0
 40
15.0
  1
D2
 50
90.0
  7
Arial
100
AcDbText
  0
LINE
  5
5ABB
330
67
100
AcDbEntity
  8
F_01 sichtbar
370
    13
100
AcDbLine
 10
348.1527924870206
 20
717.6241680878065
 30
0.0
 11
348.1527924870206
 21
503.6241680878056
 31
0.0
  0
LINE
  5
5ABC
330
67
100
AcDbEntity
  8
F_01 sichtbar
370
    13
100
AcDbLine
 10
348.1527924870206
 20
488.6241680878056
 30
0.0
 11
348.1527924870206
 21
308.624168087802
 31
0.0
  0
MTEXT
  5
5ABD
330
67
100
AcDbEntity
  8
F_01 sichtbar
370
    13
100
AcDbMText
 10
298.9377386828528
 20
850.1241680878065
 30
0.0
 40
30.0
 41
187.1747820159653
 71
     1
 72
     5
  1
\A1;{\fArial Narrow|b1|i0|c0|p34;CNS}
 73
     1
 44
1.0
  0
POLYLINE
  5
5ABE
330
67
100
AcDbEntity
  8
F_31 Ansichtsfenster
370
    13
100
AcDb2dPolyline
 66
     1
 10
0.0
 20
0.0
 30
0.0
  0
VERTEX
  5
5ABF
330
5ABE
100
AcDbEntity
  8
F_31 Ansichtsfenster
370
    13
100
AcDbVertex
100
AcDb2dVertex
 10
273.9377386828601
 20
301.124168087802
 30
0.0
  0
VERTEX
  5
5AC0
330
5ABE
100
AcDbEntity
  8
F_31 Ansichtsfenster
370
    13
100
AcDbVertex
100
AcDb2dVertex
 10
273.9377386828601
 20
725.1241680878065
 30
0.0
  0
SEQEND
  5
5AC1
330
5ABE
100
AcDbEntity
  8
F_31 Ansichtsfenster
370
    13
  0
HATCH
  5
5AC2
330
67
100
AcDbEntity
  8
F_29 Bemassung M
370
    13
100
AcDbHatch
 10
0.0
 20
0.0
 30
0.0
210
0.0
220
0.0
230
1.0
  2
SOLID
 70
     1
 71
     0
 91
        1
 92
        1
 93
        8
 72
     1
 10
446.38137191852
 20
301.1241680352514
 11
446.38137191852
 21
339.6241680352514
 72
     2
 10
448.88137191852
 20
339.6241680352514
 40
2.5
 50
180.0
 51
270.0
 73
     0
 72
     1
 10
448.88137191852
 20
342.1241680352514
 11
458.38137191852
 21
342.1241680352514
 72
     1
 10
458.38137191852
 20
342.1241680352514
 11
458.38137191852
 21
345.1241680352514
 72
     1
 10
458.38137191852
 20
345.1241680352514
 11
448.88137191852
 21
345.1241680352514
 72
     2
 10
448.88137191852
 20
339.6241680352514
 40
5.5
 50
90.0
 51
180.0
 73
     1
 72
     1
 10
443.38137191852
 20
339.6241680352514
 11
443.38137191852
 21
301.1241680352514
 72
     1
 10
443.38137191852
 20
301.1241680352514
 11
446.38137191852
 21
301.1241680352514
 97
        0
 75
     0
 76
     1
 98
        1
 10
-36996.74025995207
 20
-14084.92422614702
450
        0
451
        0
460
0.0
461
0.0
452
        1
462
1.0
453
        2
463
0.0
 63
     5
421
      255
463
1.0
 63
     7
421
 16777215
470
LINEAR
1001
ACAD
1010
0.0
1020
0.0
1030
0.0
  0
HATCH
  5
5AC3
330
67
100
AcDbEntity
  8
F_18 Schr-Holz hell
370
    13
100
AcDbHatch
 10
0.0
 20
0.0
 30
0.0
210
0.0
220
0.0
230
1.0
  2
SOLID
 70
     1
 71
     0
 91
        1
 92
        1
 93
        6
 72
     1
 10
443.3813825869438
 20
345.1241680878093
 11
458.38137191852
 21
345.1241680878093
 72
     1
 10
458.38137191852
 20
345.1241680878093
 11
458.3813719185236
 21
342.1241656587927
 72
     1
 10
458.3813719185236
 20
342.1241656587927
 11
468.3813715937212
 21
342.1241656587927
 72
     1
 10
468.3813715937212
 20
342.1241656587927
 11
468.3820934989562
 21
808.2866353526442
 72
     1
 10
468.3820934989562
 20
808.2866353526442
 11
443.3813912466994
 21
800.8786933354357
 72
     1
 10
443.3813912466994
 20
800.8786933354357
 11
443.3813825869438
 21
345.1241680878093
 97
        0
 75
     0
 76
     1
 98
        1
 10
-36996.74025995207
 20
-14084.92422614702
450
        0
451
        0
460
0.0
461
0.0
452
        1
462
1.0
453
        2
463
0.0
 63
     5
421
      255
463
1.0
 63
     7
421
 16777215
470
LINEAR
1001
ACAD
1010
0.0
1020
0.0
1030
0.0
  0
LINE
  5
5AC4
330
67
100
AcDbEntity
  8
F_01 sichtbar
370
    13
100
AcDbLine
 10
435.8813912467085
 20
311.5801261095557
 30
0.0
 11
443.381368344395
 21
311.5801261095557
 31
0.0
  0
ARC
  5
5AC5
330
67
100
AcDbEntity
  8
F_01 sichtbar
370
    13
100
AcDbCircle
 10
439.6313797955517
 20
292.0631990394113
 30
0.0
 40
9.806302779973693
100
AcDbArc
 50
67.51720730066883
 51
112.4827926993311
  0
POLYLINE
  5
5AC6
330
67
100
AcDbEntity
  8
F_01 sichtbar
370
    13
100
AcDb2dPolyline
 66
     1
 10
0.0
 20
0.0
 30
0.0
 70
     1
  0
VERTEX
  5
5AC7
330
5AC6
100
AcDbEntity
  8
F_01 sichtbar
370
    13
100
AcDbVertex
100
AcDb2dVertex
 10
443.3813912467012
 20
800.8787666766885
 30
0.0
  0
VERTEX
  5
5AC8
330
5AC6
100
AcDbEntity
  8
F_01 sichtbar
370
    13
100
AcDbVertex
100
AcDb2dVertex
 10
468.3820934989562
 20
808.2866353526442
 30
0.0
  0
VERTEX
  5
5AC9
330
5AC6
100
AcDbEntity
  8
F_01 sichtbar
370
    13
100
AcDbVertex
100
AcDb2dVertex
 10
468.3813715937212
 20
342.1241656587927
 30
0.0
  0
VERTEX
  5
5ACA
330
5AC6
100
AcDbEntity
  8
F_01 sichtbar
370
    13
100
AcDbVertex
100
AcDb2dVertex
 10
458.3813719185236
 20
342.1241656587927
 30
0.0
  0
VERTEX
  5
5ACB
330
5AC6
100
AcDbEntity
  8
F_01 sichtbar
370
    13
100
AcDbVertex
100
AcDb2dVertex
 10
458.3813719185236
 20
342.1241656587927
 30
0.0
  0
VERTEX
  5
5ACC
330
5AC6
100
AcDbEntity
  8
F_01 sichtbar
370
    13
100
AcDbVertex
100
AcDb2dVertex
 10
458.38137191852
 20
342.1241680352514
 30
0.0
  0
VERTEX
  5
5ACD
330
5AC6
100
AcDbEntity
  8
F_01 sichtbar
370
    13
100
AcDbVertex
100
AcDb2dVertex
 10
458.38137191852
 20
342.1241680352514
 30
0.0
  0
VERTEX
  5
5ACE
330
5AC6
100
AcDbEntity
  8
F_01 sichtbar
370
    13
100
AcDbVertex
100
AcDb2dVertex
 10
458.38137191852
 20
342.1241680352514
 30
0.0
  0
VERTEX
  5
5ACF
330
5AC6
100
AcDbEntity
  8
F_01 sichtbar
370
    13
100
AcDbVertex
100
AcDb2dVertex
 10
458.3813683444023
 20
345.1241680878093
 30
0.0
  0
VERTEX
  5
5AD0
330
5AC6
100
AcDbEntity
  8
F_01 sichtbar
370
    13
100
AcDbVertex
100
AcDb2dVertex
 10
443.3813836655899
 20
345.1241680878093
 30
0.0
  0
SEQEND
  5
5AD1
330
5AC6
100
AcDbEntity
  8
F_01 sichtbar
370
    13
  0
POLYLINE
  5
5AD2
330
67
100
AcDbEntity
  8
F_01 sichtbar
370
    13
100
AcDb2dPolyline
 66
     1
 10
0.0
 20
0.0
 30
0.0
 70
     1
  0
VERTEX
  5
5AD3
330
5AD2
100
AcDbEntity
  8
F_01 sichtbar
370
    13
100
AcDbVertex
100
AcDb2dVertex
 10
446.38137191852
 20
301.1241680352514
 30
0.0
  0
VERTEX
  5
5AD4
330
5AD2
100
AcDbEntity
  8
F_01 sichtbar
370
    13
100
AcDbVertex
100
AcDb2dVertex
 10
446.38137191852
 20
339.6241680352514
 30
0.0
 42
-0.4142135623730951
  0
VERTEX
  5
5AD5
330
5AD2
100
AcDbEntity
  8
F_01 sichtbar
370
    13
100
AcDbVertex
100
AcDb2dVertex
 10
448.88137191852
 20
342.1241680352514
 30
0.0
  0
VERTEX
  5
5AD6
330
5AD2
100
AcDbEntity
  8
F_01 sichtbar
370
    13
100
AcDbVertex
100
AcDb2dVertex
 10
458.38137191852
 20
342.1241680352514
 30
0.0
  0
VERTEX
  5
5AD7
330
5AD2
100
AcDbEntity
  8
F_01 sichtbar
370
    13
100
AcDbVertex
100
AcDb2dVertex
 10
458.38137191852
 20
345.1241680352514
 30
0.0
  0
VERTEX
  5
5AD8
330
5AD2
100
AcDbEntity
  8
F_01 sichtbar
370
    13
100
AcDbVertex
100
AcDb2dVertex
 10
448.88137191852
 20
345.1241680352514
 30
0.0
 42
0.4142135623730951
  0
VERTEX
  5
5AD9
330
5AD2
100
AcDbEntity
  8
F_01 sichtbar
370
    13
100
AcDbVertex
100
AcDb2dVertex
 10
443.38137191852
 20
339.6241680352514
 30
0.0
  0
VERTEX
  5
5ADA
330
5AD2
100
AcDbEntity
  8
F_01 sichtbar
370
    13
100
AcDbVertex
100
AcDb2dVertex
 10
443.38137191852
 20
301.1241680352514
 30
0.0
  0
SEQEND
  5
5ADB
330
5AD2
100
AcDbEntity
  8
F_01 sichtbar
370
    13
  0
HATCH
  5
5ADC
330
67
100
AcDbEntity
  8
F_01 sichtbar
370
    13
100
AcDbHatch
 10
0.0
 20
0.0
 30
0.0
210
0.0
220
0.0
230
1.0
  2
JIS_WOOD
 70
     0
 71
     0
 91
        1
 92
        1
 93
        6
 72
     1
 10
444.881377449974
 20
345.1241680878093
 11
458.3813683444023
 21
345.1241680352514
 72
     1
 10
458.3813683444023
 20
345.1241680352514
 11
458.381368344395
 21
338.1241689729768
 72
     1
 10
458.381368344395
 20
338.1241689729768
 11
466.8813777410905
 21
338.124204353825
 72
     1
 10
466.8813777410905
 20
338.124204353825
 11
466.8813777410905
 21
807.8419636333446
 72
     1
 10
466.8813777410905
 20
807.8419636333446
 11
444.8813777410887
 21
801.3232223105351
 72
     1
 10
444.8813777410887
 20
801.3232223105351
 11
444.881377449974
 21
345.1241680878093
 97
        0
 75
     0
 76
     1
 52
315.0
 41
30.0
 77
     0
 78
     1
 53
0.0
 43
-23265.43954140555
 44
-14175.41654499187
 45
0.0000000000000071
 46
21.2132034
 79
     0
 98
        1
 10
-23265.43954140555
 20
-14175.41654499187
1001
ACAD
1010
0.0
1020
0.0
1030
0.0
  0
MTEXT
  5
5ADD
330
67
100
AcDbEntity
  8
F_01 sichtbar
370
    13
100
AcDbMText
 10
415.0245736412761
 20
249.1038103278624
 30
0.0
 40
15.0
 41
252.9031109687348
 71
     1
 72
     5
  1
\A1;{\fArial Narrow|b0|i0|c0|p34;CNS-Winkelprofilrahmen \P44/15/3 mm}
 73
     1
 44
1.0
  0
LINE
  5
5ADE
330
67
100
AcDbEntity
  8
F_01 sichtbar
370
    13
100
AcDbLine
 10
444.88137191852
 20
286.1241680352514
 30
0.0
 11
444.88137191852
 21
252.8012728534013
 31
0.0
  0
SOLID
  5
5ADF
330
67
100
AcDbEntity
  8
F_01 sichtbar
370
    13
100
AcDbTrace
 10
442.38137191852
 20
286.1241680352514
 30
0.0
 11
447.38137191852
 21
286.1241680352514
 31
0.0
 12
444.88137191852
 22
301.1241680352514
 32
0.0
 13
444.88137191852
 23
301.1241680352514
 33
0.0
  0
LINE
  5
5AE0
330
67
100
AcDbEntity
  8
F_01 sichtbar
370
    13
100
AcDbLine
 10
466.8813777410905
 20
807.8419636333455
 30
0.0
 11
466.8813777410905
 21
342.1241656587927
 31
0.0
  0
LINE
  5
5AE1
330
67
100
AcDbEntity
  8
F_01 sichtbar
370
    13
100
AcDbLine
 10
444.8813777410905
 20
345.1241680878093
 30
0.0
 11
444.8813777410887
 21
801.323222310536
 31
0.0
  0
POLYLINE
  5
5AE2
330
67
100
AcDbEntity
  8
F_01 sichtbar
370
    13
100
AcDb2dPolyline
 66
     1
 10
0.0
 20
0.0
 30
0.0
 70
     1
  0
VERTEX
  5
5AE3
330
5AE2
100
AcDbEntity
  8
F_01 sichtbar
370
    13
100
AcDbVertex
100
AcDb2dVertex
 10
453.3813641119922
 20
342.1241656587927
 30
0.0
  0
VERTEX
  5
5AE4
330
5AE2
100
AcDbEntity
  8
F_01 sichtbar
370
    13
100
AcDbVertex
100
AcDb2dVertex
 10
453.3813641119922
 20
302.1241656587926
 30
0.0
  0
VERTEX
  5
5AE5
330
5AE2
100
AcDbEntity
  8
F_01 sichtbar
370
    13
100
AcDbVertex
100
AcDb2dVertex
 10
493.3813641119923
 20
302.1241656587926
 30
0.0
  0
VERTEX
  5
5AE6
330
5AE2
100
AcDbEntity
  8
F_01 sichtbar
370
    13
100
AcDbVertex
100
AcDb2dVertex
 10
493.3813641119923
 20
307.1241656587927
 30
0.0
  0
VERTEX
  5
5AE7
330
5AE2
100
AcDbEntity
  8
F_01 sichtbar
370
    13
100
AcDbVertex
100
AcDb2dVertex
 10
473.3813641119922
 20
307.1241656587927
 30
0.0
  0
VERTEX
  5
5AE8
330
5AE2
100
AcDbEntity
  8
F_01 sichtbar
370
    13
100
AcDbVertex
100
AcDb2dVertex
 10
473.3813641119922
 20
342.1241656587927
 30
0.0
  0
SEQEND
  5
5AE9
330
5AE2
100
AcDbEntity
  8
F_01 sichtbar
370
    13
  0
POLYLINE
  5
5AEA
330
67
100
AcDbEntity
  8
F_02 unsichtbar
370
    13
100
AcDb2dPolyline
 66
     1
 10
0.0
 20
0.0
 30
0.0
 70
     1
  0
VERTEX
  5
5AEB
330
5AEA
100
AcDbEntity
  8
F_02 unsichtbar
370
    13
100
AcDbVertex
100
AcDb2dVertex
 10
455.8813641119923
 20
339.6241656587926
 30
0.0
  0
VERTEX
  5
5AEC
330
5AEA
100
AcDbEntity
  8
F_02 unsichtbar
370
    13
100
AcDbVertex
100
AcDb2dVertex
 10
455.8813641119923
 20
304.6241656587927
 30
0.0
  0
VERTEX
  5
5AED
330
5AEA
100
AcDbEntity
  8
F_02 unsichtbar
370
    13
100
AcDbVertex
100
AcDb2dVertex
 10
470.8813641119923
 20
304.6241656587927
 30
0.0
  0
VERTEX
  5
5AEE
330
5AEA
100
AcDbEntity
  8
F_02 unsichtbar
370
    13
100
AcDbVertex
100
AcDb2dVertex
 10
470.8813641119923
 20
339.6241656587926
 30
0.0
  0
SEQEND
  5
5AEF
330
5AEA
100
AcDbEntity
  8
F_02 unsichtbar
370
    13
  0
POLYLINE
  5
5AF0
330
67
100
AcDbEntity
  8
F_02 unsichtbar
370
    13
100
AcDb2dPolyline
 66
     1
 10
0.0
 20
0.0
 30
0.0
  0
VERTEX
  5
5AF1
330
5AF0
100
AcDbEntity
  8
F_02 unsichtbar
370
    13
100
AcDbVertex
100
AcDb2dVertex
 10
470.8813641119923
 20
304.6241656587927
 30
0.0
  0
VERTEX
  5
5AF2
330
5AF0
100
AcDbEntity
  8
F_02 unsichtbar
370
    13
100
AcDbVertex
100
AcDb2dVertex
 10
490.8813641119922
 20
304.6241656587945
 30
0.0
  0
SEQEND
  5
5AF3
330
5AF0
100
AcDbEntity
  8
F_02 unsichtbar
370
    13
  0
LINE
  5
5AF4
330
67
100
AcDbEntity
  8
F_01 sichtbar
370
    13
100
AcDbLine
 10
478.3813641119922
 20
307.1241656587927
 30
0.0
 11
669.7237408386645
 21
307.1241656587931
 31
0.0
  0
POLYLINE
  5
5AF5
330
67
100
AcDbEntity
  8
F_01 sichtbar
370
    13
100
AcDb2dPolyline
 66
     1
 10
0.0
 20
0.0
 30
0.0
  0
VERTEX
  5
5AF6
330
5AF5
100
AcDbEntity
  8
F_01 sichtbar
370
    13
100
AcDbVertex
100
AcDb2dVertex
 10
493.3813641119923
 20
302.1241656587926
 30
0.0
  0
VERTEX
  5
5AF7
330
5AF5
100
AcDbEntity
  8
F_01 sichtbar
370
    13
100
AcDbVertex
100
AcDb2dVertex
 10
669.7237408386645
 20
302.1241656587926
 30
0.0
  0
SEQEND
  5
5AF8
330
5AF5
100
AcDbEntity
  8
F_01 sichtbar
370
    13
  0
POLYLINE
  5
5AF9
330
67
100
AcDbEntity
  8
F_02 unsichtbar
370
    13
100
AcDb2dPolyline
 66
     1
 10
0.0
 20
0.0
 30
0.0
  0
VERTEX
  5
5AFA
330
5AF9
100
AcDbEntity
  8
F_02 unsichtbar
370
    13
100
AcDbVertex
100
AcDb2dVertex
 10
485.3813641119923
 20
307.1241656587927
 30
0.0
  0
VERTEX
  5
5AFB
330
5AF9
100
AcDbEntity
  8
F_02 unsichtbar
370
    13
100
AcDbVertex
100
AcDb2dVertex
 10
485.3813641119923
 20
302.1241656587926
 30
0.0
  0
SEQEND
  5
5AFC
330
5AF9
100
AcDbEntity
  8
F_02 unsichtbar
370
    13
  0
LINE
  5
5AFD
330
67
100
AcDbEntity
  8
F_01 sichtbar
370
    13
100
AcDbLine
 10
474.3813641119959
 20
313.1241656587927
 30
0.0
 11
669.7237408386645
 21
313.1241656587931
 31
0.0
  0
LWPOLYLINE
  5
5AFE
330
67
100
AcDbEntity
  8
F_01 sichtbar
370
    13
100
AcDbPolyline
 90
        4
 70
     0
 43
0.0
 10
669.7237408386645
 20
310.1241656587927
 10
474.3813641119959
 20
310.1241656587927
 10
474.3813641119959
 20
313.1241656587927
 10
669.7237408386645
 20
313.1241656587927
  0
POLYLINE
  5
5AFF
330
67
100
AcDbEntity
  8
F_31 Ansichtsfenster
370
    13
100
AcDb2dPolyline
 66
     1
 10
0.0
 20
0.0
 30
0.0
  0
VERTEX
  5
5B00
330
5AFF
100
AcDbEntity
  8
F_31 Ansichtsfenster
370
    13
100
AcDbVertex
100
AcDb2dVertex
 10
669.7237408386645
 20
302.1241656587922
 30
0.0
  0
VERTEX
  5
5B01
330
5AFF
100
AcDbEntity
  8
F_31 Ansichtsfenster
370
    13
100
AcDbVertex
100
AcDb2dVertex
 10
669.7237408386645
 20
313.124165658789
 30
0.0
  0
SEQEND
  5
5B02
330
5AFF
100
AcDbEntity
  8
F_31 Ansichtsfenster
370
    13
  0
CIRCLE
  5
5B03
330
67
100
AcDbEntity
  8
F_01 sichtbar
370
    13
100
AcDbCircle
 10
650.8813641119923
 20
308.6241656587926
 30
0.0
 40
1.5
  0
CIRCLE
  5
5B04
330
67
100
AcDbEntity
  8
F_01 sichtbar
370
    13
100
AcDbCircle
 10
615.8813641119922
 20
308.6241656587926
 30
0.0
 40
1.5
  0
CIRCLE
  5
5B05
330
67
100
AcDbEntity
  8
F_01 sichtbar
370
    13
100
AcDbCircle
 10
580.8813641119923
 20
308.6241656587926
 30
0.0
 40
1.5
  0
CIRCLE
  5
5B06
330
67
100
AcDbEntity
  8
F_01 sichtbar
370
    13
100
AcDbCircle
 10
545.8813641119923
 20
308.6241656587926
 30
0.0
 40
1.5
  0
CIRCLE
  5
5B07
330
67
100
AcDbEntity
  8
F_01 sichtbar
370
    13
100
AcDbCircle
 10
510.8813641119922
 20
308.6241656587926
 30
0.0
 40
1.5
  0
CIRCLE
  5
5B08
330
67
100
AcDbEntity
  8
F_01 sichtbar
370
    13
100
AcDbCircle
 10
475.8813641119923
 20
308.6241656587926
 30
0.0
 40
1.5
  0
MTEXT
  5
5B09
102
{ACAD_XDICTIONARY
360
5B46
102
}
330
67
100
AcDbEntity
  8
F_01 sichtbar
370
    13
100
AcDbMText
 10
475.7266812383932
 20
417.8191578178275
 30
0.0
 40
15.0
 41
267.009647861938
 71
     1
 72
     5
  1
\A1;{\fArial Narrow|b0|i0|c0|p34;Gitterrost mit\PDrahtgeflecht \U+00D8 3 mm\PMaschenweite 35 x 35 mm}
 73
     1
 44
1.0
  0
ENDSEC
  0
SECTION
  2
OBJECTS
  0
DICTIONARY
  5
C
330
0
100
AcDbDictionary
281
     1
  3
ACAD_2007HEADERVARS_RT
350
5B16
  3
ACAD_COLOR
350
5E
  3
ACAD_GROUP
350
D
  3
ACAD_LAYOUT
350
5D
  3
ACAD_MATERIAL
350
10
  3
ACAD_MLEADERSTYLE
350
61
  3
ACAD_MLINESTYLE
350
5A
  3
ACAD_PLOTSETTINGS
350
5C
  3
ACAD_PLOTSTYLENAME
350
E
  3
ACAD_SCALELIST
350
3D
  3
ACAD_TABLESTYLE
350
5F
  3
ACAD_VISUALSTYLE
350
29
  3
ACDB_RECOMPOSE_DATA
350
5B15
  3
AcDbVariableDictionary
350
5B0A
  3
AEC_PROPERTY_SET_DEFS
350
5A24
  0
DICTIONARY
  5
5939
330
2
100
AcDbDictionary
280
     1
281
     1
  3
ACAD_LAYERSTATES
360
593A
  0
DICTIONARY
  5
592C
330
592B
100
AcDbDictionary
280
     1
281
     1
  0
DICTIONARY
  5
592E
330
592D
100
AcDbDictionary
280
     1
281
     1
  0
DICTIONARY
  5
5909
330
5908
100
AcDbDictionary
280
     1
281
     1
  3
ACAD_SORTENTS
360
590A
  0
DICTIONARY
  5
590F
330
590E
100
AcDbDictionary
280
     1
281
     1
  3
ACAD_SORTENTS
360
5910
  0
DICTIONARY
  5
5B46
330
5B09
100
AcDbDictionary
280
     1
281
     1
  3
ACAD_MTEXT_2008_RT
360
5B47
  0
DICTIONARY
  5
5B16
102
{ACAD_REACTORS
330
C
102
}
330
C
100
AcDbDictionary
281
     1
  3
DIMJOGANG
350
5B17
  0
DICTIONARY
  5
5E
102
{ACAD_REACTORS
330
C
102
}
330
C
100
AcDbDictionary
281
     1
  0
DICTIONARY
  5
D
102
{ACAD_REACTORS
330
C
102
}
330
C
100
AcDbDictionary
281
     1
  0
DICTIONARY
  5
5D
102
{ACAD_REACTORS
330
C
102
}
330
C
100
AcDbDictionary
281
     1
  3
Layout1
350
66
  3
Layout2
350
6E
  3
Model
350
6A
  0
DICTIONARY
  5
10
102
{ACAD_REACTORS
330
C
102
}
330
C
100
AcDbDictionary
281
     1
  3
ByBlock
350
19
  3
ByLayer
350
11
  3
Global
350
21
  0
DICTIONARY
  5
61
102
{ACAD_REACTORS
330
C
102
}
330
C
100
AcDbDictionary
281
     1
  3
Standard
350
62
  0
DICTIONARY
  5
5A
102
{ACAD_REACTORS
330
C
102
}
330
C
100
AcDbDictionary
281
     1
  3
Standard
350
5B
  0
DICTIONARY
  5
5C
102
{ACAD_REACTORS
330
C
102
}
330
C
100
AcDbDictionary
281
     1
  0
ACDBDICTIONARYWDFLT
  5
E
102
{ACAD_REACTORS
330
C
102
}
330
C
100
AcDbDictionary
281
     1
  3
Normal
350
F
100
AcDbDictionaryWithDefault
340
F
  0
DICTIONARY
  5
3D
102
{ACAD_REACTORS
330
C
102
}
330
C
100
AcDbDictionary
281
     1
  3
A0
350
3E
  3
A1
350
3F
  3
A2
350
40
  3
A3
350
41
  3
A4
350
42
  3
A5
350
43
  3
A6
350
44
  3
A7
350
45
  3
A8
350
46
  3
A9
350
47
  3
B0
350
48
  3
B1
350
49
  3
B2
350
4A
  3
B3
350
4B
  3
B4
350
4C
  3
B5
350
4D
  3
B6
350
4E
  0
DICTIONARY
  5
5F
102
{ACAD_REACTORS
330
C
102
}
330
C
100
AcDbDictionary
281
     1
  3
Standard
350
60
  0
DICTIONARY
  5
29
102
{ACAD_REACTORS
330
C
102
}
330
C
100
AcDbDictionary
281
     1
  3
2dWireframe
350
2F
  3
3D Hidden
350
31
  3
3dWireframe
350
30
  3
Basic
350
2E
  3
Brighten
350
35
  3
ColorChange
350
39
  3
Conceptual
350
32
  3
Dim
350
34
  3
EdgeColorOff
350
3C
  3
Facepattern
350
38
  3
Flat
350
2A
  3
FlatWithEdges
350
2B
  3
Gouraud
350
2C
  3
GouraudWithEdges
350
2D
  3
JitterOff
350
3A
  3
Linepattern
350
37
  3
OverhangOff
350
3B
  3
Realistic
350
33
  3
Thicken
350
36
  0
XRECORD
  5
5B15
102
{ACAD_REACTORS
330
C
102
}
330
C
100
AcDbXrecord
280
     1
 90
        1
330
60
  0
DICTIONARY
  5
5B0A
102
{ACAD_REACTORS
330
C
102
}
330
C
100
AcDbDictionary
281
     1
  3
CANNOSCALE
350
5B0E
  3
CMLEADERSTYLE
350
5B0C
  3
CTABLESTYLE
350
5B0B
  3
LAYEREVAL
350
5B10
  3
LAYERNOTIFY
350
5B11
  3
LIGHTINGUNITS
350
5B0F
  3
MSLTSCALE
350
5B0D
  3
XCLIPFRAME
350
5B12
  0
DICTIONARY
  5
5A24
102
{ACAD_REACTORS
330
C
102
}
330
C
100
AcDbDictionary
281
     1
  0
DICTIONARY
  5
593A
102
{ACAD_REACTORS
330
5939
102
}
330
5939
100
AcDbDictionary
281
     1
  0
SORTENTSTABLE
  5
590A
102
{ACAD_REACTORS
330
5909
102
}
330
5909
100
AcDbSortentsTable
330
5908
  0
SORTENTSTABLE
  5
5910
102
{ACAD_REACTORS
330
590F
102
}
330
590F
100
AcDbSortentsTable
330
590E
  0
XRECORD
  5
5B47
102
{ACAD_REACTORS
330
5B46
102
}
330
5B46
100
AcDbXrecord
280
     1
 40
441939.0
  1
\A1;{\fArial Narrow|b0|i0|c0|p34;Gitterrost mit\PDrahtgeflecht Ø 3 mm\PMaschenweite 35 x 35 mm}
  0
XRECORD
  5
5B17
102
{ACAD_REACTORS
330
5B16
102
}
330
5B16
100
AcDbXrecord
280
     1
 40
1.570796326794896
  0
LAYOUT
  5
66
102
{ACAD_REACTORS
330
5D
102
}
330
5D
100
AcDbPlotSettings
  1

  2
HP Deskjet 1280 series
  4

  6

 40
0.0
 41
0.0
 42
0.0
 43
0.0
 44
0.0
 45
0.0
 46
0.0
 47
0.0
 48
0.0
 49
0.0
140
0.0
141
0.0
142
1.0
143
1.0
 70
   688
 72
     0
 73
     0
 74
     5
  7

 75
    16
147
1.0
 76
     0
 77
     2
 78
   300
148
0.0
149
0.0
100
AcDbLayout
  1
Layout1
 70
     1
 71
     1
 10
0.0
 20
0.0
 11
420.0
 21
297.0
 12
0.0
 22
0.0
 32
0.0
 14
1.000000000000000E+20
 24
1.000000000000000E+20
 34
1.000000000000000E+20
 15
-1.000000000000000E+20
 25
-1.000000000000000E+20
 35
-1.000000000000000E+20
146
0.0
 13
0.0
 23
0.0
 33
0.0
 16
1.0
 26
0.0
 36
0.0
 17
0.0
 27
1.0
 37
0.0
 76
     0
330
63
  0
LAYOUT
  5
6E
102
{ACAD_REACTORS
330
5D
102
}
330
5D
100
AcDbPlotSettings
  1

  2
HP Deskjet 1280 series
  4

  6

 40
0.0
 41
0.0
 42
0.0
 43
0.0
 44
0.0
 45
0.0
 46
0.0
 47
0.0
 48
0.0
 49
0.0
140
0.0
141
0.0
142
1.0
143
1.0
 70
   688
 72
     0
 73
     0
 74
     5
  7

 75
    16
147
1.0
 76
     0
 77
     2
 78
   300
148
0.0
149
0.0
100
AcDbLayout
  1
Layout2
 70
     1
 71
     2
 10
0.0
 20
0.0
 11
12.0
 21
9.0
 12
0.0
 22
0.0
 32
0.0
 14
0.0
 24
0.0
 34
0.0
 15
0.0
 25
0.0
 35
0.0
146
0.0
 13
0.0
 23
0.0
 33
0.0
 16
1.0
 26
0.0
 36
0.0
 17
0.0
 27
1.0
 37
0.0
 76
     0
330
6B
  0
LAYOUT
  5
6A
102
{ACAD_REACTORS
330
5D
102
}
330
5D
100
AcDbPlotSettings
  1

  2
HP Deskjet 1280 series
  4

  6

 40
0.0
 41
0.0
 42
0.0
 43
0.0
 44
0.0
 45
0.0
 46
0.0
 47
0.0
 48
0.0
 49
0.0
140
0.0
141
0.0
142
1.0
143
1.0
 70
  1712
 72
     0
 73
     0
 74
     0
  7

 75
     0
147
1.0
 76
     0
 77
     2
 78
   300
148
0.0
149
0.0
100
AcDbLayout
  1
Model
 70
     1
 71
     0
 10
0.0
 20
0.0
 11
12.0
 21
9.0
 12
0.0
 22
0.0
 32
0.0
 14
0.0
 24
0.0
 34
0.0
 15
0.0
 25
0.0
 35
0.0
146
0.0
 13
0.0
 23
0.0
 33
0.0
 16
1.0
 26
0.0
 36
0.0
 17
0.0
 27
1.0
 37
0.0
 76
     0
330
67
331
52
  0
MATERIAL
  5
19
102
{ACAD_XDICTIONARY
360
1A
102
}
102
{ACAD_REACTORS
330
10
102
}
330
10
100
AcDbMaterial
  1
ByBlock
 72
     0
 43
0.0208333333333333
 43
0.0
 43
0.0
 43
0.0
 43
0.0
 43
0.0208333333333333
 43
0.0
 43
0.0
 43
0.0
 43
0.0
 43
1.0
 43
0.0
 43
0.0
 43
0.0
 43
0.0
 43
1.0
 77
     0
 47
0.0208333333333333
 47
0.0
 47
0.0
 47
0.0
 47
0.0
 47
0.0208333333333333
 47
0.0
 47
0.0
 47
0.0
 47
0.0
 47
1.0
 47
0.0
 47
0.0
 47
0.0
 47
0.0
 47
1.0
171
     0
 49
0.0208333333333333
 49
0.0
 49
0.0
 49
0.0
 49
0.0
 49
0.0208333333333333
 49
0.0
 49
0.0
 49
0.0
 49
0.0
 49
1.0
 49
0.0
 49
0.0
 49
0.0
 49
0.0
 49
1.0
175
     0
142
0.0208333333333333
142
0.0
142
0.0
142
0.0
142
0.0
142
0.0208333333333333
142
0.0
142
0.0
142
0.0
142
0.0
142
1.0
142
0.0
142
0.0
142
0.0
142
0.0
142
1.0
179
     0
144
0.0208333333333333
144
0.0
144
0.0
144
0.0
144
0.0
144
0.0208333333333333
144
0.0
144
0.0
144
0.0
144
0.0
144
1.0
144
0.0
144
0.0
144
0.0
144
0.0
144
1.0
147
0.0208333333333333
147
0.0
147
0.0
147
0.0
147
0.0
147
0.0208333333333333
147
0.0
147
0.0
147
0.0
147
0.0
147
1.0
147
0.0
147
0.0
147
0.0
147
0.0
147
1.0
  0
MATERIAL
  5
11
102
{ACAD_XDICTIONARY
360
12
102
}
102
{ACAD_REACTORS
330
10
102
}
330
10
100
AcDbMaterial
  1
ByLayer
 72
     0
 43
0.0208333333333333
 43
0.0
 43
0.0
 43
0.0
 43
0.0
 43
0.0208333333333333
 43
0.0
 43
0.0
 43
0.0
 43
0.0
 43
1.0
 43
0.0
 43
0.0
 43
0.0
 43
0.0
 43
1.0
 77
     0
 47
0.0208333333333333
 47
0.0
 47
0.0
 47
0.0
 47
0.0
 47
0.0208333333333333
 47
0.0
 47
0.0
 47
0.0
 47
0.0
 47
1.0
 47
0.0
 47
0.0
 47
0.0
 47
0.0
 47
1.0
171
     0
 49
0.0208333333333333
 49
0.0
 49
0.0
 49
0.0
 49
0.0
 49
0.0208333333333333
 49
0.0
 49
0.0
 49
0.0
 49
0.0
 49
1.0
 49
0.0
 49
0.0
 49
0.0
 49
0.0
 49
1.0
175
     0
142
0.0208333333333333
142
0.0
142
0.0
142
0.0
142
0.0
142
0.0208333333333333
142
0.0
142
0.0
142
0.0
142
0.0
142
1.0
142
0.0
142
0.0
142
0.0
142
0.0
142
1.0
179
     0
144
0.0208333333333333
144
0.0
144
0.0
144
0.0
144
0.0
144
0.0208333333333333
144
0.0
144
0.0
144
0.0
144
0.0
144
1.0
144
0.0
144
0.0
144
0.0
144
0.0
144
1.0
147
0.0208333333333333
147
0.0
147
0.0
147
0.0
147
0.0
147
0.0208333333333333
147
0.0
147
0.0
147
0.0
147
0.0
147
1.0
147
0.0
147
0.0
147
0.0
147
0.0
147
1.0
  0
MATERIAL
  5
21
102
{ACAD_XDICTIONARY
360
22
102
}
102
{ACAD_REACTORS
330
10
102
}
330
10
100
AcDbMaterial
  1
Global
 72
     0
 43
0.0208333333333333
 43
0.0
 43
0.0
 43
0.0
 43
0.0
 43
0.0208333333333333
 43
0.0
 43
0.0
 43
0.0
 43
0.0
 43
1.0
 43
0.0
 43
0.0
 43
0.0
 43
0.0
 43
1.0
 77
     0
 47
0.0208333333333333
 47
0.0
 47
0.0
 47
0.0
 47
0.0
 47
0.0208333333333333
 47
0.0
 47
0.0
 47
0.0
 47
0.0
 47
1.0
 47
0.0
 47
0.0
 47
0.0
 47
0.0
 47
1.0
171
     0
 49
0.0208333333333333
 49
0.0
 49
0.0
 49
0.0
 49
0.0
 49
0.0208333333333333
 49
0.0
 49
0.0
 49
0.0
 49
0.0
 49
1.0
 49
0.0
 49
0.0
 49
0.0
 49
0.0
 49
1.0
175
     0
142
0.0208333333333333
142
0.0
142
0.0
142
0.0
142
0.0
142
0.0208333333333333
142
0.0
142
0.0
142
0.0
142
0.0
142
1.0
142
0.0
142
0.0
142
0.0
142
0.0
142
1.0
179
     0
144
0.0208333333333333
144
0.0
144
0.0
144
0.0
144
0.0
144
0.0208333333333333
144
0.0
144
0.0
144
0.0
144
0.0
144
1.0
144
0.0
144
0.0
144
0.0
144
0.0
144
1.0
147
0.0208333333333333
147
0.0
147
0.0
147
0.0
147
0.0
147
0.0208333333333333
147
0.0
147
0.0
147
0.0
147
0.0
147
1.0
147
0.0
147
0.0
147
0.0
147
0.0
147
1.0
  0
MLEADERSTYLE
  5
62
102
{ACAD_REACTORS
330
61
102
}
330
61
100
AcDbMLeaderStyle
170
     2
171
     1
172
     0
 90
        2
 40
0.0
 41
0.0
173
     1
 91
-1056964608
340
56
 92
       -2
290
     1
 42
0.09
291
     1
 43
0.36
  3
Standard
 44
0.18
300

342
50
174
     1
178
     6
175
     1
176
     0
 93
-1056964608
 45
0.18
292
     0
297
     0
 46
0.18
 94
-1056964608
 47
1.0
 49
1.0
140
1.0
293
     1
141
0.0
294
     1
177
     0
142
1.0
295
     0
296
     0
143
0.125
1001
ACAD_MLEADERVER
1070
     2
  0
MLINESTYLE
  5
5B
102
{ACAD_REACTORS
330
5A
102
}
330
5A
100
AcDbMlineStyle
  2
STANDARD
 70
     0
  3

 62
   256
 51
90.0
 52
90.0
 71
     2
 49
0.5
 62
   256
  6
BYLAYER
 49
-0.5
 62
   256
  6
BYLAYER
  0
ACDBPLACEHOLDER
  5
F
102
{ACAD_REACTORS
330
E
102
}
330
E
  0
SCALE
  5
3E
102
{ACAD_REACTORS
330
3D
102
}
330
3D
100
AcDbScale
 70
     0
300
1:1
140
1.0
141
1.0
290
     1
  0
SCALE
  5
3F
102
{ACAD_REACTORS
330
3D
102
}
330
3D
100
AcDbScale
 70
     0
300
1:2
140
1.0
141
2.0
290
     0
  0
SCALE
  5
40
102
{ACAD_REACTORS
330
3D
102
}
330
3D
100
AcDbScale
 70
     0
300
1:4
140
1.0
141
4.0
290
     0
  0
SCALE
  5
41
102
{ACAD_REACTORS
330
3D
102
}
330
3D
100
AcDbScale
 70
     0
300
1:5
140
1.0
141
5.0
290
     0
  0
SCALE
  5
42
102
{ACAD_REACTORS
330
3D
102
}
330
3D
100
AcDbScale
 70
     0
300
1:8
140
1.0
141
8.0
290
     0
  0
SCALE
  5
43
102
{ACAD_REACTORS
330
3D
102
}
330
3D
100
AcDbScale
 70
     0
300
1:10
140
1.0
141
10.0
290
     0
  0
SCALE
  5
44
102
{ACAD_REACTORS
330
3D
102
}
330
3D
100
AcDbScale
 70
     0
300
1:16
140
1.0
141
16.0
290
     0
  0
SCALE
  5
45
102
{ACAD_REACTORS
330
3D
102
}
330
3D
100
AcDbScale
 70
     0
300
1:20
140
1.0
141
20.0
290
     0
  0
SCALE
  5
46
102
{ACAD_REACTORS
330
3D
102
}
330
3D
100
AcDbScale
 70
     0
300
1:30
140
1.0
141
30.0
290
     0
  0
SCALE
  5
47
102
{ACAD_REACTORS
330
3D
102
}
330
3D
100
AcDbScale
 70
     0
300
1:40
140
1.0
141
40.0
290
     0
  0
SCALE
  5
48
102
{ACAD_REACTORS
330
3D
102
}
330
3D
100
AcDbScale
 70
     0
300
1:50
140
1.0
141
50.0
290
     0
  0
SCALE
  5
49
102
{ACAD_REACTORS
330
3D
102
}
330
3D
100
AcDbScale
 70
     0
300
1:100
140
1.0
141
100.0
290
     0
  0
SCALE
  5
4A
102
{ACAD_REACTORS
330
3D
102
}
330
3D
100
AcDbScale
 70
     0
300
2:1
140
2.0
141
1.0
290
     0
  0
SCALE
  5
4B
102
{ACAD_REACTORS
330
3D
102
}
330
3D
100
AcDbScale
 70
     0
300
4:1
140
4.0
141
1.0
290
     0
  0
SCALE
  5
4C
102
{ACAD_REACTORS
330
3D
102
}
330
3D
100
AcDbScale
 70
     0
300
8:1
140
8.0
141
1.0
290
     0
  0
SCALE
  5
4D
102
{ACAD_REACTORS
330
3D
102
}
330
3D
100
AcDbScale
 70
     0
300
10:1
140
10.0
141
1.0
290
     0
  0
SCALE
  5
4E
102
{ACAD_REACTORS
330
3D
102
}
330
3D
100
AcDbScale
 70
     0
300
100:1
140
100.0
141
1.0
290
     0
  0
TABLESTYLE
  5
60
102
{ACAD_XDICTIONARY
360
5B13
102
}
102
{ACAD_REACTORS
330
5F
102
}
330
5F
100
AcDbTableStyle
  3
Standard
 70
     0
 71
     0
 40
1.5
 41
1.5
280
     0
281
     0
  7
Standard
140
4.5
170
     2
 62
     0
 63
     7
283
     0
274
    -2
284
     1
 64
     0
275
    -2
285
     1
 65
     0
276
    -2
286
     1
 66
     0
277
    -2
287
     1
 67
     0
278
    -2
288
     1
 68
     0
279
    -2
289
     1
 69
     0
  7
Standard
140
6.0
170
     5
 62
     0
 63
     7
283
     0
274
    -2
284
     1
 64
     0
275
    -2
285
     1
 65
     0
276
    -2
286
     1
 66
     0
277
    -2
287
     1
 67
     0
278
    -2
288
     1
 68
     0
279
    -2
289
     1
 69
     0
  7
Standard
140
4.5
170
     5
 62
     0
 63
     7
283
     0
274
    -2
284
     1
 64
     0
275
    -2
285
     1
 65
     0
276
    -2
286
     1
 66
     0
277
    -2
287
     1
 67
     0
278
    -2
288
     1
 68
     0
279
    -2
289
     1
 69
     0
  0
VISUALSTYLE
  5
2F
102
{ACAD_XDICTIONARY
360
5B25
102
}
102
{ACAD_REACTORS
330
29
102
}
330
29
100
AcDbVisualStyle
  2
2dWireframe
 70
     4
 71
     0
 72
     2
 73
     0
 90
        0
 40
-0.6
 41
-30.0
 62
     5
 63
     7
421
 16777215
 74
     1
 91
        4
 64
     7
 65
   257
 75
     1
175
     1
 42
1.0
 92
        0
 66
   257
 43
1.0
 76
     1
 77
     6
 78
     2
 67
     7
 79
     5
170
     0
171
     0
290
     0
174
     0
 93
        1
 44
0.0
173
     0
291
     0
 45
0.0
1001
ACAD
1000
AcDbSavedByObjectVersion
1070
     0
  0
VISUALSTYLE
  5
31
102
{ACAD_XDICTIONARY
360
5B29
102
}
102
{ACAD_REACTORS
330
29
102
}
330
29
100
AcDbVisualStyle
  2
3D Hidden
 70
     6
 71
     1
 72
     2
 73
     2
 90
        0
 40
-0.6
 41
-30.0
 62
     5
 63
     7
421
 16777215
 74
     2
 91
        2
 64
     7
 65
   257
 75
     2
175
     1
 42
179.0
 92
        0
 66
   257
 43
1.0
 76
     1
 77
     6
 78
     2
 67
     7
 79
     3
170
     0
171
     0
290
     0
174
     0
 93
        1
 44
0.0
173
     0
291
     0
 45
0.0
1001
ACAD
1000
AcDbSavedByObjectVersion
1070
     0
  0
VISUALSTYLE
  5
30
102
{ACAD_XDICTIONARY
360
5B27
102
}
102
{ACAD_REACTORS
330
29
102
}
330
29
100
AcDbVisualStyle
  2
3dWireframe
 70
     5
 71
     0
 72
     2
 73
     0
 90
        0
 40
-0.6
 41
-30.0
 62
     5
 63
     7
421
 16777215
 74
     1
 91
        4
 64
     7
 65
   257
 75
     1
175
     1
 42
1.0
 92
        0
 66
   257
 43
1.0
 76
     1
 77
     6
 78
     2
 67
     7
 79
     5
170
     0
171
     0
290
     0
174
     0
 93
        1
 44
0.0
173
     0
291
     0
 45
0.0
1001
ACAD
1000
AcDbSavedByObjectVersion
1070
     0
  0
VISUALSTYLE
  5
2E
102
{ACAD_XDICTIONARY
360
5B23
102
}
102
{ACAD_REACTORS
330
29
102
}
330
29
100
AcDbVisualStyle
  2
Basic
 70
     7
 71
     1
 72
     0
 73
     1
 90
        0
 40
-0.6
 41
-30.0
 62
     5
 63
     7
421
 16777215
 74
     0
 91
        4
 64
     7
 65
   257
 75
     1
175
     1
 42
1.0
 92
        8
 66
     7
 43
1.0
 76
     1
 77
     6
 78
     2
 67
     7
 79
     5
170
     0
171
     0
290
     0
174
     0
 93
        1
 44
0.0
173
     0
291
     1
 45
0.0
1001
ACAD
1000
AcDbSavedByObjectVersion
1070
     0
  0
VISUALSTYLE
  5
35
102
{ACAD_XDICTIONARY
360
5B31
102
}
102
{ACAD_REACTORS
330
29
102
}
330
29
100
AcDbVisualStyle
  2
Brighten
 70
    12
 71
     2
 72
     2
 73
     0
 90
        0
 40
-0.6
 41
-30.0
 62
     5
 63
     7
421
 16777215
 74
     1
 91
        4
 64
     7
 65
   257
 75
     1
175
     1
 42
1.0
 92
        8
 66
     7
 43
1.0
 76
     1
 77
     6
 78
     2
 67
     7
 79
     5
170
     0
171
     0
290
     0
174
     0
 93
        1
 44
50.0
173
     0
291
     1
 45
0.0
1001
ACAD
1000
AcDbSavedByObjectVersion
1070
     0
  0
VISUALSTYLE
  5
39
102
{ACAD_XDICTIONARY
360
5B39
102
}
102
{ACAD_REACTORS
330
29
102
}
330
29
100
AcDbVisualStyle
  2
ColorChange
 70
    16
 71
     2
 72
     2
 73
     3
 90
        0
 40
-0.6
 41
-30.0
 62
     5
 63
     8
421
  8421504
 74
     1
 91
        4
 64
     7
 65
   257
 75
     1
175
     1
 42
1.0
 92
        8
 66
     8
424
  8421504
 43
1.0
 76
     1
 77
     6
 78
     2
 67
     7
 79
     5
170
     0
171
     0
290
     0
174
     0
 93
        1
 44
0.0
173
     0
291
     1
 45
0.0
1001
ACAD
1000
AcDbSavedByObjectVersion
1070
     0
  0
VISUALSTYLE
  5
32
102
{ACAD_XDICTIONARY
360
5B2B
102
}
102
{ACAD_REACTORS
330
29
102
}
330
29
100
AcDbVisualStyle
  2
Conceptual
 70
     9
 71
     3
 72
     2
 73
     0
 90
        0
 40
-0.6
 41
-30.0
 62
     5
 63
     7
421
 16777215
 74
     2
 91
        2
 64
     7
 65
   257
 75
     1
175
     1
 42
179.0
 92
        8
 66
     7
 43
1.0
 76
     1
 77
     6
 78
     2
 67
     7
 79
     3
170
     0
171
     0
290
     0
174
     0
 93
        1
 44
0.0
173
     0
291
     0
 45
0.0
1001
ACAD
1000
AcDbSavedByObjectVersion
1070
     0
  0
VISUALSTYLE
  5
34
102
{ACAD_XDICTIONARY
360
5B2F
102
}
102
{ACAD_REACTORS
330
29
102
}
330
29
100
AcDbVisualStyle
  2
Dim
 70
    11
 71
     2
 72
     2
 73
     0
 90
        0
 40
-0.6
 41
-30.0
 62
     5
 63
     7
421
 16777215
 74
     1
 91
        4
 64
     7
 65
   257
 75
     1
175
     1
 42
1.0
 92
        8
 66
     7
 43
1.0
 76
     1
 77
     6
 78
     2
 67
     7
 79
     5
170
     0
171
     0
290
     0
174
     0
 93
        1
 44
-50.0
173
     0
291
     1
 45
0.0
1001
ACAD
1000
AcDbSavedByObjectVersion
1070
     0
  0
VISUALSTYLE
  5
3C
102
{ACAD_XDICTIONARY
360
5B3F
102
}
102
{ACAD_REACTORS
330
29
102
}
330
29
100
AcDbVisualStyle
  2
EdgeColorOff
 70
    22
 71
     2
 72
     2
 73
     0
 90
        0
 40
-0.6
 41
-30.0
 62
     5
 63
     7
421
 16777215
 74
     1
 91
        4
 64
     7
 65
   257
 75
     1
175
     1
 42
1.0
 92
        8
 66
     7
 43
1.0
 76
     1
 77
     6
 78
     2
 67
     7
 79
     5
170
     0
171
     0
290
     0
174
     0
 93
        1
 44
0.0
173
     0
291
     1
 45
0.0
1001
ACAD
1000
AcDbSavedByObjectVersion
1070
     0
  0
VISUALSTYLE
  5
38
102
{ACAD_XDICTIONARY
360
5B37
102
}
102
{ACAD_REACTORS
330
29
102
}
330
29
100
AcDbVisualStyle
  2
Facepattern
 70
    15
 71
     2
 72
     2
 73
     0
 90
        0
 40
-0.6
 41
-30.0
 62
     5
 63
     7
421
 16777215
 74
     1
 91
        4
 64
     7
 65
   257
 75
     1
175
     1
 42
1.0
 92
        8
 66
     7
 43
1.0
 76
     1
 77
     6
 78
     2
 67
     7
 79
     5
170
     0
171
     0
290
     0
174
     0
 93
        1
 44
0.0
173
     0
291
     1
 45
0.0
1001
ACAD
1000
AcDbSavedByObjectVersion
1070
     0
  0
VISUALSTYLE
  5
2A
102
{ACAD_XDICTIONARY
360
5B1B
102
}
102
{ACAD_REACTORS
330
29
102
}
330
29
100
AcDbVisualStyle
  2
Flat
 70
     0
 71
     2
 72
     1
 73
     1
 90
        2
 40
-0.6
 41
30.0
 62
     5
 63
     7
421
 16777215
 74
     0
 91
        4
 64
     7
 65
   257
 75
     1
175
     1
 42
1.0
 92
        8
 66
     7
 43
1.0
 76
     1
 77
     6
 78
     2
 67
     7
 79
     5
170
     0
171
     0
290
     0
174
     0
 93
       13
 44
0.0
173
     0
291
     1
 45
0.0
1001
ACAD
1000
AcDbSavedByObjectVersion
1070
     0
  0
VISUALSTYLE
  5
2B
102
{ACAD_XDICTIONARY
360
5B1D
102
}
102
{ACAD_REACTORS
330
29
102
}
330
29
100
AcDbVisualStyle
  2
FlatWithEdges
 70
     1
 71
     2
 72
     1
 73
     1
 90
        2
 40
-0.6
 41
30.0
 62
     5
 63
     7
421
 16777215
 74
     1
 91
        4
 64
     7
 65
   257
 75
     1
175
     1
 42
1.0
 92
        0
 66
   257
 43
1.0
 76
     1
 77
     6
 78
     2
 67
     7
 79
     5
170
     0
171
     0
290
     0
174
     0
 93
       13
 44
0.0
173
     0
291
     1
 45
0.0
1001
ACAD
1000
AcDbSavedByObjectVersion
1070
     0
  0
VISUALSTYLE
  5
2C
102
{ACAD_XDICTIONARY
360
5B1F
102
}
102
{ACAD_REACTORS
330
29
102
}
330
29
100
AcDbVisualStyle
  2
Gouraud
 70
     2
 71
     2
 72
     2
 73
     1
 90
        2
 40
-0.6
 41
30.0
 62
     5
 63
     7
421
 16777215
 74
     0
 91
        4
 64
     7
 65
   257
 75
     1
175
     1
 42
1.0
 92
        0
 66
     7
 43
1.0
 76
     1
 77
     6
 78
     2
 67
     7
 79
     5
170
     0
171
     0
290
     0
174
     0
 93
       13
 44
0.0
173
     0
291
     1
 45
0.0
1001
ACAD
1000
AcDbSavedByObjectVersion
1070
     0
  0
VISUALSTYLE
  5
2D
102
{ACAD_XDICTIONARY
360
5B21
102
}
102
{ACAD_REACTORS
330
29
102
}
330
29
100
AcDbVisualStyle
  2
GouraudWithEdges
 70
     3
 71
     2
 72
     2
 73
     1
 90
        2
 40
-0.6
 41
30.0
 62
     5
 63
     7
421
 16777215
 74
     1
 91
        4
 64
     7
 65
   257
 75
     1
175
     1
 42
1.0
 92
        0
 66
   257
 43
1.0
 76
     1
 77
     6
 78
     2
 67
     7
 79
     5
170
     0
171
     0
290
     0
174
     0
 93
       13
 44
0.0
173
     0
291
     1
 45
0.0
1001
ACAD
1000
AcDbSavedByObjectVersion
1070
     0
  0
VISUALSTYLE
  5
3A
102
{ACAD_XDICTIONARY
360
5B3B
102
}
102
{ACAD_REACTORS
330
29
102
}
330
29
100
AcDbVisualStyle
  2
JitterOff
 70
    20
 71
     2
 72
     2
 73
     0
 90
        0
 40
-0.6
 41
-30.0
 62
     5
 63
     7
421
 16777215
 74
     1
 91
        4
 64
     7
 65
   257
 75
     1
175
     1
 42
1.0
 92
       10
 66
     7
 43
1.0
 76
     1
 77
     6
 78
     2
 67
     7
 79
     5
170
     0
171
     0
290
     0
174
     0
 93
        1
 44
0.0
173
     0
291
     1
 45
0.0
1001
ACAD
1000
AcDbSavedByObjectVersion
1070
     0
  0
VISUALSTYLE
  5
37
102
{ACAD_XDICTIONARY
360
5B35
102
}
102
{ACAD_REACTORS
330
29
102
}
330
29
100
AcDbVisualStyle
  2
Linepattern
 70
    14
 71
     2
 72
     2
 73
     0
 90
        0
 40
-0.6
 41
-30.0
 62
     5
 63
     7
421
 16777215
 74
     1
 91
        4
 64
     7
 65
   257
 75
     7
175
     7
 42
1.0
 92
        8
 66
     7
 43
1.0
 76
     1
 77
     6
 78
     2
 67
     7
 79
     5
170
     0
171
     0
290
     0
174
     0
 93
        1
 44
0.0
173
     0
291
     1
 45
0.0
1001
ACAD
1000
AcDbSavedByObjectVersion
1070
     0
  0
VISUALSTYLE
  5
3B
102
{ACAD_XDICTIONARY
360
5B3D
102
}
102
{ACAD_REACTORS
330
29
102
}
330
29
100
AcDbVisualStyle
  2
OverhangOff
 70
    21
 71
     2
 72
     2
 73
     0
 90
        0
 40
-0.6
 41
-30.0
 62
     5
 63
     7
421
 16777215
 74
     1
 91
        4
 64
     7
 65
   257
 75
     1
175
     1
 42
1.0
 92
        9
 66
     7
 43
1.0
 76
     1
 77
     6
 78
     2
 67
     7
 79
     5
170
     0
171
     0
290
     0
174
     0
 93
        1
 44
0.0
173
     0
291
     1
 45
0.0
1001
ACAD
1000
AcDbSavedByObjectVersion
1070
     0
  0
VISUALSTYLE
  5
33
102
{ACAD_XDICTIONARY
360
5B2D
102
}
102
{ACAD_REACTORS
330
29
102
}
330
29
100
AcDbVisualStyle
  2
Realistic
 70
     8
 71
     2
 72
     2
 73
     0
 90
        0
 40
-0.6
 41
-30.0
 62
     5
 63
     7
421
 16777215
 74
     1
 91
        0
 64
     7
 65
   257
 75
     1
175
     1
 42
1.0
 92
        8
 66
     8
424
  7895160
 43
1.0
 76
     1
 77
     6
 78
     2
 67
     7
 79
     5
170
     0
171
     0
290
     0
174
     0
 93
       13
 44
0.0
173
     0
291
     0
 45
0.0
1001
ACAD
1000
AcDbSavedByObjectVersion
1070
     0
  0
VISUALSTYLE
  5
36
102
{ACAD_XDICTIONARY
360
5B33
102
}
102
{ACAD_REACTORS
330
29
102
}
330
29
100
AcDbVisualStyle
  2
Thicken
 70
    13
 71
     2
 72
     2
 73
     0
 90
        0
 40
-0.6
 41
-30.0
 62
     5
 63
     7
421
 16777215
 74
     1
 91
        4
 64
     7
 65
   257
 75
     1
175
     1
 42
1.0
 92
       12
 66
     7
 43
1.0
 76
     1
 77
     6
 78
     2
 67
     7
 79
     5
170
     0
171
     0
290
     0
174
     0
 93
        1
 44
0.0
173
     0
291
     1
 45
0.0
1001
ACAD
1000
AcDbSavedByObjectVersion
1070
     0
  0
DICTIONARYVAR
  5
5B0E
102
{ACAD_REACTORS
330
5B0A
102
}
330
5B0A
100
DictionaryVariables
280
     0
  1
1:1
  0
DICTIONARYVAR
  5
5B0C
102
{ACAD_REACTORS
330
5B0A
102
}
330
5B0A
100
DictionaryVariables
280
     0
  1
STANDARD
  0
DICTIONARYVAR
  5
5B0B
102
{ACAD_REACTORS
330
5B0A
102
}
330
5B0A
100
DictionaryVariables
280
     0
  1
STANDARD
  0
DICTIONARYVAR
  5
5B10
102
{ACAD_REACTORS
330
5B0A
102
}
330
5B0A
100
DictionaryVariables
280
     0
  1
0
  0
DICTIONARYVAR
  5
5B11
102
{ACAD_REACTORS
330
5B0A
102
}
330
5B0A
100
DictionaryVariables
280
     0
  1
0
  0
DICTIONARYVAR
  5
5B0F
102
{ACAD_REACTORS
330
5B0A
102
}
330
5B0A
100
DictionaryVariables
280
     0
  1
2
  0
DICTIONARYVAR
  5
5B0D
102
{ACAD_REACTORS
330
5B0A
102
}
330
5B0A
100
DictionaryVariables
280
     0
  1
1
  0
DICTIONARYVAR
  5
5B12
102
{ACAD_REACTORS
330
5B0A
102
}
330
5B0A
100
DictionaryVariables
280
     0
  1
2
  0
DICTIONARY
  5
1A
330
19
100
AcDbDictionary
280
     1
281
     1
  3
ACAD_XREC_ROUNDTRIP
360
5B19
  3
BUMPTILE
360
1C
  3
DIFFUSETILE
360
1B
  3
OPACITYTILE
360
1F
  3
REFLECTIONTILE
360
1E
  3
REFRACTIONTILE
360
20
  3
SPECULARTILE
360
1D
  0
DICTIONARY
  5
12
330
11
100
AcDbDictionary
280
     1
281
     1
  3
ACAD_XREC_ROUNDTRIP
360
5B18
  3
BUMPTILE
360
14
  3
DIFFUSETILE
360
13
  3
OPACITYTILE
360
17
  3
REFLECTIONTILE
360
16
  3
REFRACTIONTILE
360
18
  3
SPECULARTILE
360
15
  0
DICTIONARY
  5
22
330
21
100
AcDbDictionary
280
     1
281
     1
  3
ACAD_XREC_ROUNDTRIP
360
5B1A
  3
BUMPTILE
360
24
  3
DIFFUSETILE
360
23
  3
OPACITYTILE
360
27
  3
REFLECTIONTILE
360
26
  3
REFRACTIONTILE
360
28
  3
SPECULARTILE
360
25
  0
DICTIONARY
  5
5B13
330
60
100
AcDbDictionary
280
     1
281
     1
  3
ACAD_ROUNDTRIP_2008_TABLESTYLE_CELLSTYLEMAP
360
5B14
  3
ACAD_XREC_ROUNDTRIP
360
5B42
  0
DICTIONARY
  5
5B25
330
2F
100
AcDbDictionary
280
     1
281
     1
  3
ACAD_XREC_ROUNDTRIP
360
5B26
  0
DICTIONARY
  5
5B29
330
31
100
AcDbDictionary
280
     1
281
     1
  3
ACAD_XREC_ROUNDTRIP
360
5B2A
  0
DICTIONARY
  5
5B27
330
30
100
AcDbDictionary
280
     1
281
     1
  3
ACAD_XREC_ROUNDTRIP
360
5B28
  0
DICTIONARY
  5
5B23
330
2E
100
AcDbDictionary
280
     1
281
     1
  3
ACAD_XREC_ROUNDTRIP
360
5B24
  0
DICTIONARY
  5
5B31
330
35
100
AcDbDictionary
280
     1
281
     1
  3
ACAD_XREC_ROUNDTRIP
360
5B32
  0
DICTIONARY
  5
5B39
330
39
100
AcDbDictionary
280
     1
281
     1
  3
ACAD_XREC_ROUNDTRIP
360
5B3A
  0
DICTIONARY
  5
5B2B
330
32
100
AcDbDictionary
280
     1
281
     1
  3
ACAD_XREC_ROUNDTRIP
360
5B2C
  0
DICTIONARY
  5
5B2F
330
34
100
AcDbDictionary
280
     1
281
     1
  3
ACAD_XREC_ROUNDTRIP
360
5B30
  0
DICTIONARY
  5
5B3F
330
3C
100
AcDbDictionary
280
     1
281
     1
  3
ACAD_XREC_ROUNDTRIP
360
5B40
  0
DICTIONARY
  5
5B37
330
38
100
AcDbDictionary
280
     1
281
     1
  3
ACAD_XREC_ROUNDTRIP
360
5B38
  0
DICTIONARY
  5
5B1B
330
2A
100
AcDbDictionary
280
     1
281
     1
  3
ACAD_XREC_ROUNDTRIP
360
5B1C
  0
DICTIONARY
  5
5B1D
330
2B
100
AcDbDictionary
280
     1
281
     1
  3
ACAD_XREC_ROUNDTRIP
360
5B1E
  0
DICTIONARY
  5
5B1F
330
2C
100
AcDbDictionary
280
     1
281
     1
  3
ACAD_XREC_ROUNDTRIP
360
5B20
  0
DICTIONARY
  5
5B21
330
2D
100
AcDbDictionary
280
     1
281
     1
  3
ACAD_XREC_ROUNDTRIP
360
5B22
  0
DICTIONARY
  5
5B3B
330
3A
100
AcDbDictionary
280
     1
281
     1
  3
ACAD_XREC_ROUNDTRIP
360
5B3C
  0
DICTIONARY
  5
5B35
330
37
100
AcDbDictionary
280
     1
281
     1
  3
ACAD_XREC_ROUNDTRIP
360
5B36
  0
DICTIONARY
  5
5B3D
330
3B
100
AcDbDictionary
280
     1
281
     1
  3
ACAD_XREC_ROUNDTRIP
360
5B3E
  0
DICTIONARY
  5
5B2D
330
33
100
AcDbDictionary
280
     1
281
     1
  3
ACAD_XREC_ROUNDTRIP
360
5B2E
  0
DICTIONARY
  5
5B33
330
36
100
AcDbDictionary
280
     1
281
     1
  3
ACAD_XREC_ROUNDTRIP
360
5B34
  0
XRECORD
  5
5B19
102
{ACAD_REACTORS
330
1A
102
}
330
1A
100
AcDbXrecord
280
     1
102
MATERIAL
148
0.0
149
0.0
149
0.0
 93
        0
 94
      127
282
     0
 72
     0
 77
     0
171
     0
175
     0
179
     0
273
     0
  0
XRECORD
  5
1C
102
{ACAD_REACTORS
330
1A
102
}
330
1A
100
AcDbXrecord
280
     1
270
     1
271
     1
  0
XRECORD
  5
1B
102
{ACAD_REACTORS
330
1A
102
}
330
1A
100
AcDbXrecord
280
     1
270
     1
271
     1
  0
XRECORD
  5
1F
102
{ACAD_REACTORS
330
1A
102
}
330
1A
100
AcDbXrecord
280
     1
270
     1
271
     1
  0
XRECORD
  5
1E
102
{ACAD_REACTORS
330
1A
102
}
330
1A
100
AcDbXrecord
280
     1
270
     1
271
     1
  0
XRECORD
  5
20
102
{ACAD_REACTORS
330
1A
102
}
330
1A
100
AcDbXrecord
280
     1
270
     1
271
     1
  0
XRECORD
  5
1D
102
{ACAD_REACTORS
330
1A
102
}
330
1A
100
AcDbXrecord
280
     1
270
     1
271
     1
  0
XRECORD
  5
5B18
102
{ACAD_REACTORS
330
12
102
}
330
12
100
AcDbXrecord
280
     1
102
MATERIAL
148
0.0
149
0.0
149
0.0
 93
        0
 94
      127
282
     0
 72
     0
 77
     0
171
     0
175
     0
179
     0
273
     0
  0
XRECORD
  5
14
102
{ACAD_REACTORS
330
12
102
}
330
12
100
AcDbXrecord
280
     1
270
     1
271
     1
  0
XRECORD
  5
13
102
{ACAD_REACTORS
330
12
102
}
330
12
100
AcDbXrecord
280
     1
270
     1
271
     1
  0
XRECORD
  5
17
102
{ACAD_REACTORS
330
12
102
}
330
12
100
AcDbXrecord
280
     1
270
     1
271
     1
  0
XRECORD
  5
16
102
{ACAD_REACTORS
330
12
102
}
330
12
100
AcDbXrecord
280
     1
270
     1
271
     1
  0
XRECORD
  5
18
102
{ACAD_REACTORS
330
12
102
}
330
12
100
AcDbXrecord
280
     1
270
     1
271
     1
  0
XRECORD
  5
15
102
{ACAD_REACTORS
330
12
102
}
330
12
100
AcDbXrecord
280
     1
270
     1
271
     1
  0
XRECORD
  5
5B1A
102
{ACAD_REACTORS
330
22
102
}
330
22
100
AcDbXrecord
280
     1
102
MATERIAL
148
0.0
149
0.0
149
0.0
 93
        0
 94
      127
282
     0
 72
     0
 77
     0
171
     0
175
     0
179
     0
273
     0
  0
XRECORD
  5
24
102
{ACAD_REACTORS
330
22
102
}
330
22
100
AcDbXrecord
280
     1
270
     1
271
     1
  0
XRECORD
  5
23
102
{ACAD_REACTORS
330
22
102
}
330
22
100
AcDbXrecord
280
     1
270
     1
271
     1
  0
XRECORD
  5
27
102
{ACAD_REACTORS
330
22
102
}
330
22
100
AcDbXrecord
280
     1
270
     1
271
     1
  0
XRECORD
  5
26
102
{ACAD_REACTORS
330
22
102
}
330
22
100
AcDbXrecord
280
     1
270
     1
271
     1
  0
XRECORD
  5
28
102
{ACAD_REACTORS
330
22
102
}
330
22
100
AcDbXrecord
280
     1
270
     1
271
     1
  0
XRECORD
  5
25
102
{ACAD_REACTORS
330
22
102
}
330
22
100
AcDbXrecord
280
     1
270
     1
271
     1
  0
CELLSTYLEMAP
  5
5B14
102
{ACAD_REACTORS
330
5B13
102
}
330
5B13
100
AcDbCellStyleMap
 90
        3
300
CELLSTYLE
  1
TABLEFORMAT_BEGIN
 90
        5
170
     1
 91
        0
 92
    32768
 62
   257
 93
        1
300
CONTENTFORMAT
  1
CONTENTFORMAT_BEGIN
 90
        0
 91
        0
 92
      512
 93
        0
300

 40
0.0
140
1.0
 94
        5
 62
     0
340
50
144
6.0
309
CONTENTFORMAT_END
171
     1
301
MARGIN
  1
CELLMARGIN_BEGIN
 40
1.5
 40
1.5
 40
1.5
 40
1.5
 40
4.5
 40
4.5
309
CELLMARGIN_END
 94
        6
 95
        1
302
GRIDFORMAT
  1
GRIDFORMAT_BEGIN
 90
        0
 91
        1
 62
     0
 92
       -2
340
0
 93
        0
 40
1.125
309
GRIDFORMAT_END
 95
        2
302
GRIDFORMAT
  1
GRIDFORMAT_BEGIN
 90
        0
 91
        1
 62
     0
 92
       -2
340
0
 93
        0
 40
1.125
309
GRIDFORMAT_END
 95
        4
302
GRIDFORMAT
  1
GRIDFORMAT_BEGIN
 90
        0
 91
        1
 62
     0
 92
       -2
340
0
 93
        0
 40
1.125
309
GRIDFORMAT_END
 95
        8
302
GRIDFORMAT
  1
GRIDFORMAT_BEGIN
 90
        0
 91
        1
 62
     0
 92
       -2
340
0
 93
        0
 40
1.125
309
GRIDFORMAT_END
 95
       16
302
GRIDFORMAT
  1
GRIDFORMAT_BEGIN
 90
        0
 91
        1
 62
     0
 92
       -2
340
0
 93
        0
 40
1.125
309
GRIDFORMAT_END
 95
       32
302
GRIDFORMAT
  1
GRIDFORMAT_BEGIN
 90
        0
 91
        1
 62
     0
 92
       -2
340
0
 93
        0
 40
1.125
309
GRIDFORMAT_END
309
TABLEFORMAT_END
  1
CELLSTYLE_BEGIN
 90
        1
 91
        1
300
_TITLE
309
CELLSTYLE_END
300
CELLSTYLE
  1
TABLEFORMAT_BEGIN
 90
        5
170
     1
 91
        0
 92
        0
 62
   257
 93
        1
300
CONTENTFORMAT
  1
CONTENTFORMAT_BEGIN
 90
        0
 91
        0
 92
      512
 93
        0
300

 40
0.0
140
1.0
 94
        5
 62
     0
340
50
144
4.5
309
CONTENTFORMAT_END
171
     1
301
MARGIN
  1
CELLMARGIN_BEGIN
 40
1.5
 40
1.5
 40
1.5
 40
1.5
 40
4.5
 40
4.5
309
CELLMARGIN_END
 94
        6
 95
        1
302
GRIDFORMAT
  1
GRIDFORMAT_BEGIN
 90
        0
 91
        1
 62
     0
 92
       -2
340
0
 93
        0
 40
1.125
309
GRIDFORMAT_END
 95
        2
302
GRIDFORMAT
  1
GRIDFORMAT_BEGIN
 90
        0
 91
        1
 62
     0
 92
       -2
340
0
 93
        0
 40
1.125
309
GRIDFORMAT_END
 95
        4
302
GRIDFORMAT
  1
GRIDFORMAT_BEGIN
 90
        0
 91
        1
 62
     0
 92
       -2
340
0
 93
        0
 40
1.125
309
GRIDFORMAT_END
 95
        8
302
GRIDFORMAT
  1
GRIDFORMAT_BEGIN
 90
        0
 91
        1
 62
     0
 92
       -2
340
0
 93
        0
 40
1.125
309
GRIDFORMAT_END
 95
       16
302
GRIDFORMAT
  1
GRIDFORMAT_BEGIN
 90
        0
 91
        1
 62
     0
 92
       -2
340
0
 93
        0
 40
1.125
309
GRIDFORMAT_END
 95
       32
302
GRIDFORMAT
  1
GRIDFORMAT_BEGIN
 90
        0
 91
        1
 62
     0
 92
       -2
340
0
 93
        0
 40
1.125
309
GRIDFORMAT_END
309
TABLEFORMAT_END
  1
CELLSTYLE_BEGIN
 90
        2
 91
        1
300
_HEADER
309
CELLSTYLE_END
300
CELLSTYLE
  1
TABLEFORMAT_BEGIN
 90
        5
170
     1
 91
        0
 92
        0
 62
   257
 93
        1
300
CONTENTFORMAT
  1
CONTENTFORMAT_BEGIN
 90
        0
 91
        0
 92
      512
 93
        0
300

 40
0.0
140
1.0
 94
        2
 62
     0
340
50
144
4.5
309
CONTENTFORMAT_END
171
     1
301
MARGIN
  1
CELLMARGIN_BEGIN
 40
1.5
 40
1.5
 40
1.5
 40
1.5
 40
4.5
 40
4.5
309
CELLMARGIN_END
 94
        6
 95
        1
302
GRIDFORMAT
  1
GRIDFORMAT_BEGIN
 90
        0
 91
        1
 62
     0
 92
       -2
340
0
 93
        0
 40
1.125
309
GRIDFORMAT_END
 95
        2
302
GRIDFORMAT
  1
GRIDFORMAT_BEGIN
 90
        0
 91
        1
 62
     0
 92
       -2
340
0
 93
        0
 40
1.125
309
GRIDFORMAT_END
 95
        4
302
GRIDFORMAT
  1
GRIDFORMAT_BEGIN
 90
        0
 91
        1
 62
     0
 92
       -2
340
0
 93
        0
 40
1.125
309
GRIDFORMAT_END
 95
        8
302
GRIDFORMAT
  1
GRIDFORMAT_BEGIN
 90
        0
 91
        1
 62
     0
 92
       -2
340
0
 93
        0
 40
1.125
309
GRIDFORMAT_END
 95
       16
302
GRIDFORMAT
  1
GRIDFORMAT_BEGIN
 90
        0
 91
        1
 62
     0
 92
       -2
340
0
 93
        0
 40
1.125
309
GRIDFORMAT_END
 95
       32
302
GRIDFORMAT
  1
GRIDFORMAT_BEGIN
 90
        0
 91
        1
 62
     0
 92
       -2
340
0
 93
        0
 40
1.125
309
GRIDFORMAT_END
309
TABLEFORMAT_END
  1
CELLSTYLE_BEGIN
 90
        3
 91
        2
300
_DATA
309
CELLSTYLE_END
  0
XRECORD
  5
5B42
102
{ACAD_REACTORS
330
5B13
102
}
330
5B13
100
AcDbXrecord
280
     1
102
ACAD_ROUNDTRIP_PRE2007_TABLESTYLE
 90
      512
 91
        0
  1

 92
      512
 93
        0
  2

 94
      512
 95
        0
  3

  0
XRECORD
  5
5B26
102
{ACAD_REACTORS
330
5B25
102
}
330
5B25
100
AcDbXrecord
280
     1
102
RTVSPropertyOp0
 70
     1
102
RTVSPropertyOp1
 70
     1
102
RTVSPropertyOp2
 70
     1
102
RTVSPropertyOp3
 70
     1
102
RTVSPropertyOp4
 70
     1
102
RTVSPropertyOp5
 70
     1
102
RTVSPropertyOp6
 70
     1
102
RTVSPropertyOp7
 70
     1
102
RTVSPropertyOp8
 70
     1
102
RTVSPropertyOp9
 70
     1
102
RTVSPropertyOp10
 70
     1
102
RTVSPropertyOp11
 70
     1
102
RTVSPropertyOp12
 70
     1
102
RTVSPropertyOp13
 70
     1
102
RTVSPropertyOp14
 70
     1
102
RTVSPropertyOp15
 70
     1
102
RTVSPropertyOp16
 70
     1
102
RTVSPropertyOp17
 70
     1
102
RTVSPropertyOp18
 70
     1
102
RTVSPropertyOp19
 70
     1
102
RTVSPropertyOp20
 70
     1
102
RTVSPropertyOp21
 70
     1
102
RTVSPropertyOp22
 70
     1
102
RTVSPropertyOp23
 70
     1
102
RTVSPropertyOp24
 70
     1
102
RTVSPropertyOp25
 70
     1
102
RTVSPropertyOp26
 70
     1
102
RTVSPropertyOp27
 70
     1
  0
XRECORD
  5
5B2A
102
{ACAD_REACTORS
330
5B29
102
}
330
5B29
100
AcDbXrecord
280
     1
102
RTVSPropertyOp0
 70
     1
102
RTVSPropertyOp1
 70
     1
102
RTVSPropertyOp2
 70
     1
102
RTVSPropertyOp3
 70
     1
102
RTVSPropertyOp4
 70
     1
102
RTVSPropertyOp5
 70
     1
102
RTVSPropertyOp6
 70
     1
102
RTVSPropertyOp7
 70
     1
102
RTVSPropertyOp8
 70
     1
102
RTVSPropertyOp9
 70
     1
102
RTVSPropertyOp10
 70
     1
102
RTVSPropertyOp11
 70
     1
102
RTVSPropertyOp12
 70
     1
102
RTVSPropertyOp13
 70
     1
102
RTVSPropertyOp14
 70
     1
102
RTVSPropertyOp15
 70
     1
102
RTVSPropertyOp16
 70
     1
102
RTVSPropertyOp17
 70
     1
102
RTVSPropertyOp18
 70
     1
102
RTVSPropertyOp19
 70
     1
102
RTVSPropertyOp20
 70
     1
102
RTVSPropertyOp21
 70
     1
102
RTVSPropertyOp22
 70
     1
102
RTVSPropertyOp23
 70
     1
102
RTVSPropertyOp24
 70
     1
102
RTVSPropertyOp25
 70
     1
102
RTVSPropertyOp26
 70
     1
102
RTVSPropertyOp27
 70
     1
  0
XRECORD
  5
5B28
102
{ACAD_REACTORS
330
5B27
102
}
330
5B27
100
AcDbXrecord
280
     1
102
RTVSPropertyOp0
 70
     1
102
RTVSPropertyOp1
 70
     1
102
RTVSPropertyOp2
 70
     1
102
RTVSPropertyOp3
 70
     1
102
RTVSPropertyOp4
 70
     1
102
RTVSPropertyOp5
 70
     1
102
RTVSPropertyOp6
 70
     1
102
RTVSPropertyOp7
 70
     1
102
RTVSPropertyOp8
 70
     1
102
RTVSPropertyOp9
 70
     1
102
RTVSPropertyOp10
 70
     1
102
RTVSPropertyOp11
 70
     1
102
RTVSPropertyOp12
 70
     1
102
RTVSPropertyOp13
 70
     1
102
RTVSPropertyOp14
 70
     1
102
RTVSPropertyOp15
 70
     1
102
RTVSPropertyOp16
 70
     1
102
RTVSPropertyOp17
 70
     1
102
RTVSPropertyOp18
 70
     1
102
RTVSPropertyOp19
 70
     1
102
RTVSPropertyOp20
 70
     1
102
RTVSPropertyOp21
 70
     1
102
RTVSPropertyOp22
 70
     1
102
RTVSPropertyOp23
 70
     1
102
RTVSPropertyOp24
 70
     1
102
RTVSPropertyOp25
 70
     1
102
RTVSPropertyOp26
 70
     1
102
RTVSPropertyOp27
 70
     1
  0
XRECORD
  5
5B24
102
{ACAD_REACTORS
330
5B23
102
}
330
5B23
100
AcDbXrecord
280
     1
102
RTVSPropertyOp0
 70
     1
102
RTVSPropertyOp1
 70
     1
102
RTVSPropertyOp2
 70
     1
102
RTVSPropertyOp3
 70
     1
102
RTVSPropertyOp4
 70
     1
102
RTVSPropertyOp5
 70
     1
102
RTVSPropertyOp6
 70
     1
102
RTVSPropertyOp7
 70
     1
102
RTVSPropertyOp8
 70
     1
102
RTVSPropertyOp9
 70
     1
102
RTVSPropertyOp10
 70
     1
102
RTVSPropertyOp11
 70
     1
102
RTVSPropertyOp12
 70
     1
102
RTVSPropertyOp13
 70
     1
102
RTVSPropertyOp14
 70
     1
102
RTVSPropertyOp15
 70
     1
102
RTVSPropertyOp16
 70
     1
102
RTVSPropertyOp17
 70
     1
102
RTVSPropertyOp18
 70
     1
102
RTVSPropertyOp19
 70
     1
102
RTVSPropertyOp20
 70
     1
102
RTVSPropertyOp21
 70
     1
102
RTVSPropertyOp22
 70
     1
102
RTVSPropertyOp23
 70
     1
102
RTVSPropertyOp24
 70
     1
102
RTVSPropertyOp25
 70
     1
102
RTVSPropertyOp26
 70
     1
102
RTVSPropertyOp27
 70
     1
  0
XRECORD
  5
5B32
102
{ACAD_REACTORS
330
5B31
102
}
330
5B31
100
AcDbXrecord
280
     1
102
RTVSPropertyOp0
 70
     1
102
RTVSPropertyOp1
 70
     1
102
RTVSPropertyOp2
 70
     1
102
RTVSPropertyOp3
 70
     1
102
RTVSPropertyOp4
 70
     1
102
RTVSPropertyOp5
 70
     1
102
RTVSPropertyOp6
 70
     1
102
RTVSPropertyOp7
 70
     1
102
RTVSPropertyOp8
 70
     1
102
RTVSPropertyOp9
 70
     1
102
RTVSPropertyOp10
 70
     1
102
RTVSPropertyOp11
 70
     1
102
RTVSPropertyOp12
 70
     1
102
RTVSPropertyOp13
 70
     1
102
RTVSPropertyOp14
 70
     1
102
RTVSPropertyOp15
 70
     1
102
RTVSPropertyOp16
 70
     1
102
RTVSPropertyOp17
 70
     1
102
RTVSPropertyOp18
 70
     1
102
RTVSPropertyOp19
 70
     1
102
RTVSPropertyOp20
 70
     1
102
RTVSPropertyOp21
 70
     1
102
RTVSPropertyOp22
 70
     1
102
RTVSPropertyOp23
 70
     1
102
RTVSPropertyOp24
 70
     1
102
RTVSPropertyOp25
 70
     1
102
RTVSPropertyOp26
 70
     1
102
RTVSPropertyOp27
 70
     1
  0
XRECORD
  5
5B3A
102
{ACAD_REACTORS
330
5B39
102
}
330
5B39
100
AcDbXrecord
280
     1
102
RTVSPropertyOp0
 70
     1
102
RTVSPropertyOp1
 70
     1
102
RTVSPropertyOp2
 70
     1
102
RTVSPropertyOp3
 70
     1
102
RTVSPropertyOp4
 70
     1
102
RTVSPropertyOp5
 70
     1
102
RTVSPropertyOp6
 70
     1
102
RTVSPropertyOp7
 70
     1
102
RTVSPropertyOp8
 70
     1
102
RTVSPropertyOp9
 70
     1
102
RTVSPropertyOp10
 70
     1
102
RTVSPropertyOp11
 70
     1
102
RTVSPropertyOp12
 70
     1
102
RTVSPropertyOp13
 70
     1
102
RTVSPropertyOp14
 70
     1
102
RTVSPropertyOp15
 70
     1
102
RTVSPropertyOp16
 70
     1
102
RTVSPropertyOp17
 70
     1
102
RTVSPropertyOp18
 70
     1
102
RTVSPropertyOp19
 70
     1
102
RTVSPropertyOp20
 70
     1
102
RTVSPropertyOp21
 70
     1
102
RTVSPropertyOp22
 70
     1
102
RTVSPropertyOp23
 70
     1
102
RTVSPropertyOp24
 70
     1
102
RTVSPropertyOp25
 70
     1
102
RTVSPropertyOp26
 70
     1
102
RTVSPropertyOp27
 70
     1
  0
XRECORD
  5
5B2C
102
{ACAD_REACTORS
330
5B2B
102
}
330
5B2B
100
AcDbXrecord
280
     1
102
RTVSPropertyOp0
 70
     1
102
RTVSPropertyOp1
 70
     1
102
RTVSPropertyOp2
 70
     1
102
RTVSPropertyOp3
 70
     1
102
RTVSPropertyOp4
 70
     1
102
RTVSPropertyOp5
 70
     1
102
RTVSPropertyOp6
 70
     1
102
RTVSPropertyOp7
 70
     1
102
RTVSPropertyOp8
 70
     1
102
RTVSPropertyOp9
 70
     1
102
RTVSPropertyOp10
 70
     1
102
RTVSPropertyOp11
 70
     1
102
RTVSPropertyOp12
 70
     1
102
RTVSPropertyOp13
 70
     1
102
RTVSPropertyOp14
 70
     1
102
RTVSPropertyOp15
 70
     1
102
RTVSPropertyOp16
 70
     1
102
RTVSPropertyOp17
 70
     1
102
RTVSPropertyOp18
 70
     1
102
RTVSPropertyOp19
 70
     1
102
RTVSPropertyOp20
 70
     1
102
RTVSPropertyOp21
 70
     1
102
RTVSPropertyOp22
 70
     1
102
RTVSPropertyOp23
 70
     1
102
RTVSPropertyOp24
 70
     1
102
RTVSPropertyOp25
 70
     1
102
RTVSPropertyOp26
 70
     1
102
RTVSPropertyOp27
 70
     1
  0
XRECORD
  5
5B30
102
{ACAD_REACTORS
330
5B2F
102
}
330
5B2F
100
AcDbXrecord
280
     1
102
RTVSPropertyOp0
 70
     1
102
RTVSPropertyOp1
 70
     1
102
RTVSPropertyOp2
 70
     1
102
RTVSPropertyOp3
 70
     1
102
RTVSPropertyOp4
 70
     1
102
RTVSPropertyOp5
 70
     1
102
RTVSPropertyOp6
 70
     1
102
RTVSPropertyOp7
 70
     1
102
RTVSPropertyOp8
 70
     1
102
RTVSPropertyOp9
 70
     1
102
RTVSPropertyOp10
 70
     1
102
RTVSPropertyOp11
 70
     1
102
RTVSPropertyOp12
 70
     1
102
RTVSPropertyOp13
 70
     1
102
RTVSPropertyOp14
 70
     1
102
RTVSPropertyOp15
 70
     1
102
RTVSPropertyOp16
 70
     1
102
RTVSPropertyOp17
 70
     1
102
RTVSPropertyOp18
 70
     1
102
RTVSPropertyOp19
 70
     1
102
RTVSPropertyOp20
 70
     1
102
RTVSPropertyOp21
 70
     1
102
RTVSPropertyOp22
 70
     1
102
RTVSPropertyOp23
 70
     1
102
RTVSPropertyOp24
 70
     1
102
RTVSPropertyOp25
 70
     1
102
RTVSPropertyOp26
 70
     1
102
RTVSPropertyOp27
 70
     1
  0
XRECORD
  5
5B40
102
{ACAD_REACTORS
330
5B3F
102
}
330
5B3F
100
AcDbXrecord
280
     1
102
RTVSPropertyOp0
 70
     0
102
RTVSPropertyOp1
 70
     0
102
RTVSPropertyOp2
 70
     0
102
RTVSPropertyOp3
 70
     0
102
RTVSPropertyOp4
 70
     0
102
RTVSPropertyOp5
 70
     0
102
RTVSPropertyOp6
 70
     0
102
RTVSPropertyOp7
 70
     0
102
RTVSPropertyOp8
 70
     0
102
RTVSPropertyOp9
 70
     0
102
RTVSPropertyOp10
 70
     0
102
RTVSPropertyOp11
 70
     0
102
RTVSPropertyOp12
 70
     0
102
RTVSPropertyOp13
 70
     0
102
RTVSPropertyOp14
 70
     2
102
RTVSPropertyOp15
 70
     0
102
RTVSPropertyOp16
 70
     0
102
RTVSPropertyOp17
 70
     0
102
RTVSPropertyOp18
 70
     0
102
RTVSPropertyOp19
 70
     0
102
RTVSPropertyOp20
 70
     0
102
RTVSPropertyOp21
 70
     0
102
RTVSPropertyOp22
 70
     0
102
RTVSPropertyOp23
 70
     0
102
RTVSPropertyOp24
 70
     0
102
RTVSPropertyOp25
 70
     0
102
RTVSPropertyOp26
 70
     0
102
RTVSPropertyOp27
 70
     0
  0
XRECORD
  5
5B38
102
{ACAD_REACTORS
330
5B37
102
}
330
5B37
100
AcDbXrecord
280
     1
102
RTVSPropertyOp0
 70
     1
102
RTVSPropertyOp1
 70
     1
102
RTVSPropertyOp2
 70
     1
102
RTVSPropertyOp3
 70
     1
102
RTVSPropertyOp4
 70
     1
102
RTVSPropertyOp5
 70
     1
102
RTVSPropertyOp6
 70
     1
102
RTVSPropertyOp7
 70
     1
102
RTVSPropertyOp8
 70
     1
102
RTVSPropertyOp9
 70
     1
102
RTVSPropertyOp10
 70
     1
102
RTVSPropertyOp11
 70
     1
102
RTVSPropertyOp12
 70
     1
102
RTVSPropertyOp13
 70
     1
102
RTVSPropertyOp14
 70
     1
102
RTVSPropertyOp15
 70
     1
102
RTVSPropertyOp16
 70
     1
102
RTVSPropertyOp17
 70
     1
102
RTVSPropertyOp18
 70
     1
102
RTVSPropertyOp19
 70
     1
102
RTVSPropertyOp20
 70
     1
102
RTVSPropertyOp21
 70
     1
102
RTVSPropertyOp22
 70
     1
102
RTVSPropertyOp23
 70
     1
102
RTVSPropertyOp24
 70
     1
102
RTVSPropertyOp25
 70
     1
102
RTVSPropertyOp26
 70
     1
102
RTVSPropertyOp27
 70
     1
  0
XRECORD
  5
5B1C
102
{ACAD_REACTORS
330
5B1B
102
}
330
5B1B
100
AcDbXrecord
280
     1
102
RTVSPropertyOp0
 70
     1
102
RTVSPropertyOp1
 70
     1
102
RTVSPropertyOp2
 70
     1
102
RTVSPropertyOp3
 70
     1
102
RTVSPropertyOp4
 70
     1
102
RTVSPropertyOp5
 70
     1
102
RTVSPropertyOp6
 70
     1
102
RTVSPropertyOp7
 70
     1
102
RTVSPropertyOp8
 70
     1
102
RTVSPropertyOp9
 70
     1
102
RTVSPropertyOp10
 70
     1
102
RTVSPropertyOp11
 70
     1
102
RTVSPropertyOp12
 70
     1
102
RTVSPropertyOp13
 70
     1
102
RTVSPropertyOp14
 70
     1
102
RTVSPropertyOp15
 70
     1
102
RTVSPropertyOp16
 70
     1
102
RTVSPropertyOp17
 70
     1
102
RTVSPropertyOp18
 70
     1
102
RTVSPropertyOp19
 70
     1
102
RTVSPropertyOp20
 70
     1
102
RTVSPropertyOp21
 70
     1
102
RTVSPropertyOp22
 70
     1
102
RTVSPropertyOp23
 70
     1
102
RTVSPropertyOp24
 70
     1
102
RTVSPropertyOp25
 70
     1
102
RTVSPropertyOp26
 70
     1
102
RTVSPropertyOp27
 70
     1
  0
XRECORD
  5
5B1E
102
{ACAD_REACTORS
330
5B1D
102
}
330
5B1D
100
AcDbXrecord
280
     1
102
RTVSPropertyOp0
 70
     1
102
RTVSPropertyOp1
 70
     1
102
RTVSPropertyOp2
 70
     1
102
RTVSPropertyOp3
 70
     1
102
RTVSPropertyOp4
 70
     1
102
RTVSPropertyOp5
 70
     1
102
RTVSPropertyOp6
 70
     1
102
RTVSPropertyOp7
 70
     1
102
RTVSPropertyOp8
 70
     1
102
RTVSPropertyOp9
 70
     1
102
RTVSPropertyOp10
 70
     1
102
RTVSPropertyOp11
 70
     1
102
RTVSPropertyOp12
 70
     1
102
RTVSPropertyOp13
 70
     1
102
RTVSPropertyOp14
 70
     1
102
RTVSPropertyOp15
 70
     1
102
RTVSPropertyOp16
 70
     1
102
RTVSPropertyOp17
 70
     1
102
RTVSPropertyOp18
 70
     1
102
RTVSPropertyOp19
 70
     1
102
RTVSPropertyOp20
 70
     1
102
RTVSPropertyOp21
 70
     1
102
RTVSPropertyOp22
 70
     1
102
RTVSPropertyOp23
 70
     1
102
RTVSPropertyOp24
 70
     1
102
RTVSPropertyOp25
 70
     1
102
RTVSPropertyOp26
 70
     1
102
RTVSPropertyOp27
 70
     1
  0
XRECORD
  5
5B20
102
{ACAD_REACTORS
330
5B1F
102
}
330
5B1F
100
AcDbXrecord
280
     1
102
RTVSPropertyOp0
 70
     1
102
RTVSPropertyOp1
 70
     1
102
RTVSPropertyOp2
 70
     1
102
RTVSPropertyOp3
 70
     1
102
RTVSPropertyOp4
 70
     1
102
RTVSPropertyOp5
 70
     1
102
RTVSPropertyOp6
 70
     1
102
RTVSPropertyOp7
 70
     1
102
RTVSPropertyOp8
 70
     1
102
RTVSPropertyOp9
 70
     1
102
RTVSPropertyOp10
 70
     1
102
RTVSPropertyOp11
 70
     1
102
RTVSPropertyOp12
 70
     1
102
RTVSPropertyOp13
 70
     1
102
RTVSPropertyOp14
 70
     1
102
RTVSPropertyOp15
 70
     1
102
RTVSPropertyOp16
 70
     1
102
RTVSPropertyOp17
 70
     1
102
RTVSPropertyOp18
 70
     1
102
RTVSPropertyOp19
 70
     1
102
RTVSPropertyOp20
 70
     1
102
RTVSPropertyOp21
 70
     1
102
RTVSPropertyOp22
 70
     1
102
RTVSPropertyOp23
 70
     1
102
RTVSPropertyOp24
 70
     1
102
RTVSPropertyOp25
 70
     1
102
RTVSPropertyOp26
 70
     1
102
RTVSPropertyOp27
 70
     1
  0
XRECORD
  5
5B22
102
{ACAD_REACTORS
330
5B21
102
}
330
5B21
100
AcDbXrecord
280
     1
102
RTVSPropertyOp0
 70
     1
102
RTVSPropertyOp1
 70
     1
102
RTVSPropertyOp2
 70
     1
102
RTVSPropertyOp3
 70
     1
102
RTVSPropertyOp4
 70
     1
102
RTVSPropertyOp5
 70
     1
102
RTVSPropertyOp6
 70
     1
102
RTVSPropertyOp7
 70
     1
102
RTVSPropertyOp8
 70
     1
102
RTVSPropertyOp9
 70
     1
102
RTVSPropertyOp10
 70
     1
102
RTVSPropertyOp11
 70
     1
102
RTVSPropertyOp12
 70
     1
102
RTVSPropertyOp13
 70
     1
102
RTVSPropertyOp14
 70
     1
102
RTVSPropertyOp15
 70
     1
102
RTVSPropertyOp16
 70
     1
102
RTVSPropertyOp17
 70
     1
102
RTVSPropertyOp18
 70
     1
102
RTVSPropertyOp19
 70
     1
102
RTVSPropertyOp20
 70
     1
102
RTVSPropertyOp21
 70
     1
102
RTVSPropertyOp22
 70
     1
102
RTVSPropertyOp23
 70
     1
102
RTVSPropertyOp24
 70
     1
102
RTVSPropertyOp25
 70
     1
102
RTVSPropertyOp26
 70
     1
102
RTVSPropertyOp27
 70
     1
  0
XRECORD
  5
5B3C
102
{ACAD_REACTORS
330
5B3B
102
}
330
5B3B
100
AcDbXrecord
280
     1
102
RTVSPropertyOp0
 70
     0
102
RTVSPropertyOp1
 70
     0
102
RTVSPropertyOp2
 70
     0
102
RTVSPropertyOp3
 70
     0
102
RTVSPropertyOp4
 70
     0
102
RTVSPropertyOp5
 70
     0
102
RTVSPropertyOp6
 70
     0
102
RTVSPropertyOp7
 70
     0
102
RTVSPropertyOp8
 70
     0
102
RTVSPropertyOp9
 70
     0
102
RTVSPropertyOp10
 70
     0
102
RTVSPropertyOp11
 70
     0
102
RTVSPropertyOp12
 70
     0
102
RTVSPropertyOp13
 70
     0
102
RTVSPropertyOp14
 70
     2
102
RTVSPropertyOp15
 70
     0
102
RTVSPropertyOp16
 70
     0
102
RTVSPropertyOp17
 70
     0
102
RTVSPropertyOp18
 70
     0
102
RTVSPropertyOp19
 70
     0
102
RTVSPropertyOp20
 70
     0
102
RTVSPropertyOp21
 70
     0
102
RTVSPropertyOp22
 70
     0
102
RTVSPropertyOp23
 70
     0
102
RTVSPropertyOp24
 70
     0
102
RTVSPropertyOp25
 70
     0
102
RTVSPropertyOp26
 70
     0
102
RTVSPropertyOp27
 70
     0
  0
XRECORD
  5
5B36
102
{ACAD_REACTORS
330
5B35
102
}
330
5B35
100
AcDbXrecord
280
     1
102
RTVSPropertyOp0
 70
     1
102
RTVSPropertyOp1
 70
     1
102
RTVSPropertyOp2
 70
     1
102
RTVSPropertyOp3
 70
     1
102
RTVSPropertyOp4
 70
     1
102
RTVSPropertyOp5
 70
     1
102
RTVSPropertyOp6
 70
     1
102
RTVSPropertyOp7
 70
     1
102
RTVSPropertyOp8
 70
     1
102
RTVSPropertyOp9
 70
     1
102
RTVSPropertyOp10
 70
     1
102
RTVSPropertyOp11
 70
     1
102
RTVSPropertyOp12
 70
     1
102
RTVSPropertyOp13
 70
     1
102
RTVSPropertyOp14
 70
     1
102
RTVSPropertyOp15
 70
     1
102
RTVSPropertyOp16
 70
     1
102
RTVSPropertyOp17
 70
     1
102
RTVSPropertyOp18
 70
     1
102
RTVSPropertyOp19
 70
     1
102
RTVSPropertyOp20
 70
     1
102
RTVSPropertyOp21
 70
     1
102
RTVSPropertyOp22
 70
     1
102
RTVSPropertyOp23
 70
     1
102
RTVSPropertyOp24
 70
     1
102
RTVSPropertyOp25
 70
     1
102
RTVSPropertyOp26
 70
     1
102
RTVSPropertyOp27
 70
     1
  0
XRECORD
  5
5B3E
102
{ACAD_REACTORS
330
5B3D
102
}
330
5B3D
100
AcDbXrecord
280
     1
102
RTVSPropertyOp0
 70
     0
102
RTVSPropertyOp1
 70
     0
102
RTVSPropertyOp2
 70
     0
102
RTVSPropertyOp3
 70
     0
102
RTVSPropertyOp4
 70
     0
102
RTVSPropertyOp5
 70
     0
102
RTVSPropertyOp6
 70
     0
102
RTVSPropertyOp7
 70
     0
102
RTVSPropertyOp8
 70
     0
102
RTVSPropertyOp9
 70
     0
102
RTVSPropertyOp10
 70
     0
102
RTVSPropertyOp11
 70
     0
102
RTVSPropertyOp12
 70
     0
102
RTVSPropertyOp13
 70
     0
102
RTVSPropertyOp14
 70
     2
102
RTVSPropertyOp15
 70
     0
102
RTVSPropertyOp16
 70
     0
102
RTVSPropertyOp17
 70
     0
102
RTVSPropertyOp18
 70
     0
102
RTVSPropertyOp19
 70
     0
102
RTVSPropertyOp20
 70
     0
102
RTVSPropertyOp21
 70
     0
102
RTVSPropertyOp22
 70
     0
102
RTVSPropertyOp23
 70
     0
102
RTVSPropertyOp24
 70
     0
102
RTVSPropertyOp25
 70
     0
102
RTVSPropertyOp26
 70
     0
102
RTVSPropertyOp27
 70
     0
  0
XRECORD
  5
5B2E
102
{ACAD_REACTORS
330
5B2D
102
}
330
5B2D
100
AcDbXrecord
280
     1
102
RTVSPropertyOp0
 70
     1
102
RTVSPropertyOp1
 70
     1
102
RTVSPropertyOp2
 70
     1
102
RTVSPropertyOp3
 70
     1
102
RTVSPropertyOp4
 70
     1
102
RTVSPropertyOp5
 70
     1
102
RTVSPropertyOp6
 70
     1
102
RTVSPropertyOp7
 70
     1
102
RTVSPropertyOp8
 70
     1
102
RTVSPropertyOp9
 70
     1
102
RTVSPropertyOp10
 70
     1
102
RTVSPropertyOp11
 70
     1
102
RTVSPropertyOp12
 70
     1
102
RTVSPropertyOp13
 70
     1
102
RTVSPropertyOp14
 70
     1
102
RTVSPropertyOp15
 70
     1
102
RTVSPropertyOp16
 70
     1
102
RTVSPropertyOp17
 70
     1
102
RTVSPropertyOp18
 70
     1
102
RTVSPropertyOp19
 70
     1
102
RTVSPropertyOp20
 70
     1
102
RTVSPropertyOp21
 70
     1
102
RTVSPropertyOp22
 70
     1
102
RTVSPropertyOp23
 70
     1
102
RTVSPropertyOp24
 70
     1
102
RTVSPropertyOp25
 70
     1
102
RTVSPropertyOp26
 70
     1
102
RTVSPropertyOp27
 70
     1
  0
XRECORD
  5
5B34
102
{ACAD_REACTORS
330
5B33
102
}
330
5B33
100
AcDbXrecord
280
     1
102
RTVSPropertyOp0
 70
     1
102
RTVSPropertyOp1
 70
     1
102
RTVSPropertyOp2
 70
     1
102
RTVSPropertyOp3
 70
     1
102
RTVSPropertyOp4
 70
     1
102
RTVSPropertyOp5
 70
     1
102
RTVSPropertyOp6
 70
     1
102
RTVSPropertyOp7
 70
     1
102
RTVSPropertyOp8
 70
     1
102
RTVSPropertyOp9
 70
     1
102
RTVSPropertyOp10
 70
     1
102
RTVSPropertyOp11
 70
     1
102
RTVSPropertyOp12
 70
     1
102
RTVSPropertyOp13
 70
     1
102
RTVSPropertyOp14
 70
     1
102
RTVSPropertyOp15
 70
     1
102
RTVSPropertyOp16
 70
     1
102
RTVSPropertyOp17
 70
     1
102
RTVSPropertyOp18
 70
     1
102
RTVSPropertyOp19
 70
     1
102
RTVSPropertyOp20
 70
     1
102
RTVSPropertyOp21
 70
     1
102
RTVSPropertyOp22
 70
     1
102
RTVSPropertyOp23
 70
     1
102
RTVSPropertyOp24
 70
     1
102
RTVSPropertyOp25
 70
     1
102
RTVSPropertyOp26
 70
     1
102
RTVSPropertyOp27
 70
     1
  0
ENDSEC
  0
EOF
